ISO-10303-21;
HEADER;
FILE_DESCRIPTION(('no description'),'unknown implementation level');
FILE_NAME('solidbc_PWkZEuBYCNdfYH_FrA2Cz3aI_1.STP','  ',('CIMSOURCE GmbH'),('CADClick - KiM GmbH - www.kimweb.de'),'unknown preprocess','ACIS','unknown authorization');
FILE_SCHEMA(('automotive_design'));
ENDSEC;
DATA;
#1=MECHANICAL_DESIGN_GEOMETRIC_PRESENTATION_REPRESENTATION(' ',(#14,#15,#16,#17,#18,#19,#20,#21,#22,#23,#24,#25,#26,#27,#28,#29,#30,#31,#32,#33,#34,#35,#36,#37,#38,#39,#40,#41,#42,#43,#44,#45,#46,#47,#48,#49,#50,#51,#52,#53,#54,#55,#56,#57,#58,#59,#60),#10);
#2=PRODUCT_DEFINITION_CONTEXT('',#61,'design');
#3=APPLICATION_PROTOCOL_DEFINITION('INTERNATIONAL STANDARD','automotive_design',1994,#61);
#4=PRODUCT_CATEGORY_RELATIONSHIP('NONE','NONE',#62,#63);
#5=SHAPE_DEFINITION_REPRESENTATION(#64,#65);
#6=PRODUCT_DEFINITION_CONTEXT('',#66,'design');
#7=APPLICATION_PROTOCOL_DEFINITION('INTERNATIONAL STANDARD','automotive_design',1994,#66);
#8=PRODUCT_CATEGORY_RELATIONSHIP('NONE','NONE',#67,#68);
#9=SHAPE_DEFINITION_REPRESENTATION(#69,#70);
#10= (GEOMETRIC_REPRESENTATION_CONTEXT(3)GLOBAL_UNCERTAINTY_ASSIGNED_CONTEXT((#73))GLOBAL_UNIT_ASSIGNED_CONTEXT((#75,#76,#77))REPRESENTATION_CONTEXT('NONE','WORKSPACE'));
#14=STYLED_ITEM('',(#79),#80);
#15=STYLED_ITEM('',(#81),#82);
#16=STYLED_ITEM('',(#83),#84);
#17=STYLED_ITEM('',(#85),#86);
#18=STYLED_ITEM('',(#87),#88);
#19=STYLED_ITEM('',(#89),#90);
#20=STYLED_ITEM('',(#91),#92);
#21=STYLED_ITEM('',(#93),#94);
#22=STYLED_ITEM('',(#95),#96);
#23=STYLED_ITEM('',(#97),#98);
#24=STYLED_ITEM('',(#99),#100);
#25=STYLED_ITEM('',(#101),#102);
#26=STYLED_ITEM('',(#103),#104);
#27=STYLED_ITEM('',(#105),#106);
#28=STYLED_ITEM('',(#107),#108);
#29=STYLED_ITEM('',(#109),#110);
#30=STYLED_ITEM('',(#111),#112);
#31=STYLED_ITEM('',(#113),#114);
#32=STYLED_ITEM('',(#115),#116);
#33=STYLED_ITEM('',(#117),#118);
#34=STYLED_ITEM('',(#119),#120);
#35=STYLED_ITEM('',(#121),#122);
#36=STYLED_ITEM('',(#123),#124);
#37=STYLED_ITEM('',(#125),#126);
#38=STYLED_ITEM('',(#127),#128);
#39=STYLED_ITEM('',(#129),#130);
#40=STYLED_ITEM('',(#131),#132);
#41=STYLED_ITEM('',(#133),#134);
#42=STYLED_ITEM('',(#135),#136);
#43=STYLED_ITEM('',(#137),#138);
#44=STYLED_ITEM('',(#139),#140);
#45=STYLED_ITEM('',(#141),#142);
#46=STYLED_ITEM('',(#143),#144);
#47=STYLED_ITEM('',(#145),#146);
#48=STYLED_ITEM('',(#147),#148);
#49=STYLED_ITEM('',(#149),#150);
#50=STYLED_ITEM('',(#151),#152);
#51=STYLED_ITEM('',(#153),#154);
#52=STYLED_ITEM('',(#155),#156);
#53=STYLED_ITEM('',(#157),#158);
#54=STYLED_ITEM('',(#159),#160);
#55=STYLED_ITEM('',(#161),#162);
#56=STYLED_ITEM('',(#163),#164);
#57=STYLED_ITEM('',(#165),#166);
#58=STYLED_ITEM('',(#167),#168);
#59=STYLED_ITEM('',(#169),#170);
#60=STYLED_ITEM('',(#171),#172);
#61=APPLICATION_CONTEXT(' ');
#62=PRODUCT_CATEGORY('part','NONE');
#63=PRODUCT_RELATED_PRODUCT_CATEGORY('detail',' ',(#173));
#64=PRODUCT_DEFINITION_SHAPE('NONE','NONE',#174);
#65=ADVANCED_BREP_SHAPE_REPRESENTATION('1',(#88,#175),#10);
#66=APPLICATION_CONTEXT(' ');
#67=PRODUCT_CATEGORY('part','NONE');
#68=PRODUCT_RELATED_PRODUCT_CATEGORY('detail',' ',(#176));
#69=PRODUCT_DEFINITION_SHAPE('NONE','NONE',#177);
#70=ADVANCED_BREP_SHAPE_REPRESENTATION('2',(#106,#178),#10);
#73=UNCERTAINTY_MEASURE_WITH_UNIT(LENGTH_MEASURE(1.0E-006),#75,'','');
#75= (CONVERSION_BASED_UNIT('MILLIMETRE',#181)LENGTH_UNIT()NAMED_UNIT(#184));
#76= (NAMED_UNIT(#186)PLANE_ANGLE_UNIT()SI_UNIT($,.RADIAN.));
#77= (NAMED_UNIT(#186)SOLID_ANGLE_UNIT()SI_UNIT($,.STERADIAN.));
#79=PRESENTATION_STYLE_ASSIGNMENT((#192));
#80=EDGE_CURVE('',#98,#160,#193,.T.);
#81=PRESENTATION_STYLE_ASSIGNMENT((#194));
#82=EDGE_CURVE('',#160,#156,#195,.T.);
#83=PRESENTATION_STYLE_ASSIGNMENT((#196));
#84=EDGE_CURVE('',#168,#108,#197,.T.);
#85=PRESENTATION_STYLE_ASSIGNMENT((#198));
#86=EDGE_CURVE('',#156,#160,#199,.T.);
#87=PRESENTATION_STYLE_ASSIGNMENT((#200));
#88=MANIFOLD_SOLID_BREP('1',#201);
#89=PRESENTATION_STYLE_ASSIGNMENT((#202));
#90=EDGE_CURVE('',#132,#162,#203,.T.);
#91=PRESENTATION_STYLE_ASSIGNMENT((#204));
#92=VERTEX_POINT('',#205);
#93=PRESENTATION_STYLE_ASSIGNMENT((#206));
#94=ADVANCED_FACE('',(#207),#208,.T.);
#95=PRESENTATION_STYLE_ASSIGNMENT((#209));
#96=EDGE_CURVE('',#162,#132,#210,.T.);
#97=PRESENTATION_STYLE_ASSIGNMENT((#211));
#98=VERTEX_POINT('',#212);
#99=PRESENTATION_STYLE_ASSIGNMENT((#213));
#100=VERTEX_POINT('',#214);
#101=PRESENTATION_STYLE_ASSIGNMENT((#215));
#102=EDGE_CURVE('',#92,#162,#216,.T.);
#103=PRESENTATION_STYLE_ASSIGNMENT((#217));
#104=ADVANCED_FACE('',(#218),#219,.T.);
#105=PRESENTATION_STYLE_ASSIGNMENT((#220));
#106=MANIFOLD_SOLID_BREP('2',#221);
#107=PRESENTATION_STYLE_ASSIGNMENT((#222));
#108=VERTEX_POINT('',#223);
#109=PRESENTATION_STYLE_ASSIGNMENT((#224));
#110=ADVANCED_FACE('',(#225),#226,.T.);
#111=PRESENTATION_STYLE_ASSIGNMENT((#227));
#112=ADVANCED_FACE('',(#228),#229,.T.);
#113=PRESENTATION_STYLE_ASSIGNMENT((#230));
#114=EDGE_CURVE('',#132,#92,#231,.T.);
#115=PRESENTATION_STYLE_ASSIGNMENT((#232));
#116=EDGE_CURVE('',#100,#156,#233,.T.);
#117=PRESENTATION_STYLE_ASSIGNMENT((#234));
#118=ADVANCED_FACE('',(#235,#236),#237,.T.);
#119=PRESENTATION_STYLE_ASSIGNMENT((#238));
#120=ADVANCED_FACE('',(#239),#240,.T.);
#121=PRESENTATION_STYLE_ASSIGNMENT((#241));
#122=VERTEX_POINT('',#242);
#123=PRESENTATION_STYLE_ASSIGNMENT((#243));
#124=EDGE_CURVE('',#156,#146,#244,.T.);
#125=PRESENTATION_STYLE_ASSIGNMENT((#245));
#126=EDGE_CURVE('',#98,#146,#246,.T.);
#127=PRESENTATION_STYLE_ASSIGNMENT((#247));
#128=VERTEX_POINT('',#248);
#129=PRESENTATION_STYLE_ASSIGNMENT((#249));
#130=ADVANCED_FACE('',(#250),#251,.T.);
#131=PRESENTATION_STYLE_ASSIGNMENT((#252));
#132=VERTEX_POINT('',#253);
#133=PRESENTATION_STYLE_ASSIGNMENT((#254));
#134=EDGE_CURVE('',#160,#128,#255,.T.);
#135=PRESENTATION_STYLE_ASSIGNMENT((#256));
#136=ADVANCED_FACE('',(#257),#258,.F.);
#137=PRESENTATION_STYLE_ASSIGNMENT((#259));
#138=EDGE_CURVE('',#100,#128,#260,.T.);
#139=PRESENTATION_STYLE_ASSIGNMENT((#261));
#140=EDGE_CURVE('',#142,#122,#262,.T.);
#141=PRESENTATION_STYLE_ASSIGNMENT((#263));
#142=VERTEX_POINT('',#264);
#143=PRESENTATION_STYLE_ASSIGNMENT((#265));
#144=EDGE_CURVE('',#122,#142,#266,.T.);
#145=PRESENTATION_STYLE_ASSIGNMENT((#267));
#146=VERTEX_POINT('',#268);
#147=PRESENTATION_STYLE_ASSIGNMENT((#269));
#148=ADVANCED_FACE('',(#270),#271,.T.);
#149=PRESENTATION_STYLE_ASSIGNMENT((#272));
#150=EDGE_CURVE('',#108,#122,#273,.T.);
#151=PRESENTATION_STYLE_ASSIGNMENT((#274));
#152=EDGE_CURVE('',#128,#100,#275,.T.);
#153=PRESENTATION_STYLE_ASSIGNMENT((#276));
#154=ADVANCED_FACE('',(#277),#278,.T.);
#155=PRESENTATION_STYLE_ASSIGNMENT((#279));
#156=VERTEX_POINT('',#280);
#157=PRESENTATION_STYLE_ASSIGNMENT((#281));
#158=EDGE_CURVE('',#146,#98,#282,.T.);
#159=PRESENTATION_STYLE_ASSIGNMENT((#283));
#160=VERTEX_POINT('',#284);
#161=PRESENTATION_STYLE_ASSIGNMENT((#285));
#162=VERTEX_POINT('',#286);
#163=PRESENTATION_STYLE_ASSIGNMENT((#287));
#164=EDGE_CURVE('',#142,#168,#288,.T.);
#165=PRESENTATION_STYLE_ASSIGNMENT((#289));
#166=EDGE_CURVE('',#108,#168,#290,.T.);
#167=PRESENTATION_STYLE_ASSIGNMENT((#291));
#168=VERTEX_POINT('',#292);
#169=PRESENTATION_STYLE_ASSIGNMENT((#293));
#170=ADVANCED_FACE('',(#294),#295,.F.);
#171=PRESENTATION_STYLE_ASSIGNMENT((#296));
#172=ADVANCED_FACE('',(#297),#298,.T.);
#173=PRODUCT('1','1','PART-1-DESC',(#299));
#174=PRODUCT_DEFINITION('NONE','NONE',#300,#2);
#175=AXIS2_PLACEMENT_3D('',#301,#302,#303);
#176=PRODUCT('2','2','PART-2-DESC',(#304));
#177=PRODUCT_DEFINITION('NONE','NONE',#305,#6);
#178=AXIS2_PLACEMENT_3D('',#306,#307,#308);
#181=LENGTH_MEASURE_WITH_UNIT(LENGTH_MEASURE(1.0),#309);
#184=DIMENSIONAL_EXPONENTS(1.0,0.0,0.0,0.0,0.0,0.0,0.0);
#186=DIMENSIONAL_EXPONENTS(0.0,0.0,0.0,0.0,0.0,0.0,0.0);
#192=CURVE_STYLE('',#310,POSITIVE_LENGTH_MEASURE(1.0E-006),#311);
#193=LINE('',#312,#313);
#194=CURVE_STYLE('',#314,POSITIVE_LENGTH_MEASURE(1.0E-006),#315);
#195=CIRCLE('',#316,6.35);
#196=CURVE_STYLE('',#317,POSITIVE_LENGTH_MEASURE(1.0E-006),#318);
#197=CIRCLE('',#319,7.144);
#198=CURVE_STYLE('',#320,POSITIVE_LENGTH_MEASURE(1.0E-006),#321);
#199=CIRCLE('',#322,6.35);
#200=SURFACE_STYLE_USAGE(.BOTH.,#323);
#201=CLOSED_SHELL('',(#148,#136,#170,#118,#104,#154));
#202=CURVE_STYLE('',#324,POSITIVE_LENGTH_MEASURE(1.0E-006),#325);
#203=CIRCLE('',#326,7.1389);
#204=POINT_STYLE(' ',#327,POSITIVE_LENGTH_MEASURE(1.0E-006),#328);
#205=CARTESIAN_POINT('',(0.0,0.0,-50.8));
#206=SURFACE_STYLE_USAGE(.BOTH.,#329);
#207=FACE_OUTER_BOUND('',#330,.T.);
#208=CONICAL_SURFACE('',#331,6.12079194313172,0.523598775598301);
#209=CURVE_STYLE('',#332,POSITIVE_LENGTH_MEASURE(1.0E-006),#333);
#210=CIRCLE('',#334,7.1389);
#211=POINT_STYLE(' ',#335,POSITIVE_LENGTH_MEASURE(1.0E-006),#336);
#212=CARTESIAN_POINT('',(0.0,5.89158388626344,0.00999999999999801));
#213=POINT_STYLE(' ',#337,POSITIVE_LENGTH_MEASURE(1.0E-006),#338);
#214=CARTESIAN_POINT('',(0.0,-6.35,-50.79));
#215=CURVE_STYLE('',#339,POSITIVE_LENGTH_MEASURE(1.0E-006),#340);
#216=LINE('',#341,#342);
#217=SURFACE_STYLE_USAGE(.BOTH.,#343);
#218=FACE_OUTER_BOUND('',#344,.T.);
#219=CONICAL_SURFACE('',#345,7.14395,2.86532951287946E-006);
#220=SURFACE_STYLE_USAGE(.BOTH.,#346);
#221=CLOSED_SHELL('',(#172,#110,#130,#112,#94,#120));
#222=POINT_STYLE(' ',#347,POSITIVE_LENGTH_MEASURE(1.0E-006),#348);
#223=CARTESIAN_POINT('',(8.74858779170706E-016,-7.144,-85.69));
#224=SURFACE_STYLE_USAGE(.BOTH.,#349);
#225=FACE_OUTER_BOUND('',#350,.T.);
#226=CONICAL_SURFACE('',#351,6.12079194313172,0.523598775598301);
#227=SURFACE_STYLE_USAGE(.BOTH.,#352);
#228=FACE_OUTER_BOUND('',#353,.T.);
#229=PLANE('',#354);
#230=CURVE_STYLE('',#355,POSITIVE_LENGTH_MEASURE(1.0E-006),#356);
#231=LINE('',#357,#358);
#232=CURVE_STYLE('',#359,POSITIVE_LENGTH_MEASURE(1.0E-006),#360);
#233=LINE('',#361,#362);
#234=SURFACE_STYLE_USAGE(.BOTH.,#363);
#235=FACE_OUTER_BOUND('',#364,.T.);
#236=FACE_BOUND('',#365,.T.);
#237=PLANE('',#366);
#238=SURFACE_STYLE_USAGE(.BOTH.,#367);
#239=FACE_OUTER_BOUND('',#368,.T.);
#240=CYLINDRICAL_SURFACE('',#369,6.35);
#241=POINT_STYLE(' ',#370,POSITIVE_LENGTH_MEASURE(1.0E-006),#371);
#242=CARTESIAN_POINT('',(8.74846533107168E-016,-7.1439,-50.79));
#243=CURVE_STYLE('',#372,POSITIVE_LENGTH_MEASURE(1.0E-006),#373);
#244=LINE('',#374,#375);
#245=CURVE_STYLE('',#376,POSITIVE_LENGTH_MEASURE(1.0E-006),#377);
#246=CIRCLE('',#378,5.89158388626344);
#247=POINT_STYLE(' ',#379,POSITIVE_LENGTH_MEASURE(1.0E-006),#380);
#248=CARTESIAN_POINT('',(-7.7762503467721E-016,6.35,-50.79));
#249=SURFACE_STYLE_USAGE(.BOTH.,#381);
#250=FACE_OUTER_BOUND('',#382,.T.);
#251=PLANE('',#383);
#252=POINT_STYLE(' ',#384,POSITIVE_LENGTH_MEASURE(1.0E-006),#385);
#253=CARTESIAN_POINT('',(0.0,7.1389,-50.79));
#254=CURVE_STYLE('',#386,POSITIVE_LENGTH_MEASURE(1.0E-006),#387);
#255=LINE('',#388,#389);
#256=SURFACE_STYLE_USAGE(.BOTH.,#390);
#257=FACE_OUTER_BOUND('',#391,.T.);
#258=CONICAL_SURFACE('',#392,3.56945,1.56939555168116);
#259=CURVE_STYLE('',#393,POSITIVE_LENGTH_MEASURE(1.0E-006),#394);
#260=CIRCLE('',#395,6.35);
#261=CURVE_STYLE('',#396,POSITIVE_LENGTH_MEASURE(1.0E-006),#397);
#262=CIRCLE('',#398,7.1439);
#263=POINT_STYLE(' ',#399,POSITIVE_LENGTH_MEASURE(1.0E-006),#400);
#264=CARTESIAN_POINT('',(0.0,7.1439,-50.79));
#265=CURVE_STYLE('',#401,POSITIVE_LENGTH_MEASURE(1.0E-006),#402);
#266=CIRCLE('',#403,7.1439);
#267=POINT_STYLE(' ',#404,POSITIVE_LENGTH_MEASURE(1.0E-006),#405);
#268=CARTESIAN_POINT('',(7.21487106119574E-016,-5.89158388626344,0.00999999999999801));
#269=SURFACE_STYLE_USAGE(.BOTH.,#406);
#270=FACE_OUTER_BOUND('',#407,.T.);
#271=CONICAL_SURFACE('',#408,7.14395,2.86532951287946E-006);
#272=CURVE_STYLE('',#409,POSITIVE_LENGTH_MEASURE(1.0E-006),#410);
#273=LINE('',#411,#412);
#274=CURVE_STYLE('',#413,POSITIVE_LENGTH_MEASURE(1.0E-006),#414);
#275=CIRCLE('',#415,6.35);
#276=SURFACE_STYLE_USAGE(.BOTH.,#416);
#277=FACE_OUTER_BOUND('',#417,.T.);
#278=PLANE('',#418);
#279=POINT_STYLE(' ',#419,POSITIVE_LENGTH_MEASURE(1.0E-006),#420);
#280=CARTESIAN_POINT('',(7.7762503467721E-016,-6.35,-0.783999999999999));
#281=CURVE_STYLE('',#421,POSITIVE_LENGTH_MEASURE(1.0E-006),#422);
#282=CIRCLE('',#423,5.89158388626344);
#283=POINT_STYLE(' ',#424,POSITIVE_LENGTH_MEASURE(1.0E-006),#425);
#284=CARTESIAN_POINT('',(0.0,6.35,-0.783999999999999));
#285=POINT_STYLE(' ',#426,POSITIVE_LENGTH_MEASURE(1.0E-006),#427);
#286=CARTESIAN_POINT('',(8.74234229930257E-016,-7.1389,-50.79));
#287=CURVE_STYLE('',#428,POSITIVE_LENGTH_MEASURE(1.0E-006),#429);
#288=LINE('',#430,#431);
#289=CURVE_STYLE('',#432,POSITIVE_LENGTH_MEASURE(1.0E-006),#433);
#290=CIRCLE('',#434,7.144);
#291=POINT_STYLE(' ',#435,POSITIVE_LENGTH_MEASURE(1.0E-006),#436);
#292=CARTESIAN_POINT('',(0.0,7.144,-85.69));
#293=SURFACE_STYLE_USAGE(.BOTH.,#437);
#294=FACE_OUTER_BOUND('',#438,.T.);
#295=CONICAL_SURFACE('',#439,3.56945,1.56939555168116);
#296=SURFACE_STYLE_USAGE(.BOTH.,#440);
#297=FACE_OUTER_BOUND('',#441,.T.);
#298=CYLINDRICAL_SURFACE('',#442,6.35);
#299=PRODUCT_CONTEXT('',#61,'mechanical');
#300=PRODUCT_DEFINITION_FORMATION_WITH_SPECIFIED_SOURCE(' ','NONE',#173,.NOT_KNOWN.);
#301=CARTESIAN_POINT('',(0.0,0.0,0.0));
#302=DIRECTION('',(0.0,0.0,1.0));
#303=DIRECTION('',(1.0,0.0,0.0));
#304=PRODUCT_CONTEXT('',#66,'mechanical');
#305=PRODUCT_DEFINITION_FORMATION_WITH_SPECIFIED_SOURCE(' ','NONE',#176,.NOT_KNOWN.);
#306=CARTESIAN_POINT('',(0.0,0.0,0.0));
#307=DIRECTION('',(0.0,0.0,1.0));
#308=DIRECTION('',(1.0,0.0,0.0));
#309= (NAMED_UNIT(#184)LENGTH_UNIT()SI_UNIT(.MILLI.,.METRE.));
#310=DRAUGHTING_PRE_DEFINED_CURVE_FONT('continuous');
#311=COLOUR_RGB('',0.498039215803146,0.498039215803146,0.498039215803146);
#312=CARTESIAN_POINT('',(-7.49556070398392E-016,6.12079194313172,-0.387));
#313=VECTOR('',#444,1.0);
#314=DRAUGHTING_PRE_DEFINED_CURVE_FONT('continuous');
#315=COLOUR_RGB('',0.498039215803146,0.498039215803146,0.498039215803146);
#316=AXIS2_PLACEMENT_3D('',#445,#446,#447);
#317=DRAUGHTING_PRE_DEFINED_CURVE_FONT('continuous');
#318=COLOUR_RGB('',0.800000011920929,0.800000011920929,0.800000011920929);
#319=AXIS2_PLACEMENT_3D('',#448,#449,#450);
#320=DRAUGHTING_PRE_DEFINED_CURVE_FONT('continuous');
#321=COLOUR_RGB('',0.498039215803146,0.498039215803146,0.498039215803146);
#322=AXIS2_PLACEMENT_3D('',#451,#452,#453);
#323=SURFACE_SIDE_STYLE('',(#454));
#324=DRAUGHTING_PRE_DEFINED_CURVE_FONT('continuous');
#325=COLOUR_RGB('',0.800000011920929,0.800000011920929,0.800000011920929);
#326=AXIS2_PLACEMENT_3D('',#455,#456,#457);
#327=PRE_DEFINED_MARKER('');
#328=COLOUR_RGB('',0.800000011920929,0.800000011920929,0.800000011920929);
#329=SURFACE_SIDE_STYLE('',(#458));
#330=EDGE_LOOP('',(#459,#460,#461,#462));
#331=AXIS2_PLACEMENT_3D('',#463,#464,#465);
#332=DRAUGHTING_PRE_DEFINED_CURVE_FONT('continuous');
#333=COLOUR_RGB('',0.800000011920929,0.800000011920929,0.800000011920929);
#334=AXIS2_PLACEMENT_3D('',#466,#467,#468);
#335=PRE_DEFINED_MARKER('');
#336=COLOUR_RGB('',0.498039215803146,0.498039215803146,0.498039215803146);
#337=PRE_DEFINED_MARKER('');
#338=COLOUR_RGB('',0.498039215803146,0.498039215803146,0.498039215803146);
#339=DRAUGHTING_PRE_DEFINED_CURVE_FONT('continuous');
#340=COLOUR_RGB('',0.800000011920929,0.800000011920929,0.800000011920929);
#341=CARTESIAN_POINT('',(4.37117114965128E-016,-3.56945,-50.795));
#342=VECTOR('',#469,1.0);
#343=SURFACE_SIDE_STYLE('',(#470));
#344=EDGE_LOOP('',(#471,#472,#473,#474));
#345=AXIS2_PLACEMENT_3D('',#475,#476,#477);
#346=SURFACE_SIDE_STYLE('',(#478));
#347=PRE_DEFINED_MARKER('');
#348=COLOUR_RGB('',0.800000011920929,0.800000011920929,0.800000011920929);
#349=SURFACE_SIDE_STYLE('',(#479));
#350=EDGE_LOOP('',(#480,#481,#482,#483));
#351=AXIS2_PLACEMENT_3D('',#484,#485,#486);
#352=SURFACE_SIDE_STYLE('',(#487));
#353=EDGE_LOOP('',(#488,#489));
#354=AXIS2_PLACEMENT_3D('',#490,#491,#492);
#355=DRAUGHTING_PRE_DEFINED_CURVE_FONT('continuous');
#356=COLOUR_RGB('',0.800000011920929,0.800000011920929,0.800000011920929);
#357=CARTESIAN_POINT('',(-4.37117114965128E-016,3.56945,-50.795));
#358=VECTOR('',#493,1.0);
#359=DRAUGHTING_PRE_DEFINED_CURVE_FONT('continuous');
#360=COLOUR_RGB('',0.498039215803146,0.498039215803146,0.498039215803146);
#361=CARTESIAN_POINT('',(7.7762503467721E-016,-6.35,-18.643));
#362=VECTOR('',#494,1.0);
#363=SURFACE_SIDE_STYLE('',(#495));
#364=EDGE_LOOP('',(#496,#497));
#365=EDGE_LOOP('',(#498,#499));
#366=AXIS2_PLACEMENT_3D('',#500,#501,#502);
#367=SURFACE_SIDE_STYLE('',(#503));
#368=EDGE_LOOP('',(#504,#505,#506,#507));
#369=AXIS2_PLACEMENT_3D('',#508,#509,#510);
#370=PRE_DEFINED_MARKER('');
#371=COLOUR_RGB('',0.800000011920929,0.800000011920929,0.800000011920929);
#372=DRAUGHTING_PRE_DEFINED_CURVE_FONT('continuous');
#373=COLOUR_RGB('',0.498039215803146,0.498039215803146,0.498039215803146);
#374=CARTESIAN_POINT('',(7.49556070398392E-016,-6.12079194313172,-0.387));
#375=VECTOR('',#511,1.0);
#376=DRAUGHTING_PRE_DEFINED_CURVE_FONT('continuous');
#377=COLOUR_RGB('',0.498039215803146,0.498039215803146,0.498039215803146);
#378=AXIS2_PLACEMENT_3D('',#512,#513,#514);
#379=PRE_DEFINED_MARKER('');
#380=COLOUR_RGB('',0.498039215803146,0.498039215803146,0.498039215803146);
#381=SURFACE_SIDE_STYLE('',(#515));
#382=EDGE_LOOP('',(#516,#517));
#383=AXIS2_PLACEMENT_3D('',#518,#519,#520);
#384=PRE_DEFINED_MARKER('');
#385=COLOUR_RGB('',0.800000011920929,0.800000011920929,0.800000011920929);
#386=DRAUGHTING_PRE_DEFINED_CURVE_FONT('continuous');
#387=COLOUR_RGB('',0.498039215803146,0.498039215803146,0.498039215803146);
#388=CARTESIAN_POINT('',(-7.7762503467721E-016,6.35,-18.643));
#389=VECTOR('',#521,1.0);
#390=SURFACE_SIDE_STYLE('',(#522));
#391=EDGE_LOOP('',(#523,#524,#525));
#392=AXIS2_PLACEMENT_3D('',#526,#527,#528);
#393=DRAUGHTING_PRE_DEFINED_CURVE_FONT('continuous');
#394=COLOUR_RGB('',0.498039215803146,0.498039215803146,0.498039215803146);
#395=AXIS2_PLACEMENT_3D('',#529,#530,#531);
#396=DRAUGHTING_PRE_DEFINED_CURVE_FONT('continuous');
#397=COLOUR_RGB('',0.800000011920929,0.800000011920929,0.800000011920929);
#398=AXIS2_PLACEMENT_3D('',#532,#533,#534);
#399=PRE_DEFINED_MARKER('');
#400=COLOUR_RGB('',0.800000011920929,0.800000011920929,0.800000011920929);
#401=DRAUGHTING_PRE_DEFINED_CURVE_FONT('continuous');
#402=COLOUR_RGB('',0.800000011920929,0.800000011920929,0.800000011920929);
#403=AXIS2_PLACEMENT_3D('',#535,#536,#537);
#404=PRE_DEFINED_MARKER('');
#405=COLOUR_RGB('',0.498039215803146,0.498039215803146,0.498039215803146);
#406=SURFACE_SIDE_STYLE('',(#538));
#407=EDGE_LOOP('',(#539,#540,#541,#542));
#408=AXIS2_PLACEMENT_3D('',#543,#544,#545);
#409=DRAUGHTING_PRE_DEFINED_CURVE_FONT('continuous');
#410=COLOUR_RGB('',0.800000011920929,0.800000011920929,0.800000011920929);
#411=CARTESIAN_POINT('',(8.74852656138937E-016,-7.14395,-68.24));
#412=VECTOR('',#546,1.0);
#413=DRAUGHTING_PRE_DEFINED_CURVE_FONT('continuous');
#414=COLOUR_RGB('',0.498039215803146,0.498039215803146,0.498039215803146);
#415=AXIS2_PLACEMENT_3D('',#547,#548,#549);
#416=SURFACE_SIDE_STYLE('',(#550));
#417=EDGE_LOOP('',(#551,#552));
#418=AXIS2_PLACEMENT_3D('',#553,#554,#555);
#419=PRE_DEFINED_MARKER('');
#420=COLOUR_RGB('',0.498039215803146,0.498039215803146,0.498039215803146);
#421=DRAUGHTING_PRE_DEFINED_CURVE_FONT('continuous');
#422=COLOUR_RGB('',0.498039215803146,0.498039215803146,0.498039215803146);
#423=AXIS2_PLACEMENT_3D('',#556,#557,#558);
#424=PRE_DEFINED_MARKER('');
#425=COLOUR_RGB('',0.498039215803146,0.498039215803146,0.498039215803146);
#426=PRE_DEFINED_MARKER('');
#427=COLOUR_RGB('',0.800000011920929,0.800000011920929,0.800000011920929);
#428=DRAUGHTING_PRE_DEFINED_CURVE_FONT('continuous');
#429=COLOUR_RGB('',0.800000011920929,0.800000011920929,0.800000011920929);
#430=CARTESIAN_POINT('',(-8.74852656138937E-016,7.14395,-68.24));
#431=VECTOR('',#559,1.0);
#432=DRAUGHTING_PRE_DEFINED_CURVE_FONT('continuous');
#433=COLOUR_RGB('',0.800000011920929,0.800000011920929,0.800000011920929);
#434=AXIS2_PLACEMENT_3D('',#560,#561,#562);
#435=PRE_DEFINED_MARKER('');
#436=COLOUR_RGB('',0.800000011920929,0.800000011920929,0.800000011920929);
#437=SURFACE_SIDE_STYLE('',(#563));
#438=EDGE_LOOP('',(#564,#565,#566));
#439=AXIS2_PLACEMENT_3D('',#567,#568,#569);
#440=SURFACE_SIDE_STYLE('',(#570));
#441=EDGE_LOOP('',(#571,#572,#573,#574));
#442=AXIS2_PLACEMENT_3D('',#575,#576,#577);
#444=DIRECTION('',(-6.12303176911191E-017,0.500000000000002,-0.866025403784438));
#445=CARTESIAN_POINT('',(0.0,0.0,-0.783999999999999));
#446=DIRECTION('',(0.0,0.0,-1.0));
#447=DIRECTION('',(0.0,1.0,0.0));
#448=CARTESIAN_POINT('',(0.0,0.0,-85.69));
#449=DIRECTION('',(0.0,0.0,-1.0));
#450=DIRECTION('',(0.0,1.0,0.0));
#451=CARTESIAN_POINT('',(0.0,0.0,-0.783999999999999));
#452=DIRECTION('',(0.0,0.0,-1.0));
#453=DIRECTION('',(0.0,1.0,0.0));
#454=SURFACE_STYLE_FILL_AREA(#578);
#455=CARTESIAN_POINT('',(0.0,0.0,-50.79));
#456=DIRECTION('',(0.0,0.0,-1.0));
#457=DIRECTION('',(0.0,1.0,0.0));
#458=SURFACE_STYLE_FILL_AREA(#579);
#459=ORIENTED_EDGE('',*,*,#80,.T.);
#460=ORIENTED_EDGE('',*,*,#86,.F.);
#461=ORIENTED_EDGE('',*,*,#124,.T.);
#462=ORIENTED_EDGE('',*,*,#158,.T.);
#463=CARTESIAN_POINT('',(0.0,0.0,-0.387));
#464=DIRECTION('',(0.0,-0.0,-1.0));
#465=DIRECTION('',(0.0,1.0,0.0));
#466=CARTESIAN_POINT('',(0.0,0.0,-50.79));
#467=DIRECTION('',(0.0,0.0,-1.0));
#468=DIRECTION('',(0.0,1.0,0.0));
#469=DIRECTION('',(1.22460515237909E-016,-0.999999018914701,0.00140077465564133));
#470=SURFACE_STYLE_FILL_AREA(#580);
#471=ORIENTED_EDGE('',*,*,#164,.T.);
#472=ORIENTED_EDGE('',*,*,#166,.F.);
#473=ORIENTED_EDGE('',*,*,#150,.T.);
#474=ORIENTED_EDGE('',*,*,#144,.T.);
#475=CARTESIAN_POINT('',(0.0,0.0,-68.24));
#476=DIRECTION('',(0.0,-0.0,-1.0));
#477=DIRECTION('',(0.0,1.0,0.0));
#478=SURFACE_STYLE_FILL_AREA(#581);
#479=SURFACE_STYLE_FILL_AREA(#582);
#480=ORIENTED_EDGE('',*,*,#80,.F.);
#481=ORIENTED_EDGE('',*,*,#126,.T.);
#482=ORIENTED_EDGE('',*,*,#124,.F.);
#483=ORIENTED_EDGE('',*,*,#82,.F.);
#484=CARTESIAN_POINT('',(0.0,0.0,-0.387));
#485=DIRECTION('',(0.0,-0.0,-1.0));
#486=DIRECTION('',(0.0,1.0,0.0));
#487=SURFACE_STYLE_FILL_AREA(#583);
#488=ORIENTED_EDGE('',*,*,#126,.F.);
#489=ORIENTED_EDGE('',*,*,#158,.F.);
#490=CARTESIAN_POINT('',(0.0,2.94579194313172,0.00999999999999801));
#491=DIRECTION('',(-0.0,0.0,1.0));
#492=DIRECTION('',(0.0,-1.0,0.0));
#493=DIRECTION('',(1.22460515237909E-016,-0.999999018914701,-0.00140077465564133));
#494=DIRECTION('',(-0.0,-0.0,1.0));
#495=SURFACE_STYLE_FILL_AREA(#584);
#496=ORIENTED_EDGE('',*,*,#140,.F.);
#497=ORIENTED_EDGE('',*,*,#144,.F.);
#498=ORIENTED_EDGE('',*,*,#90,.T.);
#499=ORIENTED_EDGE('',*,*,#96,.T.);
#500=CARTESIAN_POINT('',(0.0,7.1414,-50.79));
#501=DIRECTION('',(-0.0,0.0,1.0));
#502=DIRECTION('',(0.0,-1.0,0.0));
#503=SURFACE_STYLE_FILL_AREA(#585);
#504=ORIENTED_EDGE('',*,*,#134,.T.);
#505=ORIENTED_EDGE('',*,*,#138,.F.);
#506=ORIENTED_EDGE('',*,*,#116,.T.);
#507=ORIENTED_EDGE('',*,*,#86,.T.);
#508=CARTESIAN_POINT('',(0.0,0.0,-18.643));
#509=DIRECTION('',(-0.0,-0.0,1.0));
#510=DIRECTION('',(0.0,1.0,0.0));
#511=DIRECTION('',(-6.12303176911191E-017,0.500000000000002,0.866025403784438));
#512=CARTESIAN_POINT('',(0.0,0.0,0.00999999999999801));
#513=DIRECTION('',(0.0,0.0,-1.0));
#514=DIRECTION('',(0.0,1.0,0.0));
#515=SURFACE_STYLE_FILL_AREA(#586);
#516=ORIENTED_EDGE('',*,*,#138,.T.);
#517=ORIENTED_EDGE('',*,*,#152,.T.);
#518=CARTESIAN_POINT('',(0.0,0.0,-50.79));
#519=DIRECTION('',(0.0,0.0,-1.0));
#520=DIRECTION('',(0.0,-1.0,0.0));
#521=DIRECTION('',(0.0,0.0,-1.0));
#522=SURFACE_STYLE_FILL_AREA(#587);
#523=ORIENTED_EDGE('',*,*,#102,.F.);
#524=ORIENTED_EDGE('',*,*,#114,.F.);
#525=ORIENTED_EDGE('',*,*,#96,.F.);
#526=CARTESIAN_POINT('',(0.0,0.0,-50.795));
#527=DIRECTION('',(-0.0,-0.0,1.0));
#528=DIRECTION('',(0.0,1.0,0.0));
#529=CARTESIAN_POINT('',(0.0,0.0,-50.79));
#530=DIRECTION('',(0.0,0.0,-1.0));
#531=DIRECTION('',(0.0,-1.0,0.0));
#532=CARTESIAN_POINT('',(0.0,0.0,-50.79));
#533=DIRECTION('',(0.0,0.0,-1.0));
#534=DIRECTION('',(0.0,1.0,0.0));
#535=CARTESIAN_POINT('',(0.0,0.0,-50.79));
#536=DIRECTION('',(0.0,0.0,-1.0));
#537=DIRECTION('',(0.0,1.0,0.0));
#538=SURFACE_STYLE_FILL_AREA(#588);
#539=ORIENTED_EDGE('',*,*,#164,.F.);
#540=ORIENTED_EDGE('',*,*,#140,.T.);
#541=ORIENTED_EDGE('',*,*,#150,.F.);
#542=ORIENTED_EDGE('',*,*,#84,.F.);
#543=CARTESIAN_POINT('',(0.0,0.0,-68.24));
#544=DIRECTION('',(0.0,-0.0,-1.0));
#545=DIRECTION('',(0.0,1.0,0.0));
#546=DIRECTION('',(-3.50890072726217E-022,2.86532951287554E-006,0.999999999995895));
#547=CARTESIAN_POINT('',(0.0,0.0,-50.79));
#548=DIRECTION('',(0.0,0.0,-1.0));
#549=DIRECTION('',(0.0,-1.0,0.0));
#550=SURFACE_STYLE_FILL_AREA(#589);
#551=ORIENTED_EDGE('',*,*,#84,.T.);
#552=ORIENTED_EDGE('',*,*,#166,.T.);
#553=CARTESIAN_POINT('',(0.0,3.5695,-85.69));
#554=DIRECTION('',(0.0,0.0,-1.0));
#555=DIRECTION('',(0.0,1.0,0.0));
#556=CARTESIAN_POINT('',(0.0,0.0,0.00999999999999801));
#557=DIRECTION('',(0.0,0.0,-1.0));
#558=DIRECTION('',(0.0,1.0,0.0));
#559=DIRECTION('',(-3.50890072726217E-022,2.86532951287554E-006,-0.999999999995895));
#560=CARTESIAN_POINT('',(0.0,0.0,-85.69));
#561=DIRECTION('',(0.0,0.0,-1.0));
#562=DIRECTION('',(0.0,1.0,0.0));
#563=SURFACE_STYLE_FILL_AREA(#590);
#564=ORIENTED_EDGE('',*,*,#102,.T.);
#565=ORIENTED_EDGE('',*,*,#90,.F.);
#566=ORIENTED_EDGE('',*,*,#114,.T.);
#567=CARTESIAN_POINT('',(0.0,0.0,-50.795));
#568=DIRECTION('',(-0.0,-0.0,1.0));
#569=DIRECTION('',(0.0,1.0,0.0));
#570=SURFACE_STYLE_FILL_AREA(#591);
#571=ORIENTED_EDGE('',*,*,#134,.F.);
#572=ORIENTED_EDGE('',*,*,#82,.T.);
#573=ORIENTED_EDGE('',*,*,#116,.F.);
#574=ORIENTED_EDGE('',*,*,#152,.F.);
#575=CARTESIAN_POINT('',(0.0,0.0,-18.643));
#576=DIRECTION('',(-0.0,-0.0,1.0));
#577=DIRECTION('',(0.0,1.0,0.0));
#578=FILL_AREA_STYLE('',(#592));
#579=FILL_AREA_STYLE('',(#593));
#580=FILL_AREA_STYLE('',(#594));
#581=FILL_AREA_STYLE('',(#595));
#582=FILL_AREA_STYLE('',(#596));
#583=FILL_AREA_STYLE('',(#597));
#584=FILL_AREA_STYLE('',(#598));
#585=FILL_AREA_STYLE('',(#599));
#586=FILL_AREA_STYLE('',(#600));
#587=FILL_AREA_STYLE('',(#601));
#588=FILL_AREA_STYLE('',(#602));
#589=FILL_AREA_STYLE('',(#603));
#590=FILL_AREA_STYLE('',(#604));
#591=FILL_AREA_STYLE('',(#605));
#592=FILL_AREA_STYLE_COLOUR('',#606);
#593=FILL_AREA_STYLE_COLOUR('',#607);
#594=FILL_AREA_STYLE_COLOUR('',#608);
#595=FILL_AREA_STYLE_COLOUR('',#609);
#596=FILL_AREA_STYLE_COLOUR('',#610);
#597=FILL_AREA_STYLE_COLOUR('',#611);
#598=FILL_AREA_STYLE_COLOUR('',#612);
#599=FILL_AREA_STYLE_COLOUR('',#613);
#600=FILL_AREA_STYLE_COLOUR('',#614);
#601=FILL_AREA_STYLE_COLOUR('',#615);
#602=FILL_AREA_STYLE_COLOUR('',#616);
#603=FILL_AREA_STYLE_COLOUR('',#617);
#604=FILL_AREA_STYLE_COLOUR('',#618);
#605=FILL_AREA_STYLE_COLOUR('',#619);
#606=COLOUR_RGB('',0.800000011920929,0.800000011920929,0.800000011920929);
#607=COLOUR_RGB('',0.498039215803146,0.498039215803146,0.498039215803146);
#608=COLOUR_RGB('',0.800000011920929,0.800000011920929,0.800000011920929);
#609=COLOUR_RGB('',0.800000011920929,0.800000011920929,0.800000011920929);
#610=COLOUR_RGB('',0.498039215803146,0.498039215803146,0.498039215803146);
#611=COLOUR_RGB('',0.498039215803146,0.498039215803146,0.498039215803146);
#612=COLOUR_RGB('',0.800000011920929,0.800000011920929,0.800000011920929);
#613=COLOUR_RGB('',0.498039215803146,0.498039215803146,0.498039215803146);
#614=COLOUR_RGB('',0.498039215803146,0.498039215803146,0.498039215803146);
#615=COLOUR_RGB('',0.800000011920929,0.800000011920929,0.800000011920929);
#616=COLOUR_RGB('',0.800000011920929,0.800000011920929,0.800000011920929);
#617=COLOUR_RGB('',0.800000011920929,0.800000011920929,0.800000011920929);
#618=COLOUR_RGB('',0.800000011920929,0.800000011920929,0.800000011920929);
#619=COLOUR_RGB('',0.498039215803146,0.498039215803146,0.498039215803146);
#620=AXIS2_PLACEMENT_3D('PCS',#621,#622,#623);
#621=CARTESIAN_POINT('',(0.0,0.0,0.0));
#622=DIRECTION('',(0.0,0.0,1.0));
#623=DIRECTION('',(1.0,0.0,0.0));
#624=AXIS2_PLACEMENT_3D('CIP',#625,#626,#627);
#625=CARTESIAN_POINT('',(0.0,0.0,-85.7));
#626=DIRECTION('',(0.0,0.0,1.0));
#627=DIRECTION('',(1.0,0.0,0.0));
#628=AXIS2_PLACEMENT_3D('CRP',#629,#630,#631);
#629=CARTESIAN_POINT('',(-7.144,0.0,-85.7));
#630=DIRECTION('',(0.0,0.0,1.0));
#631=DIRECTION('',(1.0,0.0,0.0));
#632=AXIS2_PLACEMENT_3D('MCS',#633,#634,#635);
#633=CARTESIAN_POINT('',(0.0,0.0,-36.512));
#634=DIRECTION('',(0.0,0.0,1.0));
#635=DIRECTION('',(1.0,0.0,0.0));
#636=CONSTRUCTIVE_GEOMETRY_REPRESENTATION_RELATIONSHIP('coordinate systems',$,#65,#637);
#637=CONSTRUCTIVE_GEOMETRY_REPRESENTATION('coordinate systems',(#620,#624,#628,#632),#10);
ENDSEC;
END-ISO-10303-21;
