ISO-10303-21;
HEADER;
FILE_DESCRIPTION(('no description'),'unknown implementation level');
FILE_NAME('solidmARk3tX1_GbY0xeZHN9M7PQICeY_1.STP','  ',('CIMSOURCE GmbH'),('CADClick - KiM GmbH - www.kimweb.de'),'unknown preprocess','ACIS','unknown authorization');
FILE_SCHEMA(('automotive_design'));
ENDSEC;
DATA;
#1=MECHANICAL_DESIGN_GEOMETRIC_PRESENTATION_REPRESENTATION(' ',(#14,#15,#16,#17,#18,#19,#20,#21,#22,#23,#24,#25,#26,#27,#28,#29,#30,#31,#32,#33,#34,#35,#36,#37,#38,#39,#40,#41,#42,#43,#44,#45,#46,#47,#48,#49,#50,#51,#52,#53,#54,#55,#56,#57,#58,#59,#60),#10);
#2=PRODUCT_DEFINITION_CONTEXT('',#61,'design');
#3=APPLICATION_PROTOCOL_DEFINITION('INTERNATIONAL STANDARD','automotive_design',1994,#61);
#4=PRODUCT_CATEGORY_RELATIONSHIP('NONE','NONE',#62,#63);
#5=SHAPE_DEFINITION_REPRESENTATION(#64,#65);
#6=PRODUCT_DEFINITION_CONTEXT('',#66,'design');
#7=APPLICATION_PROTOCOL_DEFINITION('INTERNATIONAL STANDARD','automotive_design',1994,#66);
#8=PRODUCT_CATEGORY_RELATIONSHIP('NONE','NONE',#67,#68);
#9=SHAPE_DEFINITION_REPRESENTATION(#69,#70);
#10= (GEOMETRIC_REPRESENTATION_CONTEXT(3)GLOBAL_UNCERTAINTY_ASSIGNED_CONTEXT((#73))GLOBAL_UNIT_ASSIGNED_CONTEXT((#75,#76,#77))REPRESENTATION_CONTEXT('NONE','WORKSPACE'));
#14=STYLED_ITEM('',(#79),#80);
#15=STYLED_ITEM('',(#81),#82);
#16=STYLED_ITEM('',(#83),#84);
#17=STYLED_ITEM('',(#85),#86);
#18=STYLED_ITEM('',(#87),#88);
#19=STYLED_ITEM('',(#89),#90);
#20=STYLED_ITEM('',(#91),#92);
#21=STYLED_ITEM('',(#93),#94);
#22=STYLED_ITEM('',(#95),#96);
#23=STYLED_ITEM('',(#97),#98);
#24=STYLED_ITEM('',(#99),#100);
#25=STYLED_ITEM('',(#101),#102);
#26=STYLED_ITEM('',(#103),#104);
#27=STYLED_ITEM('',(#105),#106);
#28=STYLED_ITEM('',(#107),#108);
#29=STYLED_ITEM('',(#109),#110);
#30=STYLED_ITEM('',(#111),#112);
#31=STYLED_ITEM('',(#113),#114);
#32=STYLED_ITEM('',(#115),#116);
#33=STYLED_ITEM('',(#117),#118);
#34=STYLED_ITEM('',(#119),#120);
#35=STYLED_ITEM('',(#121),#122);
#36=STYLED_ITEM('',(#123),#124);
#37=STYLED_ITEM('',(#125),#126);
#38=STYLED_ITEM('',(#127),#128);
#39=STYLED_ITEM('',(#129),#130);
#40=STYLED_ITEM('',(#131),#132);
#41=STYLED_ITEM('',(#133),#134);
#42=STYLED_ITEM('',(#135),#136);
#43=STYLED_ITEM('',(#137),#138);
#44=STYLED_ITEM('',(#139),#140);
#45=STYLED_ITEM('',(#141),#142);
#46=STYLED_ITEM('',(#143),#144);
#47=STYLED_ITEM('',(#145),#146);
#48=STYLED_ITEM('',(#147),#148);
#49=STYLED_ITEM('',(#149),#150);
#50=STYLED_ITEM('',(#151),#152);
#51=STYLED_ITEM('',(#153),#154);
#52=STYLED_ITEM('',(#155),#156);
#53=STYLED_ITEM('',(#157),#158);
#54=STYLED_ITEM('',(#159),#160);
#55=STYLED_ITEM('',(#161),#162);
#56=STYLED_ITEM('',(#163),#164);
#57=STYLED_ITEM('',(#165),#166);
#58=STYLED_ITEM('',(#167),#168);
#59=STYLED_ITEM('',(#169),#170);
#60=STYLED_ITEM('',(#171),#172);
#61=APPLICATION_CONTEXT(' ');
#62=PRODUCT_CATEGORY('part','NONE');
#63=PRODUCT_RELATED_PRODUCT_CATEGORY('detail',' ',(#173));
#64=PRODUCT_DEFINITION_SHAPE('NONE','NONE',#174);
#65=ADVANCED_BREP_SHAPE_REPRESENTATION('1',(#168,#175),#10);
#66=APPLICATION_CONTEXT(' ');
#67=PRODUCT_CATEGORY('part','NONE');
#68=PRODUCT_RELATED_PRODUCT_CATEGORY('detail',' ',(#176));
#69=PRODUCT_DEFINITION_SHAPE('NONE','NONE',#177);
#70=ADVANCED_BREP_SHAPE_REPRESENTATION('2',(#170,#178),#10);
#73=UNCERTAINTY_MEASURE_WITH_UNIT(LENGTH_MEASURE(1.0E-006),#75,'','');
#75= (CONVERSION_BASED_UNIT('MILLIMETRE',#181)LENGTH_UNIT()NAMED_UNIT(#184));
#76= (NAMED_UNIT(#186)PLANE_ANGLE_UNIT()SI_UNIT($,.RADIAN.));
#77= (NAMED_UNIT(#186)SOLID_ANGLE_UNIT()SI_UNIT($,.STERADIAN.));
#79=PRESENTATION_STYLE_ASSIGNMENT((#192));
#80=VERTEX_POINT('',#193);
#81=PRESENTATION_STYLE_ASSIGNMENT((#194));
#82=VERTEX_POINT('',#195);
#83=PRESENTATION_STYLE_ASSIGNMENT((#196));
#84=EDGE_CURVE('',#102,#132,#197,.T.);
#85=PRESENTATION_STYLE_ASSIGNMENT((#198));
#86=EDGE_CURVE('',#132,#120,#199,.T.);
#87=PRESENTATION_STYLE_ASSIGNMENT((#200));
#88=EDGE_CURVE('',#110,#118,#201,.T.);
#89=PRESENTATION_STYLE_ASSIGNMENT((#202));
#90=EDGE_CURVE('',#132,#150,#203,.T.);
#91=PRESENTATION_STYLE_ASSIGNMENT((#204));
#92=EDGE_CURVE('',#148,#94,#205,.T.);
#93=PRESENTATION_STYLE_ASSIGNMENT((#206));
#94=VERTEX_POINT('',#207);
#95=PRESENTATION_STYLE_ASSIGNMENT((#208));
#96=ADVANCED_FACE('',(#209),#210,.F.);
#97=PRESENTATION_STYLE_ASSIGNMENT((#211));
#98=ADVANCED_FACE('',(#212),#213,.T.);
#99=PRESENTATION_STYLE_ASSIGNMENT((#214));
#100=VERTEX_POINT('',#215);
#101=PRESENTATION_STYLE_ASSIGNMENT((#216));
#102=VERTEX_POINT('',#217);
#103=PRESENTATION_STYLE_ASSIGNMENT((#218));
#104=EDGE_CURVE('',#82,#120,#219,.T.);
#105=PRESENTATION_STYLE_ASSIGNMENT((#220));
#106=EDGE_CURVE('',#146,#118,#221,.T.);
#107=PRESENTATION_STYLE_ASSIGNMENT((#222));
#108=EDGE_CURVE('',#94,#148,#223,.T.);
#109=PRESENTATION_STYLE_ASSIGNMENT((#224));
#110=VERTEX_POINT('',#225);
#111=PRESENTATION_STYLE_ASSIGNMENT((#226));
#112=EDGE_CURVE('',#110,#100,#227,.T.);
#113=PRESENTATION_STYLE_ASSIGNMENT((#228));
#114=EDGE_CURVE('',#118,#146,#229,.T.);
#115=PRESENTATION_STYLE_ASSIGNMENT((#230));
#116=ADVANCED_FACE('',(#231),#232,.T.);
#117=PRESENTATION_STYLE_ASSIGNMENT((#233));
#118=VERTEX_POINT('',#234);
#119=PRESENTATION_STYLE_ASSIGNMENT((#235));
#120=VERTEX_POINT('',#236);
#121=PRESENTATION_STYLE_ASSIGNMENT((#237));
#122=EDGE_CURVE('',#120,#152,#238,.T.);
#123=PRESENTATION_STYLE_ASSIGNMENT((#239));
#124=ADVANCED_FACE('',(#240),#241,.T.);
#125=PRESENTATION_STYLE_ASSIGNMENT((#242));
#126=ADVANCED_FACE('',(#243),#244,.T.);
#127=PRESENTATION_STYLE_ASSIGNMENT((#245));
#128=ADVANCED_FACE('',(#246),#247,.T.);
#129=PRESENTATION_STYLE_ASSIGNMENT((#248));
#130=EDGE_CURVE('',#150,#82,#249,.T.);
#131=PRESENTATION_STYLE_ASSIGNMENT((#250));
#132=VERTEX_POINT('',#251);
#133=PRESENTATION_STYLE_ASSIGNMENT((#252));
#134=ADVANCED_FACE('',(#253),#254,.F.);
#135=PRESENTATION_STYLE_ASSIGNMENT((#255));
#136=EDGE_CURVE('',#82,#150,#256,.T.);
#137=PRESENTATION_STYLE_ASSIGNMENT((#257));
#138=ADVANCED_FACE('',(#258),#259,.T.);
#139=PRESENTATION_STYLE_ASSIGNMENT((#260));
#140=ADVANCED_FACE('',(#261),#262,.T.);
#141=PRESENTATION_STYLE_ASSIGNMENT((#263));
#142=ADVANCED_FACE('',(#264),#265,.T.);
#143=PRESENTATION_STYLE_ASSIGNMENT((#266));
#144=EDGE_CURVE('',#100,#110,#267,.T.);
#145=PRESENTATION_STYLE_ASSIGNMENT((#268));
#146=VERTEX_POINT('',#269);
#147=PRESENTATION_STYLE_ASSIGNMENT((#270));
#148=VERTEX_POINT('',#271);
#149=PRESENTATION_STYLE_ASSIGNMENT((#272));
#150=VERTEX_POINT('',#273);
#151=PRESENTATION_STYLE_ASSIGNMENT((#274));
#152=VERTEX_POINT('',#275);
#153=PRESENTATION_STYLE_ASSIGNMENT((#276));
#154=EDGE_CURVE('',#102,#152,#277,.T.);
#155=PRESENTATION_STYLE_ASSIGNMENT((#278));
#156=EDGE_CURVE('',#148,#80,#279,.T.);
#157=PRESENTATION_STYLE_ASSIGNMENT((#280));
#158=EDGE_CURVE('',#152,#102,#281,.T.);
#159=PRESENTATION_STYLE_ASSIGNMENT((#282));
#160=ADVANCED_FACE('',(#283),#284,.T.);
#161=PRESENTATION_STYLE_ASSIGNMENT((#285));
#162=EDGE_CURVE('',#80,#94,#286,.T.);
#163=PRESENTATION_STYLE_ASSIGNMENT((#287));
#164=EDGE_CURVE('',#120,#132,#288,.T.);
#165=PRESENTATION_STYLE_ASSIGNMENT((#289));
#166=EDGE_CURVE('',#146,#100,#290,.T.);
#167=PRESENTATION_STYLE_ASSIGNMENT((#291));
#168=MANIFOLD_SOLID_BREP('1',#292);
#169=PRESENTATION_STYLE_ASSIGNMENT((#293));
#170=MANIFOLD_SOLID_BREP('2',#294);
#171=PRESENTATION_STYLE_ASSIGNMENT((#295));
#172=ADVANCED_FACE('',(#296,#297),#298,.T.);
#173=PRODUCT('1','1','PART-1-DESC',(#299));
#174=PRODUCT_DEFINITION('NONE','NONE',#300,#2);
#175=AXIS2_PLACEMENT_3D('',#301,#302,#303);
#176=PRODUCT('2','2','PART-2-DESC',(#304));
#177=PRODUCT_DEFINITION('NONE','NONE',#305,#6);
#178=AXIS2_PLACEMENT_3D('',#306,#307,#308);
#181=LENGTH_MEASURE_WITH_UNIT(LENGTH_MEASURE(1.0),#309);
#184=DIMENSIONAL_EXPONENTS(1.0,0.0,0.0,0.0,0.0,0.0,0.0);
#186=DIMENSIONAL_EXPONENTS(0.0,0.0,0.0,0.0,0.0,0.0,0.0);
#192=POINT_STYLE(' ',#310,POSITIVE_LENGTH_MEASURE(1.0E-006),#311);
#193=CARTESIAN_POINT('',(0.0,0.0,-50.8));
#194=POINT_STYLE(' ',#312,POSITIVE_LENGTH_MEASURE(1.0E-006),#313);
#195=CARTESIAN_POINT('',(0.0,-6.35,-50.79));
#196=CURVE_STYLE('',#314,POSITIVE_LENGTH_MEASURE(1.0E-006),#315);
#197=LINE('',#316,#317);
#198=CURVE_STYLE('',#318,POSITIVE_LENGTH_MEASURE(1.0E-006),#319);
#199=CIRCLE('',#320,6.35);
#200=CURVE_STYLE('',#321,POSITIVE_LENGTH_MEASURE(1.0E-006),#322);
#201=LINE('',#323,#324);
#202=CURVE_STYLE('',#325,POSITIVE_LENGTH_MEASURE(1.0E-006),#326);
#203=LINE('',#327,#328);
#204=CURVE_STYLE('',#329,POSITIVE_LENGTH_MEASURE(1.0E-006),#330);
#205=CIRCLE('',#331,7.5354);
#206=POINT_STYLE(' ',#332,POSITIVE_LENGTH_MEASURE(1.0E-006),#333);
#207=CARTESIAN_POINT('',(9.22789871859314E-016,-7.5354,-50.79));
#208=SURFACE_STYLE_USAGE(.BOTH.,#334);
#209=FACE_OUTER_BOUND('',#335,.T.);
#210=CONICAL_SURFACE('',#336,3.7677,1.56946925800895);
#211=SURFACE_STYLE_USAGE(.BOTH.,#337);
#212=FACE_OUTER_BOUND('',#338,.T.);
#213=CYLINDRICAL_SURFACE('',#339,6.35);
#214=POINT_STYLE(' ',#340,POSITIVE_LENGTH_MEASURE(1.0E-006),#341);
#215=CARTESIAN_POINT('',(0.0,7.5405,-85.69));
#216=POINT_STYLE(' ',#342,POSITIVE_LENGTH_MEASURE(1.0E-006),#343);
#217=CARTESIAN_POINT('',(0.0,5.89158388626344,0.00999999999999801));
#218=CURVE_STYLE('',#344,POSITIVE_LENGTH_MEASURE(1.0E-006),#345);
#219=LINE('',#346,#347);
#220=CURVE_STYLE('',#348,POSITIVE_LENGTH_MEASURE(1.0E-006),#349);
#221=CIRCLE('',#350,7.5404);
#222=CURVE_STYLE('',#351,POSITIVE_LENGTH_MEASURE(1.0E-006),#352);
#223=CIRCLE('',#353,7.5354);
#224=POINT_STYLE(' ',#354,POSITIVE_LENGTH_MEASURE(1.0E-006),#355);
#225=CARTESIAN_POINT('',(9.23414421099764E-016,-7.5405,-85.69));
#226=CURVE_STYLE('',#356,POSITIVE_LENGTH_MEASURE(1.0E-006),#357);
#227=CIRCLE('',#358,7.5405);
#228=CURVE_STYLE('',#359,POSITIVE_LENGTH_MEASURE(1.0E-006),#360);
#229=CIRCLE('',#361,7.5404);
#230=SURFACE_STYLE_USAGE(.BOTH.,#362);
#231=FACE_OUTER_BOUND('',#363,.T.);
#232=CONICAL_SURFACE('',#364,6.12079194313172,0.523598775598301);
#233=POINT_STYLE(' ',#365,POSITIVE_LENGTH_MEASURE(1.0E-006),#366);
#234=CARTESIAN_POINT('',(9.23402175036225E-016,-7.5404,-50.79));
#235=POINT_STYLE(' ',#367,POSITIVE_LENGTH_MEASURE(1.0E-006),#368);
#236=CARTESIAN_POINT('',(7.7762503467721E-016,-6.35,-0.783999999999999));
#237=CURVE_STYLE('',#369,POSITIVE_LENGTH_MEASURE(1.0E-006),#370);
#238=LINE('',#371,#372);
#239=SURFACE_STYLE_USAGE(.BOTH.,#373);
#240=FACE_OUTER_BOUND('',#374,.T.);
#241=PLANE('',#375);
#242=SURFACE_STYLE_USAGE(.BOTH.,#376);
#243=FACE_OUTER_BOUND('',#377,.T.);
#244=CYLINDRICAL_SURFACE('',#378,6.35);
#245=SURFACE_STYLE_USAGE(.BOTH.,#379);
#246=FACE_OUTER_BOUND('',#380,.T.);
#247=PLANE('',#381);
#248=CURVE_STYLE('',#382,POSITIVE_LENGTH_MEASURE(1.0E-006),#383);
#249=CIRCLE('',#384,6.35);
#250=POINT_STYLE(' ',#385,POSITIVE_LENGTH_MEASURE(1.0E-006),#386);
#251=CARTESIAN_POINT('',(0.0,6.35,-0.783999999999999));
#252=SURFACE_STYLE_USAGE(.BOTH.,#387);
#253=FACE_OUTER_BOUND('',#388,.T.);
#254=CONICAL_SURFACE('',#389,3.7677,1.56946925800895);
#255=CURVE_STYLE('',#390,POSITIVE_LENGTH_MEASURE(1.0E-006),#391);
#256=CIRCLE('',#392,6.35);
#257=SURFACE_STYLE_USAGE(.BOTH.,#393);
#258=FACE_OUTER_BOUND('',#394,.T.);
#259=CONICAL_SURFACE('',#395,7.54045,2.86532951287946E-006);
#260=SURFACE_STYLE_USAGE(.BOTH.,#396);
#261=FACE_OUTER_BOUND('',#397,.T.);
#262=PLANE('',#398);
#263=SURFACE_STYLE_USAGE(.BOTH.,#399);
#264=FACE_OUTER_BOUND('',#400,.T.);
#265=CONICAL_SURFACE('',#401,7.54045,2.86532951287946E-006);
#266=CURVE_STYLE('',#402,POSITIVE_LENGTH_MEASURE(1.0E-006),#403);
#267=CIRCLE('',#404,7.5405);
#268=POINT_STYLE(' ',#405,POSITIVE_LENGTH_MEASURE(1.0E-006),#406);
#269=CARTESIAN_POINT('',(0.0,7.5404,-50.79));
#270=POINT_STYLE(' ',#407,POSITIVE_LENGTH_MEASURE(1.0E-006),#408);
#271=CARTESIAN_POINT('',(0.0,7.5354,-50.79));
#272=POINT_STYLE(' ',#409,POSITIVE_LENGTH_MEASURE(1.0E-006),#410);
#273=CARTESIAN_POINT('',(-7.7762503467721E-016,6.35,-50.79));
#274=POINT_STYLE(' ',#411,POSITIVE_LENGTH_MEASURE(1.0E-006),#412);
#275=CARTESIAN_POINT('',(7.21487106119574E-016,-5.89158388626344,0.00999999999999801));
#276=CURVE_STYLE('',#413,POSITIVE_LENGTH_MEASURE(1.0E-006),#414);
#277=CIRCLE('',#415,5.89158388626344);
#278=CURVE_STYLE('',#416,POSITIVE_LENGTH_MEASURE(1.0E-006),#417);
#279=LINE('',#418,#419);
#280=CURVE_STYLE('',#420,POSITIVE_LENGTH_MEASURE(1.0E-006),#421);
#281=CIRCLE('',#422,5.89158388626344);
#282=SURFACE_STYLE_USAGE(.BOTH.,#423);
#283=FACE_OUTER_BOUND('',#424,.T.);
#284=CONICAL_SURFACE('',#425,6.12079194313172,0.523598775598301);
#285=CURVE_STYLE('',#426,POSITIVE_LENGTH_MEASURE(1.0E-006),#427);
#286=LINE('',#428,#429);
#287=CURVE_STYLE('',#430,POSITIVE_LENGTH_MEASURE(1.0E-006),#431);
#288=CIRCLE('',#432,6.35);
#289=CURVE_STYLE('',#433,POSITIVE_LENGTH_MEASURE(1.0E-006),#434);
#290=LINE('',#435,#436);
#291=SURFACE_STYLE_USAGE(.BOTH.,#437);
#292=CLOSED_SHELL('',(#138,#134,#96,#172,#142,#124));
#293=SURFACE_STYLE_USAGE(.BOTH.,#438);
#294=CLOSED_SHELL('',(#126,#116,#128,#140,#160,#98));
#295=SURFACE_STYLE_USAGE(.BOTH.,#439);
#296=FACE_OUTER_BOUND('',#440,.T.);
#297=FACE_BOUND('',#441,.T.);
#298=PLANE('',#442);
#299=PRODUCT_CONTEXT('',#61,'mechanical');
#300=PRODUCT_DEFINITION_FORMATION_WITH_SPECIFIED_SOURCE(' ','NONE',#173,.NOT_KNOWN.);
#301=CARTESIAN_POINT('',(0.0,0.0,0.0));
#302=DIRECTION('',(0.0,0.0,1.0));
#303=DIRECTION('',(1.0,0.0,0.0));
#304=PRODUCT_CONTEXT('',#66,'mechanical');
#305=PRODUCT_DEFINITION_FORMATION_WITH_SPECIFIED_SOURCE(' ','NONE',#176,.NOT_KNOWN.);
#306=CARTESIAN_POINT('',(0.0,0.0,0.0));
#307=DIRECTION('',(0.0,0.0,1.0));
#308=DIRECTION('',(1.0,0.0,0.0));
#309= (NAMED_UNIT(#184)LENGTH_UNIT()SI_UNIT(.MILLI.,.METRE.));
#310=PRE_DEFINED_MARKER('');
#311=COLOUR_RGB('',0.800000011920929,0.800000011920929,0.800000011920929);
#312=PRE_DEFINED_MARKER('');
#313=COLOUR_RGB('',0.498039215803146,0.498039215803146,0.498039215803146);
#314=DRAUGHTING_PRE_DEFINED_CURVE_FONT('continuous');
#315=COLOUR_RGB('',0.498039215803146,0.498039215803146,0.498039215803146);
#316=CARTESIAN_POINT('',(-7.49556070398392E-016,6.12079194313172,-0.387));
#317=VECTOR('',#444,1.0);
#318=DRAUGHTING_PRE_DEFINED_CURVE_FONT('continuous');
#319=COLOUR_RGB('',0.498039215803146,0.498039215803146,0.498039215803146);
#320=AXIS2_PLACEMENT_3D('',#445,#446,#447);
#321=DRAUGHTING_PRE_DEFINED_CURVE_FONT('continuous');
#322=COLOUR_RGB('',0.800000011920929,0.800000011920929,0.800000011920929);
#323=CARTESIAN_POINT('',(9.23408298067995E-016,-7.54045,-68.24));
#324=VECTOR('',#448,1.0);
#325=DRAUGHTING_PRE_DEFINED_CURVE_FONT('continuous');
#326=COLOUR_RGB('',0.498039215803146,0.498039215803146,0.498039215803146);
#327=CARTESIAN_POINT('',(-7.7762503467721E-016,6.35,-18.2465));
#328=VECTOR('',#449,1.0);
#329=DRAUGHTING_PRE_DEFINED_CURVE_FONT('continuous');
#330=COLOUR_RGB('',0.800000011920929,0.800000011920929,0.800000011920929);
#331=AXIS2_PLACEMENT_3D('',#450,#451,#452);
#332=PRE_DEFINED_MARKER('');
#333=COLOUR_RGB('',0.800000011920929,0.800000011920929,0.800000011920929);
#334=SURFACE_SIDE_STYLE('',(#453));
#335=EDGE_LOOP('',(#454,#455,#456));
#336=AXIS2_PLACEMENT_3D('',#457,#458,#459);
#337=SURFACE_SIDE_STYLE('',(#460));
#338=EDGE_LOOP('',(#461,#462,#463,#464));
#339=AXIS2_PLACEMENT_3D('',#465,#466,#467);
#340=PRE_DEFINED_MARKER('');
#341=COLOUR_RGB('',0.800000011920929,0.800000011920929,0.800000011920929);
#342=PRE_DEFINED_MARKER('');
#343=COLOUR_RGB('',0.498039215803146,0.498039215803146,0.498039215803146);
#344=DRAUGHTING_PRE_DEFINED_CURVE_FONT('continuous');
#345=COLOUR_RGB('',0.498039215803146,0.498039215803146,0.498039215803146);
#346=CARTESIAN_POINT('',(7.7762503467721E-016,-6.35,-18.2465));
#347=VECTOR('',#468,1.0);
#348=DRAUGHTING_PRE_DEFINED_CURVE_FONT('continuous');
#349=COLOUR_RGB('',0.800000011920929,0.800000011920929,0.800000011920929);
#350=AXIS2_PLACEMENT_3D('',#469,#470,#471);
#351=DRAUGHTING_PRE_DEFINED_CURVE_FONT('continuous');
#352=COLOUR_RGB('',0.800000011920929,0.800000011920929,0.800000011920929);
#353=AXIS2_PLACEMENT_3D('',#472,#473,#474);
#354=PRE_DEFINED_MARKER('');
#355=COLOUR_RGB('',0.800000011920929,0.800000011920929,0.800000011920929);
#356=DRAUGHTING_PRE_DEFINED_CURVE_FONT('continuous');
#357=COLOUR_RGB('',0.800000011920929,0.800000011920929,0.800000011920929);
#358=AXIS2_PLACEMENT_3D('',#475,#476,#477);
#359=DRAUGHTING_PRE_DEFINED_CURVE_FONT('continuous');
#360=COLOUR_RGB('',0.800000011920929,0.800000011920929,0.800000011920929);
#361=AXIS2_PLACEMENT_3D('',#478,#479,#480);
#362=SURFACE_SIDE_STYLE('',(#481));
#363=EDGE_LOOP('',(#482,#483,#484,#485));
#364=AXIS2_PLACEMENT_3D('',#486,#487,#488);
#365=PRE_DEFINED_MARKER('');
#366=COLOUR_RGB('',0.800000011920929,0.800000011920929,0.800000011920929);
#367=PRE_DEFINED_MARKER('');
#368=COLOUR_RGB('',0.498039215803146,0.498039215803146,0.498039215803146);
#369=DRAUGHTING_PRE_DEFINED_CURVE_FONT('continuous');
#370=COLOUR_RGB('',0.498039215803146,0.498039215803146,0.498039215803146);
#371=CARTESIAN_POINT('',(7.49556070398392E-016,-6.12079194313172,-0.387));
#372=VECTOR('',#489,1.0);
#373=SURFACE_SIDE_STYLE('',(#490));
#374=EDGE_LOOP('',(#491,#492));
#375=AXIS2_PLACEMENT_3D('',#493,#494,#495);
#376=SURFACE_SIDE_STYLE('',(#496));
#377=EDGE_LOOP('',(#497,#498,#499,#500));
#378=AXIS2_PLACEMENT_3D('',#501,#502,#503);
#379=SURFACE_SIDE_STYLE('',(#504));
#380=EDGE_LOOP('',(#505,#506));
#381=AXIS2_PLACEMENT_3D('',#507,#508,#509);
#382=DRAUGHTING_PRE_DEFINED_CURVE_FONT('continuous');
#383=COLOUR_RGB('',0.498039215803146,0.498039215803146,0.498039215803146);
#384=AXIS2_PLACEMENT_3D('',#510,#511,#512);
#385=PRE_DEFINED_MARKER('');
#386=COLOUR_RGB('',0.498039215803146,0.498039215803146,0.498039215803146);
#387=SURFACE_SIDE_STYLE('',(#513));
#388=EDGE_LOOP('',(#514,#515,#516));
#389=AXIS2_PLACEMENT_3D('',#517,#518,#519);
#390=DRAUGHTING_PRE_DEFINED_CURVE_FONT('continuous');
#391=COLOUR_RGB('',0.498039215803146,0.498039215803146,0.498039215803146);
#392=AXIS2_PLACEMENT_3D('',#520,#521,#522);
#393=SURFACE_SIDE_STYLE('',(#523));
#394=EDGE_LOOP('',(#524,#525,#526,#527));
#395=AXIS2_PLACEMENT_3D('',#528,#529,#530);
#396=SURFACE_SIDE_STYLE('',(#531));
#397=EDGE_LOOP('',(#532,#533));
#398=AXIS2_PLACEMENT_3D('',#534,#535,#536);
#399=SURFACE_SIDE_STYLE('',(#537));
#400=EDGE_LOOP('',(#538,#539,#540,#541));
#401=AXIS2_PLACEMENT_3D('',#542,#543,#544);
#402=DRAUGHTING_PRE_DEFINED_CURVE_FONT('continuous');
#403=COLOUR_RGB('',0.800000011920929,0.800000011920929,0.800000011920929);
#404=AXIS2_PLACEMENT_3D('',#545,#546,#547);
#405=PRE_DEFINED_MARKER('');
#406=COLOUR_RGB('',0.800000011920929,0.800000011920929,0.800000011920929);
#407=PRE_DEFINED_MARKER('');
#408=COLOUR_RGB('',0.800000011920929,0.800000011920929,0.800000011920929);
#409=PRE_DEFINED_MARKER('');
#410=COLOUR_RGB('',0.498039215803146,0.498039215803146,0.498039215803146);
#411=PRE_DEFINED_MARKER('');
#412=COLOUR_RGB('',0.498039215803146,0.498039215803146,0.498039215803146);
#413=DRAUGHTING_PRE_DEFINED_CURVE_FONT('continuous');
#414=COLOUR_RGB('',0.498039215803146,0.498039215803146,0.498039215803146);
#415=AXIS2_PLACEMENT_3D('',#548,#549,#550);
#416=DRAUGHTING_PRE_DEFINED_CURVE_FONT('continuous');
#417=COLOUR_RGB('',0.800000011920929,0.800000011920929,0.800000011920929);
#418=CARTESIAN_POINT('',(-4.61394935929657E-016,3.7677,-50.795));
#419=VECTOR('',#551,1.0);
#420=DRAUGHTING_PRE_DEFINED_CURVE_FONT('continuous');
#421=COLOUR_RGB('',0.498039215803146,0.498039215803146,0.498039215803146);
#422=AXIS2_PLACEMENT_3D('',#552,#553,#554);
#423=SURFACE_SIDE_STYLE('',(#555));
#424=EDGE_LOOP('',(#556,#557,#558,#559));
#425=AXIS2_PLACEMENT_3D('',#560,#561,#562);
#426=DRAUGHTING_PRE_DEFINED_CURVE_FONT('continuous');
#427=COLOUR_RGB('',0.800000011920929,0.800000011920929,0.800000011920929);
#428=CARTESIAN_POINT('',(4.61394935929657E-016,-3.7677,-50.795));
#429=VECTOR('',#563,1.0);
#430=DRAUGHTING_PRE_DEFINED_CURVE_FONT('continuous');
#431=COLOUR_RGB('',0.498039215803146,0.498039215803146,0.498039215803146);
#432=AXIS2_PLACEMENT_3D('',#564,#565,#566);
#433=DRAUGHTING_PRE_DEFINED_CURVE_FONT('continuous');
#434=COLOUR_RGB('',0.800000011920929,0.800000011920929,0.800000011920929);
#435=CARTESIAN_POINT('',(-9.23408298067995E-016,7.54045,-68.24));
#436=VECTOR('',#567,1.0);
#437=SURFACE_SIDE_STYLE('',(#568));
#438=SURFACE_SIDE_STYLE('',(#569));
#439=SURFACE_SIDE_STYLE('',(#570));
#440=EDGE_LOOP('',(#571,#572));
#441=EDGE_LOOP('',(#573,#574));
#442=AXIS2_PLACEMENT_3D('',#575,#576,#577);
#444=DIRECTION('',(-6.12303176911191E-017,0.500000000000002,-0.866025403784438));
#445=CARTESIAN_POINT('',(0.0,0.0,-0.783999999999999));
#446=DIRECTION('',(0.0,0.0,-1.0));
#447=DIRECTION('',(0.0,1.0,0.0));
#448=DIRECTION('',(-3.50890072726217E-022,2.86532951287554E-006,0.999999999995895));
#449=DIRECTION('',(0.0,0.0,-1.0));
#450=CARTESIAN_POINT('',(0.0,0.0,-50.79));
#451=DIRECTION('',(0.0,0.0,-1.0));
#452=DIRECTION('',(0.0,1.0,0.0));
#453=SURFACE_STYLE_FILL_AREA(#578);
#454=ORIENTED_EDGE('',*,*,#162,.T.);
#455=ORIENTED_EDGE('',*,*,#92,.F.);
#456=ORIENTED_EDGE('',*,*,#156,.T.);
#457=CARTESIAN_POINT('',(0.0,0.0,-50.795));
#458=DIRECTION('',(-0.0,-0.0,1.0));
#459=DIRECTION('',(0.0,1.0,0.0));
#460=SURFACE_STYLE_FILL_AREA(#579);
#461=ORIENTED_EDGE('',*,*,#90,.T.);
#462=ORIENTED_EDGE('',*,*,#136,.F.);
#463=ORIENTED_EDGE('',*,*,#104,.T.);
#464=ORIENTED_EDGE('',*,*,#164,.T.);
#465=CARTESIAN_POINT('',(0.0,0.0,-18.2465));
#466=DIRECTION('',(-0.0,-0.0,1.0));
#467=DIRECTION('',(0.0,1.0,0.0));
#468=DIRECTION('',(-0.0,-0.0,1.0));
#469=CARTESIAN_POINT('',(0.0,0.0,-50.79));
#470=DIRECTION('',(0.0,0.0,-1.0));
#471=DIRECTION('',(0.0,1.0,0.0));
#472=CARTESIAN_POINT('',(0.0,0.0,-50.79));
#473=DIRECTION('',(0.0,0.0,-1.0));
#474=DIRECTION('',(0.0,1.0,0.0));
#475=CARTESIAN_POINT('',(0.0,0.0,-85.69));
#476=DIRECTION('',(0.0,0.0,-1.0));
#477=DIRECTION('',(0.0,1.0,0.0));
#478=CARTESIAN_POINT('',(0.0,0.0,-50.79));
#479=DIRECTION('',(0.0,0.0,-1.0));
#480=DIRECTION('',(0.0,1.0,0.0));
#481=SURFACE_STYLE_FILL_AREA(#580);
#482=ORIENTED_EDGE('',*,*,#84,.F.);
#483=ORIENTED_EDGE('',*,*,#154,.T.);
#484=ORIENTED_EDGE('',*,*,#122,.F.);
#485=ORIENTED_EDGE('',*,*,#86,.F.);
#486=CARTESIAN_POINT('',(0.0,0.0,-0.387));
#487=DIRECTION('',(0.0,-0.0,-1.0));
#488=DIRECTION('',(0.0,1.0,0.0));
#489=DIRECTION('',(-6.12303176911191E-017,0.500000000000002,0.866025403784438));
#490=SURFACE_STYLE_FILL_AREA(#581);
#491=ORIENTED_EDGE('',*,*,#144,.T.);
#492=ORIENTED_EDGE('',*,*,#112,.T.);
#493=CARTESIAN_POINT('',(0.0,3.76775,-85.69));
#494=DIRECTION('',(0.0,0.0,-1.0));
#495=DIRECTION('',(0.0,1.0,0.0));
#496=SURFACE_STYLE_FILL_AREA(#582);
#497=ORIENTED_EDGE('',*,*,#90,.F.);
#498=ORIENTED_EDGE('',*,*,#86,.T.);
#499=ORIENTED_EDGE('',*,*,#104,.F.);
#500=ORIENTED_EDGE('',*,*,#130,.F.);
#501=CARTESIAN_POINT('',(0.0,0.0,-18.2465));
#502=DIRECTION('',(-0.0,-0.0,1.0));
#503=DIRECTION('',(0.0,1.0,0.0));
#504=SURFACE_STYLE_FILL_AREA(#583);
#505=ORIENTED_EDGE('',*,*,#136,.T.);
#506=ORIENTED_EDGE('',*,*,#130,.T.);
#507=CARTESIAN_POINT('',(0.0,0.0,-50.79));
#508=DIRECTION('',(0.0,0.0,-1.0));
#509=DIRECTION('',(0.0,-1.0,0.0));
#510=CARTESIAN_POINT('',(0.0,0.0,-50.79));
#511=DIRECTION('',(0.0,0.0,-1.0));
#512=DIRECTION('',(0.0,-1.0,0.0));
#513=SURFACE_STYLE_FILL_AREA(#584);
#514=ORIENTED_EDGE('',*,*,#162,.F.);
#515=ORIENTED_EDGE('',*,*,#156,.F.);
#516=ORIENTED_EDGE('',*,*,#108,.F.);
#517=CARTESIAN_POINT('',(0.0,0.0,-50.795));
#518=DIRECTION('',(-0.0,-0.0,1.0));
#519=DIRECTION('',(0.0,1.0,0.0));
#520=CARTESIAN_POINT('',(0.0,0.0,-50.79));
#521=DIRECTION('',(0.0,0.0,-1.0));
#522=DIRECTION('',(0.0,-1.0,0.0));
#523=SURFACE_STYLE_FILL_AREA(#585);
#524=ORIENTED_EDGE('',*,*,#166,.F.);
#525=ORIENTED_EDGE('',*,*,#106,.T.);
#526=ORIENTED_EDGE('',*,*,#88,.F.);
#527=ORIENTED_EDGE('',*,*,#144,.F.);
#528=CARTESIAN_POINT('',(0.0,0.0,-68.24));
#529=DIRECTION('',(0.0,-0.0,-1.0));
#530=DIRECTION('',(0.0,1.0,0.0));
#531=SURFACE_STYLE_FILL_AREA(#586);
#532=ORIENTED_EDGE('',*,*,#154,.F.);
#533=ORIENTED_EDGE('',*,*,#158,.F.);
#534=CARTESIAN_POINT('',(0.0,2.94579194313172,0.00999999999999801));
#535=DIRECTION('',(-0.0,0.0,1.0));
#536=DIRECTION('',(0.0,-1.0,0.0));
#537=SURFACE_STYLE_FILL_AREA(#587);
#538=ORIENTED_EDGE('',*,*,#166,.T.);
#539=ORIENTED_EDGE('',*,*,#112,.F.);
#540=ORIENTED_EDGE('',*,*,#88,.T.);
#541=ORIENTED_EDGE('',*,*,#114,.T.);
#542=CARTESIAN_POINT('',(0.0,0.0,-68.24));
#543=DIRECTION('',(0.0,-0.0,-1.0));
#544=DIRECTION('',(0.0,1.0,0.0));
#545=CARTESIAN_POINT('',(0.0,0.0,-85.69));
#546=DIRECTION('',(0.0,0.0,-1.0));
#547=DIRECTION('',(0.0,1.0,0.0));
#548=CARTESIAN_POINT('',(0.0,0.0,0.00999999999999801));
#549=DIRECTION('',(0.0,0.0,-1.0));
#550=DIRECTION('',(0.0,1.0,0.0));
#551=DIRECTION('',(1.22460527548833E-016,-0.999999119444348,-0.00132706839642919));
#552=CARTESIAN_POINT('',(0.0,0.0,0.00999999999999801));
#553=DIRECTION('',(0.0,0.0,-1.0));
#554=DIRECTION('',(0.0,1.0,0.0));
#555=SURFACE_STYLE_FILL_AREA(#588);
#556=ORIENTED_EDGE('',*,*,#84,.T.);
#557=ORIENTED_EDGE('',*,*,#164,.F.);
#558=ORIENTED_EDGE('',*,*,#122,.T.);
#559=ORIENTED_EDGE('',*,*,#158,.T.);
#560=CARTESIAN_POINT('',(0.0,0.0,-0.387));
#561=DIRECTION('',(0.0,-0.0,-1.0));
#562=DIRECTION('',(0.0,1.0,0.0));
#563=DIRECTION('',(1.22460527548833E-016,-0.999999119444348,0.00132706839642919));
#564=CARTESIAN_POINT('',(0.0,0.0,-0.783999999999999));
#565=DIRECTION('',(0.0,0.0,-1.0));
#566=DIRECTION('',(0.0,1.0,0.0));
#567=DIRECTION('',(-3.50890072726217E-022,2.86532951287554E-006,-0.999999999995895));
#568=SURFACE_STYLE_FILL_AREA(#589);
#569=SURFACE_STYLE_FILL_AREA(#590);
#570=SURFACE_STYLE_FILL_AREA(#591);
#571=ORIENTED_EDGE('',*,*,#106,.F.);
#572=ORIENTED_EDGE('',*,*,#114,.F.);
#573=ORIENTED_EDGE('',*,*,#92,.T.);
#574=ORIENTED_EDGE('',*,*,#108,.T.);
#575=CARTESIAN_POINT('',(0.0,7.5379,-50.79));
#576=DIRECTION('',(-0.0,0.0,1.0));
#577=DIRECTION('',(0.0,-1.0,0.0));
#578=FILL_AREA_STYLE('',(#592));
#579=FILL_AREA_STYLE('',(#593));
#580=FILL_AREA_STYLE('',(#594));
#581=FILL_AREA_STYLE('',(#595));
#582=FILL_AREA_STYLE('',(#596));
#583=FILL_AREA_STYLE('',(#597));
#584=FILL_AREA_STYLE('',(#598));
#585=FILL_AREA_STYLE('',(#599));
#586=FILL_AREA_STYLE('',(#600));
#587=FILL_AREA_STYLE('',(#601));
#588=FILL_AREA_STYLE('',(#602));
#589=FILL_AREA_STYLE('',(#603));
#590=FILL_AREA_STYLE('',(#604));
#591=FILL_AREA_STYLE('',(#605));
#592=FILL_AREA_STYLE_COLOUR('',#606);
#593=FILL_AREA_STYLE_COLOUR('',#607);
#594=FILL_AREA_STYLE_COLOUR('',#608);
#595=FILL_AREA_STYLE_COLOUR('',#609);
#596=FILL_AREA_STYLE_COLOUR('',#610);
#597=FILL_AREA_STYLE_COLOUR('',#611);
#598=FILL_AREA_STYLE_COLOUR('',#612);
#599=FILL_AREA_STYLE_COLOUR('',#613);
#600=FILL_AREA_STYLE_COLOUR('',#614);
#601=FILL_AREA_STYLE_COLOUR('',#615);
#602=FILL_AREA_STYLE_COLOUR('',#616);
#603=FILL_AREA_STYLE_COLOUR('',#617);
#604=FILL_AREA_STYLE_COLOUR('',#618);
#605=FILL_AREA_STYLE_COLOUR('',#619);
#606=COLOUR_RGB('',0.800000011920929,0.800000011920929,0.800000011920929);
#607=COLOUR_RGB('',0.498039215803146,0.498039215803146,0.498039215803146);
#608=COLOUR_RGB('',0.498039215803146,0.498039215803146,0.498039215803146);
#609=COLOUR_RGB('',0.800000011920929,0.800000011920929,0.800000011920929);
#610=COLOUR_RGB('',0.498039215803146,0.498039215803146,0.498039215803146);
#611=COLOUR_RGB('',0.498039215803146,0.498039215803146,0.498039215803146);
#612=COLOUR_RGB('',0.800000011920929,0.800000011920929,0.800000011920929);
#613=COLOUR_RGB('',0.800000011920929,0.800000011920929,0.800000011920929);
#614=COLOUR_RGB('',0.498039215803146,0.498039215803146,0.498039215803146);
#615=COLOUR_RGB('',0.800000011920929,0.800000011920929,0.800000011920929);
#616=COLOUR_RGB('',0.498039215803146,0.498039215803146,0.498039215803146);
#617=COLOUR_RGB('',0.800000011920929,0.800000011920929,0.800000011920929);
#618=COLOUR_RGB('',0.800000011920929,0.800000011920929,0.800000011920929);
#619=COLOUR_RGB('',0.800000011920929,0.800000011920929,0.800000011920929);
#620=AXIS2_PLACEMENT_3D('PCS',#621,#622,#623);
#621=CARTESIAN_POINT('',(0.0,0.0,0.0));
#622=DIRECTION('',(0.0,0.0,1.0));
#623=DIRECTION('',(1.0,0.0,0.0));
#624=AXIS2_PLACEMENT_3D('CIP',#625,#626,#627);
#625=CARTESIAN_POINT('',(0.0,0.0,-85.7));
#626=DIRECTION('',(0.0,0.0,1.0));
#627=DIRECTION('',(1.0,0.0,0.0));
#628=AXIS2_PLACEMENT_3D('CRP',#629,#630,#631);
#629=CARTESIAN_POINT('',(-7.5405,0.0,-85.7));
#630=DIRECTION('',(0.0,0.0,1.0));
#631=DIRECTION('',(1.0,0.0,0.0));
#632=AXIS2_PLACEMENT_3D('MCS',#633,#634,#635);
#633=CARTESIAN_POINT('',(0.0,0.0,-35.719));
#634=DIRECTION('',(0.0,0.0,1.0));
#635=DIRECTION('',(1.0,0.0,0.0));
#636=CONSTRUCTIVE_GEOMETRY_REPRESENTATION_RELATIONSHIP('coordinate systems',$,#65,#637);
#637=CONSTRUCTIVE_GEOMETRY_REPRESENTATION('coordinate systems',(#620,#624,#628,#632),#10);
ENDSEC;
END-ISO-10303-21;
