ISO-10303-21;
HEADER;
FILE_DESCRIPTION(('no description'),'unknown implementation level');
FILE_NAME('solid79Xdkyttf7QK4HMjKDX8FHO0NC0_1.STP','  ',('CIMSOURCE GmbH'),('CADClick - KiM GmbH - www.kimweb.de'),'unknown preprocess','ACIS','unknown authorization');
FILE_SCHEMA(('automotive_design'));
ENDSEC;
DATA;
#1=MECHANICAL_DESIGN_GEOMETRIC_PRESENTATION_REPRESENTATION(' ',(#14,#15,#16,#17,#18,#19,#20,#21,#22,#23,#24,#25,#26,#27,#28,#29,#30,#31,#32,#33,#34,#35,#36,#37,#38,#39,#40,#41,#42,#43,#44,#45,#46,#47,#48,#49,#50,#51,#52,#53,#54,#55,#56,#57,#58,#59,#60),#10);
#2=PRODUCT_DEFINITION_CONTEXT('',#61,'design');
#3=APPLICATION_PROTOCOL_DEFINITION('INTERNATIONAL STANDARD','automotive_design',1994,#61);
#4=PRODUCT_CATEGORY_RELATIONSHIP('NONE','NONE',#62,#63);
#5=SHAPE_DEFINITION_REPRESENTATION(#64,#65);
#6=PRODUCT_DEFINITION_CONTEXT('',#66,'design');
#7=APPLICATION_PROTOCOL_DEFINITION('INTERNATIONAL STANDARD','automotive_design',1994,#66);
#8=PRODUCT_CATEGORY_RELATIONSHIP('NONE','NONE',#67,#68);
#9=SHAPE_DEFINITION_REPRESENTATION(#69,#70);
#10= (GEOMETRIC_REPRESENTATION_CONTEXT(3)GLOBAL_UNCERTAINTY_ASSIGNED_CONTEXT((#73))GLOBAL_UNIT_ASSIGNED_CONTEXT((#75,#76,#77))REPRESENTATION_CONTEXT('NONE','WORKSPACE'));
#14=STYLED_ITEM('',(#79),#80);
#15=STYLED_ITEM('',(#81),#82);
#16=STYLED_ITEM('',(#83),#84);
#17=STYLED_ITEM('',(#85),#86);
#18=STYLED_ITEM('',(#87),#88);
#19=STYLED_ITEM('',(#89),#90);
#20=STYLED_ITEM('',(#91),#92);
#21=STYLED_ITEM('',(#93),#94);
#22=STYLED_ITEM('',(#95),#96);
#23=STYLED_ITEM('',(#97),#98);
#24=STYLED_ITEM('',(#99),#100);
#25=STYLED_ITEM('',(#101),#102);
#26=STYLED_ITEM('',(#103),#104);
#27=STYLED_ITEM('',(#105),#106);
#28=STYLED_ITEM('',(#107),#108);
#29=STYLED_ITEM('',(#109),#110);
#30=STYLED_ITEM('',(#111),#112);
#31=STYLED_ITEM('',(#113),#114);
#32=STYLED_ITEM('',(#115),#116);
#33=STYLED_ITEM('',(#117),#118);
#34=STYLED_ITEM('',(#119),#120);
#35=STYLED_ITEM('',(#121),#122);
#36=STYLED_ITEM('',(#123),#124);
#37=STYLED_ITEM('',(#125),#126);
#38=STYLED_ITEM('',(#127),#128);
#39=STYLED_ITEM('',(#129),#130);
#40=STYLED_ITEM('',(#131),#132);
#41=STYLED_ITEM('',(#133),#134);
#42=STYLED_ITEM('',(#135),#136);
#43=STYLED_ITEM('',(#137),#138);
#44=STYLED_ITEM('',(#139),#140);
#45=STYLED_ITEM('',(#141),#142);
#46=STYLED_ITEM('',(#143),#144);
#47=STYLED_ITEM('',(#145),#146);
#48=STYLED_ITEM('',(#147),#148);
#49=STYLED_ITEM('',(#149),#150);
#50=STYLED_ITEM('',(#151),#152);
#51=STYLED_ITEM('',(#153),#154);
#52=STYLED_ITEM('',(#155),#156);
#53=STYLED_ITEM('',(#157),#158);
#54=STYLED_ITEM('',(#159),#160);
#55=STYLED_ITEM('',(#161),#162);
#56=STYLED_ITEM('',(#163),#164);
#57=STYLED_ITEM('',(#165),#166);
#58=STYLED_ITEM('',(#167),#168);
#59=STYLED_ITEM('',(#169),#170);
#60=STYLED_ITEM('',(#171),#172);
#61=APPLICATION_CONTEXT(' ');
#62=PRODUCT_CATEGORY('part','NONE');
#63=PRODUCT_RELATED_PRODUCT_CATEGORY('detail',' ',(#173));
#64=PRODUCT_DEFINITION_SHAPE('NONE','NONE',#174);
#65=ADVANCED_BREP_SHAPE_REPRESENTATION('1',(#168,#175),#10);
#66=APPLICATION_CONTEXT(' ');
#67=PRODUCT_CATEGORY('part','NONE');
#68=PRODUCT_RELATED_PRODUCT_CATEGORY('detail',' ',(#176));
#69=PRODUCT_DEFINITION_SHAPE('NONE','NONE',#177);
#70=ADVANCED_BREP_SHAPE_REPRESENTATION('2',(#94,#178),#10);
#73=UNCERTAINTY_MEASURE_WITH_UNIT(LENGTH_MEASURE(1.0E-006),#75,'','');
#75= (CONVERSION_BASED_UNIT('MILLIMETRE',#181)LENGTH_UNIT()NAMED_UNIT(#184));
#76= (NAMED_UNIT(#186)PLANE_ANGLE_UNIT()SI_UNIT($,.RADIAN.));
#77= (NAMED_UNIT(#186)SOLID_ANGLE_UNIT()SI_UNIT($,.STERADIAN.));
#79=PRESENTATION_STYLE_ASSIGNMENT((#192));
#80=VERTEX_POINT('',#193);
#81=PRESENTATION_STYLE_ASSIGNMENT((#194));
#82=ADVANCED_FACE('',(#195),#196,.F.);
#83=PRESENTATION_STYLE_ASSIGNMENT((#197));
#84=VERTEX_POINT('',#198);
#85=PRESENTATION_STYLE_ASSIGNMENT((#199));
#86=VERTEX_POINT('',#200);
#87=PRESENTATION_STYLE_ASSIGNMENT((#201));
#88=VERTEX_POINT('',#202);
#89=PRESENTATION_STYLE_ASSIGNMENT((#203));
#90=VERTEX_POINT('',#204);
#91=PRESENTATION_STYLE_ASSIGNMENT((#205));
#92=EDGE_CURVE('',#106,#84,#206,.T.);
#93=PRESENTATION_STYLE_ASSIGNMENT((#207));
#94=MANIFOLD_SOLID_BREP('2',#208);
#95=PRESENTATION_STYLE_ASSIGNMENT((#209));
#96=VERTEX_POINT('',#210);
#97=PRESENTATION_STYLE_ASSIGNMENT((#211));
#98=EDGE_CURVE('',#96,#106,#212,.T.);
#99=PRESENTATION_STYLE_ASSIGNMENT((#213));
#100=ADVANCED_FACE('',(#214),#215,.T.);
#101=PRESENTATION_STYLE_ASSIGNMENT((#216));
#102=ADVANCED_FACE('',(#217,#218),#219,.T.);
#103=PRESENTATION_STYLE_ASSIGNMENT((#220));
#104=EDGE_CURVE('',#96,#88,#221,.T.);
#105=PRESENTATION_STYLE_ASSIGNMENT((#222));
#106=VERTEX_POINT('',#223);
#107=PRESENTATION_STYLE_ASSIGNMENT((#224));
#108=ADVANCED_FACE('',(#225),#226,.T.);
#109=PRESENTATION_STYLE_ASSIGNMENT((#227));
#110=ADVANCED_FACE('',(#228),#229,.T.);
#111=PRESENTATION_STYLE_ASSIGNMENT((#230));
#112=EDGE_CURVE('',#164,#86,#231,.T.);
#113=PRESENTATION_STYLE_ASSIGNMENT((#232));
#114=EDGE_CURVE('',#90,#166,#233,.T.);
#115=PRESENTATION_STYLE_ASSIGNMENT((#234));
#116=ADVANCED_FACE('',(#235),#236,.F.);
#117=PRESENTATION_STYLE_ASSIGNMENT((#237));
#118=EDGE_CURVE('',#88,#80,#238,.T.);
#119=PRESENTATION_STYLE_ASSIGNMENT((#239));
#120=EDGE_CURVE('',#90,#132,#240,.T.);
#121=PRESENTATION_STYLE_ASSIGNMENT((#241));
#122=EDGE_CURVE('',#132,#90,#242,.T.);
#123=PRESENTATION_STYLE_ASSIGNMENT((#243));
#124=ADVANCED_FACE('',(#244),#245,.T.);
#125=PRESENTATION_STYLE_ASSIGNMENT((#246));
#126=ADVANCED_FACE('',(#247),#248,.T.);
#127=PRESENTATION_STYLE_ASSIGNMENT((#249));
#128=EDGE_CURVE('',#144,#132,#250,.T.);
#129=PRESENTATION_STYLE_ASSIGNMENT((#251));
#130=EDGE_CURVE('',#172,#96,#252,.T.);
#131=PRESENTATION_STYLE_ASSIGNMENT((#253));
#132=VERTEX_POINT('',#254);
#133=PRESENTATION_STYLE_ASSIGNMENT((#255));
#134=EDGE_CURVE('',#144,#166,#256,.T.);
#135=PRESENTATION_STYLE_ASSIGNMENT((#257));
#136=EDGE_CURVE('',#84,#172,#258,.T.);
#137=PRESENTATION_STYLE_ASSIGNMENT((#259));
#138=EDGE_CURVE('',#80,#106,#260,.T.);
#139=PRESENTATION_STYLE_ASSIGNMENT((#261));
#140=EDGE_CURVE('',#164,#156,#262,.T.);
#141=PRESENTATION_STYLE_ASSIGNMENT((#263));
#142=EDGE_CURVE('',#156,#86,#264,.T.);
#143=PRESENTATION_STYLE_ASSIGNMENT((#265));
#144=VERTEX_POINT('',#266);
#145=PRESENTATION_STYLE_ASSIGNMENT((#267));
#146=ADVANCED_FACE('',(#268),#269,.T.);
#147=PRESENTATION_STYLE_ASSIGNMENT((#270));
#148=EDGE_CURVE('',#80,#88,#271,.T.);
#149=PRESENTATION_STYLE_ASSIGNMENT((#272));
#150=EDGE_CURVE('',#172,#84,#273,.T.);
#151=PRESENTATION_STYLE_ASSIGNMENT((#274));
#152=ADVANCED_FACE('',(#275),#276,.T.);
#153=PRESENTATION_STYLE_ASSIGNMENT((#277));
#154=EDGE_CURVE('',#166,#144,#278,.T.);
#155=PRESENTATION_STYLE_ASSIGNMENT((#279));
#156=VERTEX_POINT('',#280);
#157=PRESENTATION_STYLE_ASSIGNMENT((#281));
#158=EDGE_CURVE('',#86,#164,#282,.T.);
#159=PRESENTATION_STYLE_ASSIGNMENT((#283));
#160=ADVANCED_FACE('',(#284),#285,.T.);
#161=PRESENTATION_STYLE_ASSIGNMENT((#286));
#162=ADVANCED_FACE('',(#287),#288,.T.);
#163=PRESENTATION_STYLE_ASSIGNMENT((#289));
#164=VERTEX_POINT('',#290);
#165=PRESENTATION_STYLE_ASSIGNMENT((#291));
#166=VERTEX_POINT('',#292);
#167=PRESENTATION_STYLE_ASSIGNMENT((#293));
#168=MANIFOLD_SOLID_BREP('1',#294);
#169=PRESENTATION_STYLE_ASSIGNMENT((#295));
#170=EDGE_CURVE('',#106,#96,#296,.T.);
#171=PRESENTATION_STYLE_ASSIGNMENT((#297));
#172=VERTEX_POINT('',#298);
#173=PRODUCT('1','1','PART-1-DESC',(#299));
#174=PRODUCT_DEFINITION('NONE','NONE',#300,#2);
#175=AXIS2_PLACEMENT_3D('',#301,#302,#303);
#176=PRODUCT('2','2','PART-2-DESC',(#304));
#177=PRODUCT_DEFINITION('NONE','NONE',#305,#6);
#178=AXIS2_PLACEMENT_3D('',#306,#307,#308);
#181=LENGTH_MEASURE_WITH_UNIT(LENGTH_MEASURE(1.0),#309);
#184=DIMENSIONAL_EXPONENTS(1.0,0.0,0.0,0.0,0.0,0.0,0.0);
#186=DIMENSIONAL_EXPONENTS(0.0,0.0,0.0,0.0,0.0,0.0,0.0);
#192=POINT_STYLE(' ',#310,POSITIVE_LENGTH_MEASURE(1.0E-006),#311);
#193=CARTESIAN_POINT('',(0.0,5.89158388626344,0.0100000000000051));
#194=SURFACE_STYLE_USAGE(.BOTH.,#312);
#195=FACE_OUTER_BOUND('',#313,.T.);
#196=CONICAL_SURFACE('',#314,4.1647,1.56959576070425);
#197=POINT_STYLE(' ',#315,POSITIVE_LENGTH_MEASURE(1.0E-006),#316);
#198=CARTESIAN_POINT('',(-7.7762503467721E-016,6.35,-50.79));
#199=POINT_STYLE(' ',#317,POSITIVE_LENGTH_MEASURE(1.0E-006),#318);
#200=CARTESIAN_POINT('',(1.02002361635281E-015,-8.3294,-50.79));
#201=POINT_STYLE(' ',#319,POSITIVE_LENGTH_MEASURE(1.0E-006),#320);
#202=CARTESIAN_POINT('',(7.21487106119574E-016,-5.89158388626344,0.0100000000000051));
#203=POINT_STYLE(' ',#321,POSITIVE_LENGTH_MEASURE(1.0E-006),#322);
#204=CARTESIAN_POINT('',(0.0,8.3344,-50.79));
#205=CURVE_STYLE('',#323,POSITIVE_LENGTH_MEASURE(1.0E-006),#324);
#206=LINE('',#325,#326);
#207=SURFACE_STYLE_USAGE(.BOTH.,#327);
#208=CLOSED_SHELL('',(#160,#162,#108,#124,#100,#146));
#209=POINT_STYLE(' ',#328,POSITIVE_LENGTH_MEASURE(1.0E-006),#329);
#210=CARTESIAN_POINT('',(7.7762503467721E-016,-6.35,-0.783999999999992));
#211=CURVE_STYLE('',#330,POSITIVE_LENGTH_MEASURE(1.0E-006),#331);
#212=CIRCLE('',#332,6.35);
#213=SURFACE_STYLE_USAGE(.BOTH.,#333);
#214=FACE_OUTER_BOUND('',#334,.T.);
#215=CONICAL_SURFACE('',#335,6.12079194313172,0.523598775598301);
#216=SURFACE_STYLE_USAGE(.BOTH.,#336);
#217=FACE_OUTER_BOUND('',#337,.T.);
#218=FACE_BOUND('',#338,.T.);
#219=PLANE('',#339);
#220=CURVE_STYLE('',#340,POSITIVE_LENGTH_MEASURE(1.0E-006),#341);
#221=LINE('',#342,#343);
#222=POINT_STYLE(' ',#344,POSITIVE_LENGTH_MEASURE(1.0E-006),#345);
#223=CARTESIAN_POINT('',(0.0,6.35,-0.783999999999992));
#224=SURFACE_STYLE_USAGE(.BOTH.,#346);
#225=FACE_OUTER_BOUND('',#347,.T.);
#226=PLANE('',#348);
#227=SURFACE_STYLE_USAGE(.BOTH.,#349);
#228=FACE_OUTER_BOUND('',#350,.T.);
#229=PLANE('',#351);
#230=CURVE_STYLE('',#352,POSITIVE_LENGTH_MEASURE(1.0E-006),#353);
#231=CIRCLE('',#354,8.3294);
#232=CURVE_STYLE('',#355,POSITIVE_LENGTH_MEASURE(1.0E-006),#356);
#233=LINE('',#357,#358);
#234=SURFACE_STYLE_USAGE(.BOTH.,#359);
#235=FACE_OUTER_BOUND('',#360,.T.);
#236=CONICAL_SURFACE('',#361,4.1647,1.56959576070425);
#237=CURVE_STYLE('',#362,POSITIVE_LENGTH_MEASURE(1.0E-006),#363);
#238=CIRCLE('',#364,5.89158388626344);
#239=CURVE_STYLE('',#365,POSITIVE_LENGTH_MEASURE(1.0E-006),#366);
#240=CIRCLE('',#367,8.3344);
#241=CURVE_STYLE('',#368,POSITIVE_LENGTH_MEASURE(1.0E-006),#369);
#242=CIRCLE('',#370,8.3344);
#243=SURFACE_STYLE_USAGE(.BOTH.,#371);
#244=FACE_OUTER_BOUND('',#372,.T.);
#245=PLANE('',#373);
#246=SURFACE_STYLE_USAGE(.BOTH.,#374);
#247=FACE_OUTER_BOUND('',#375,.T.);
#248=CONICAL_SURFACE('',#376,8.33445,2.42130750604289E-006);
#249=CURVE_STYLE('',#377,POSITIVE_LENGTH_MEASURE(1.0E-006),#378);
#250=LINE('',#379,#380);
#251=CURVE_STYLE('',#381,POSITIVE_LENGTH_MEASURE(1.0E-006),#382);
#252=LINE('',#383,#384);
#253=POINT_STYLE(' ',#385,POSITIVE_LENGTH_MEASURE(1.0E-006),#386);
#254=CARTESIAN_POINT('',(1.02063591952972E-015,-8.3344,-50.79));
#255=CURVE_STYLE('',#387,POSITIVE_LENGTH_MEASURE(1.0E-006),#388);
#256=CIRCLE('',#389,8.3345);
#257=CURVE_STYLE('',#390,POSITIVE_LENGTH_MEASURE(1.0E-006),#391);
#258=CIRCLE('',#392,6.35);
#259=CURVE_STYLE('',#393,POSITIVE_LENGTH_MEASURE(1.0E-006),#394);
#260=LINE('',#395,#396);
#261=CURVE_STYLE('',#397,POSITIVE_LENGTH_MEASURE(1.0E-006),#398);
#262=LINE('',#399,#400);
#263=CURVE_STYLE('',#401,POSITIVE_LENGTH_MEASURE(1.0E-006),#402);
#264=LINE('',#403,#404);
#265=POINT_STYLE(' ',#405,POSITIVE_LENGTH_MEASURE(1.0E-006),#406);
#266=CARTESIAN_POINT('',(1.02064816559326E-015,-8.3345,-92.09));
#267=SURFACE_STYLE_USAGE(.BOTH.,#407);
#268=FACE_OUTER_BOUND('',#408,.T.);
#269=CYLINDRICAL_SURFACE('',#409,6.35);
#270=CURVE_STYLE('',#410,POSITIVE_LENGTH_MEASURE(1.0E-006),#411);
#271=CIRCLE('',#412,5.89158388626344);
#272=CURVE_STYLE('',#413,POSITIVE_LENGTH_MEASURE(1.0E-006),#414);
#273=CIRCLE('',#415,6.35);
#274=SURFACE_STYLE_USAGE(.BOTH.,#416);
#275=FACE_OUTER_BOUND('',#417,.T.);
#276=CONICAL_SURFACE('',#418,8.33445,2.42130750604289E-006);
#277=CURVE_STYLE('',#419,POSITIVE_LENGTH_MEASURE(1.0E-006),#420);
#278=CIRCLE('',#421,8.3345);
#279=POINT_STYLE(' ',#422,POSITIVE_LENGTH_MEASURE(1.0E-006),#423);
#280=CARTESIAN_POINT('',(0.0,0.0,-50.8));
#281=CURVE_STYLE('',#424,POSITIVE_LENGTH_MEASURE(1.0E-006),#425);
#282=CIRCLE('',#426,8.3294);
#283=SURFACE_STYLE_USAGE(.BOTH.,#427);
#284=FACE_OUTER_BOUND('',#428,.T.);
#285=CYLINDRICAL_SURFACE('',#429,6.35);
#286=SURFACE_STYLE_USAGE(.BOTH.,#430);
#287=FACE_OUTER_BOUND('',#431,.T.);
#288=CONICAL_SURFACE('',#432,6.12079194313172,0.523598775598301);
#289=POINT_STYLE(' ',#433,POSITIVE_LENGTH_MEASURE(1.0E-006),#434);
#290=CARTESIAN_POINT('',(0.0,8.3294,-50.79));
#291=POINT_STYLE(' ',#435,POSITIVE_LENGTH_MEASURE(1.0E-006),#436);
#292=CARTESIAN_POINT('',(0.0,8.3345,-92.09));
#293=SURFACE_STYLE_USAGE(.BOTH.,#437);
#294=CLOSED_SHELL('',(#126,#82,#116,#102,#152,#110));
#295=CURVE_STYLE('',#438,POSITIVE_LENGTH_MEASURE(1.0E-006),#439);
#296=CIRCLE('',#440,6.35);
#297=POINT_STYLE(' ',#441,POSITIVE_LENGTH_MEASURE(1.0E-006),#442);
#298=CARTESIAN_POINT('',(0.0,-6.35,-50.79));
#299=PRODUCT_CONTEXT('',#61,'mechanical');
#300=PRODUCT_DEFINITION_FORMATION_WITH_SPECIFIED_SOURCE(' ','NONE',#173,.NOT_KNOWN.);
#301=CARTESIAN_POINT('',(0.0,0.0,0.0));
#302=DIRECTION('',(0.0,0.0,1.0));
#303=DIRECTION('',(1.0,0.0,0.0));
#304=PRODUCT_CONTEXT('',#66,'mechanical');
#305=PRODUCT_DEFINITION_FORMATION_WITH_SPECIFIED_SOURCE(' ','NONE',#176,.NOT_KNOWN.);
#306=CARTESIAN_POINT('',(0.0,0.0,0.0));
#307=DIRECTION('',(0.0,0.0,1.0));
#308=DIRECTION('',(1.0,0.0,0.0));
#309= (NAMED_UNIT(#184)LENGTH_UNIT()SI_UNIT(.MILLI.,.METRE.));
#310=PRE_DEFINED_MARKER('');
#311=COLOUR_RGB('',0.498039215803146,0.498039215803146,0.498039215803146);
#312=SURFACE_SIDE_STYLE('',(#444));
#313=EDGE_LOOP('',(#445,#446,#447));
#314=AXIS2_PLACEMENT_3D('',#448,#449,#450);
#315=PRE_DEFINED_MARKER('');
#316=COLOUR_RGB('',0.498039215803146,0.498039215803146,0.498039215803146);
#317=PRE_DEFINED_MARKER('');
#318=COLOUR_RGB('',0.800000011920929,0.800000011920929,0.800000011920929);
#319=PRE_DEFINED_MARKER('');
#320=COLOUR_RGB('',0.498039215803146,0.498039215803146,0.498039215803146);
#321=PRE_DEFINED_MARKER('');
#322=COLOUR_RGB('',0.800000011920929,0.800000011920929,0.800000011920929);
#323=DRAUGHTING_PRE_DEFINED_CURVE_FONT('continuous');
#324=COLOUR_RGB('',0.498039215803146,0.498039215803146,0.498039215803146);
#325=CARTESIAN_POINT('',(-7.7762503467721E-016,6.35,-17.4525));
#326=VECTOR('',#451,1.0);
#327=SURFACE_SIDE_STYLE('',(#452));
#328=PRE_DEFINED_MARKER('');
#329=COLOUR_RGB('',0.498039215803146,0.498039215803146,0.498039215803146);
#330=DRAUGHTING_PRE_DEFINED_CURVE_FONT('continuous');
#331=COLOUR_RGB('',0.498039215803146,0.498039215803146,0.498039215803146);
#332=AXIS2_PLACEMENT_3D('',#453,#454,#455);
#333=SURFACE_SIDE_STYLE('',(#456));
#334=EDGE_LOOP('',(#457,#458,#459,#460));
#335=AXIS2_PLACEMENT_3D('',#461,#462,#463);
#336=SURFACE_SIDE_STYLE('',(#464));
#337=EDGE_LOOP('',(#465,#466));
#338=EDGE_LOOP('',(#467,#468));
#339=AXIS2_PLACEMENT_3D('',#469,#470,#471);
#340=DRAUGHTING_PRE_DEFINED_CURVE_FONT('continuous');
#341=COLOUR_RGB('',0.498039215803146,0.498039215803146,0.498039215803146);
#342=CARTESIAN_POINT('',(7.49556070398392E-016,-6.12079194313172,-0.386999999999993));
#343=VECTOR('',#472,1.0);
#344=PRE_DEFINED_MARKER('');
#345=COLOUR_RGB('',0.498039215803146,0.498039215803146,0.498039215803146);
#346=SURFACE_SIDE_STYLE('',(#473));
#347=EDGE_LOOP('',(#474,#475));
#348=AXIS2_PLACEMENT_3D('',#476,#477,#478);
#349=SURFACE_SIDE_STYLE('',(#479));
#350=EDGE_LOOP('',(#480,#481));
#351=AXIS2_PLACEMENT_3D('',#482,#483,#484);
#352=DRAUGHTING_PRE_DEFINED_CURVE_FONT('continuous');
#353=COLOUR_RGB('',0.800000011920929,0.800000011920929,0.800000011920929);
#354=AXIS2_PLACEMENT_3D('',#485,#486,#487);
#355=DRAUGHTING_PRE_DEFINED_CURVE_FONT('continuous');
#356=COLOUR_RGB('',0.800000011920929,0.800000011920929,0.800000011920929);
#357=CARTESIAN_POINT('',(-1.02064204256149E-015,8.33445,-71.44));
#358=VECTOR('',#488,1.0);
#359=SURFACE_SIDE_STYLE('',(#489));
#360=EDGE_LOOP('',(#490,#491,#492));
#361=AXIS2_PLACEMENT_3D('',#493,#494,#495);
#362=DRAUGHTING_PRE_DEFINED_CURVE_FONT('continuous');
#363=COLOUR_RGB('',0.498039215803146,0.498039215803146,0.498039215803146);
#364=AXIS2_PLACEMENT_3D('',#496,#497,#498);
#365=DRAUGHTING_PRE_DEFINED_CURVE_FONT('continuous');
#366=COLOUR_RGB('',0.800000011920929,0.800000011920929,0.800000011920929);
#367=AXIS2_PLACEMENT_3D('',#499,#500,#501);
#368=DRAUGHTING_PRE_DEFINED_CURVE_FONT('continuous');
#369=COLOUR_RGB('',0.800000011920929,0.800000011920929,0.800000011920929);
#370=AXIS2_PLACEMENT_3D('',#502,#503,#504);
#371=SURFACE_SIDE_STYLE('',(#505));
#372=EDGE_LOOP('',(#506,#507));
#373=AXIS2_PLACEMENT_3D('',#508,#509,#510);
#374=SURFACE_SIDE_STYLE('',(#511));
#375=EDGE_LOOP('',(#512,#513,#514,#515));
#376=AXIS2_PLACEMENT_3D('',#516,#517,#518);
#377=DRAUGHTING_PRE_DEFINED_CURVE_FONT('continuous');
#378=COLOUR_RGB('',0.800000011920929,0.800000011920929,0.800000011920929);
#379=CARTESIAN_POINT('',(1.02064204256149E-015,-8.33445,-71.44));
#380=VECTOR('',#519,1.0);
#381=DRAUGHTING_PRE_DEFINED_CURVE_FONT('continuous');
#382=COLOUR_RGB('',0.498039215803146,0.498039215803146,0.498039215803146);
#383=CARTESIAN_POINT('',(7.7762503467721E-016,-6.35,-17.4525));
#384=VECTOR('',#520,1.0);
#385=PRE_DEFINED_MARKER('');
#386=COLOUR_RGB('',0.800000011920929,0.800000011920929,0.800000011920929);
#387=DRAUGHTING_PRE_DEFINED_CURVE_FONT('continuous');
#388=COLOUR_RGB('',0.800000011920929,0.800000011920929,0.800000011920929);
#389=AXIS2_PLACEMENT_3D('',#521,#522,#523);
#390=DRAUGHTING_PRE_DEFINED_CURVE_FONT('continuous');
#391=COLOUR_RGB('',0.498039215803146,0.498039215803146,0.498039215803146);
#392=AXIS2_PLACEMENT_3D('',#524,#525,#526);
#393=DRAUGHTING_PRE_DEFINED_CURVE_FONT('continuous');
#394=COLOUR_RGB('',0.498039215803146,0.498039215803146,0.498039215803146);
#395=CARTESIAN_POINT('',(-7.49556070398392E-016,6.12079194313172,-0.386999999999993));
#396=VECTOR('',#527,1.0);
#397=DRAUGHTING_PRE_DEFINED_CURVE_FONT('continuous');
#398=COLOUR_RGB('',0.800000011920929,0.800000011920929,0.800000011920929);
#399=CARTESIAN_POINT('',(-5.10011808176406E-016,4.1647,-50.795));
#400=VECTOR('',#528,1.0);
#401=DRAUGHTING_PRE_DEFINED_CURVE_FONT('continuous');
#402=COLOUR_RGB('',0.800000011920929,0.800000011920929,0.800000011920929);
#403=CARTESIAN_POINT('',(5.10011808176406E-016,-4.1647,-50.795));
#404=VECTOR('',#529,1.0);
#405=PRE_DEFINED_MARKER('');
#406=COLOUR_RGB('',0.800000011920929,0.800000011920929,0.800000011920929);
#407=SURFACE_SIDE_STYLE('',(#530));
#408=EDGE_LOOP('',(#531,#532,#533,#534));
#409=AXIS2_PLACEMENT_3D('',#535,#536,#537);
#410=DRAUGHTING_PRE_DEFINED_CURVE_FONT('continuous');
#411=COLOUR_RGB('',0.498039215803146,0.498039215803146,0.498039215803146);
#412=AXIS2_PLACEMENT_3D('',#538,#539,#540);
#413=DRAUGHTING_PRE_DEFINED_CURVE_FONT('continuous');
#414=COLOUR_RGB('',0.498039215803146,0.498039215803146,0.498039215803146);
#415=AXIS2_PLACEMENT_3D('',#541,#542,#543);
#416=SURFACE_SIDE_STYLE('',(#544));
#417=EDGE_LOOP('',(#545,#546,#547,#548));
#418=AXIS2_PLACEMENT_3D('',#549,#550,#551);
#419=DRAUGHTING_PRE_DEFINED_CURVE_FONT('continuous');
#420=COLOUR_RGB('',0.800000011920929,0.800000011920929,0.800000011920929);
#421=AXIS2_PLACEMENT_3D('',#552,#553,#554);
#422=PRE_DEFINED_MARKER('');
#423=COLOUR_RGB('',0.800000011920929,0.800000011920929,0.800000011920929);
#424=DRAUGHTING_PRE_DEFINED_CURVE_FONT('continuous');
#425=COLOUR_RGB('',0.800000011920929,0.800000011920929,0.800000011920929);
#426=AXIS2_PLACEMENT_3D('',#555,#556,#557);
#427=SURFACE_SIDE_STYLE('',(#558));
#428=EDGE_LOOP('',(#559,#560,#561,#562));
#429=AXIS2_PLACEMENT_3D('',#563,#564,#565);
#430=SURFACE_SIDE_STYLE('',(#566));
#431=EDGE_LOOP('',(#567,#568,#569,#570));
#432=AXIS2_PLACEMENT_3D('',#571,#572,#573);
#433=PRE_DEFINED_MARKER('');
#434=COLOUR_RGB('',0.800000011920929,0.800000011920929,0.800000011920929);
#435=PRE_DEFINED_MARKER('');
#436=COLOUR_RGB('',0.800000011920929,0.800000011920929,0.800000011920929);
#437=SURFACE_SIDE_STYLE('',(#574));
#438=DRAUGHTING_PRE_DEFINED_CURVE_FONT('continuous');
#439=COLOUR_RGB('',0.498039215803146,0.498039215803146,0.498039215803146);
#440=AXIS2_PLACEMENT_3D('',#575,#576,#577);
#441=PRE_DEFINED_MARKER('');
#442=COLOUR_RGB('',0.498039215803146,0.498039215803146,0.498039215803146);
#444=SURFACE_STYLE_FILL_AREA(#578);
#445=ORIENTED_EDGE('',*,*,#142,.F.);
#446=ORIENTED_EDGE('',*,*,#140,.F.);
#447=ORIENTED_EDGE('',*,*,#158,.F.);
#448=CARTESIAN_POINT('',(0.0,0.0,-50.795));
#449=DIRECTION('',(-0.0,-0.0,1.0));
#450=DIRECTION('',(0.0,1.0,0.0));
#451=DIRECTION('',(0.0,0.0,-1.0));
#452=SURFACE_STYLE_FILL_AREA(#579);
#453=CARTESIAN_POINT('',(0.0,0.0,-0.783999999999992));
#454=DIRECTION('',(0.0,0.0,-1.0));
#455=DIRECTION('',(0.0,1.0,0.0));
#456=SURFACE_STYLE_FILL_AREA(#580);
#457=ORIENTED_EDGE('',*,*,#138,.T.);
#458=ORIENTED_EDGE('',*,*,#98,.F.);
#459=ORIENTED_EDGE('',*,*,#104,.T.);
#460=ORIENTED_EDGE('',*,*,#118,.T.);
#461=CARTESIAN_POINT('',(0.0,0.0,-0.386999999999993));
#462=DIRECTION('',(0.0,-0.0,-1.0));
#463=DIRECTION('',(0.0,1.0,0.0));
#464=SURFACE_STYLE_FILL_AREA(#581);
#465=ORIENTED_EDGE('',*,*,#120,.F.);
#466=ORIENTED_EDGE('',*,*,#122,.F.);
#467=ORIENTED_EDGE('',*,*,#112,.T.);
#468=ORIENTED_EDGE('',*,*,#158,.T.);
#469=CARTESIAN_POINT('',(0.0,8.3319,-50.79));
#470=DIRECTION('',(-0.0,0.0,1.0));
#471=DIRECTION('',(0.0,-1.0,0.0));
#472=DIRECTION('',(-6.12303176911191E-017,0.500000000000002,0.866025403784438));
#473=SURFACE_STYLE_FILL_AREA(#582);
#474=ORIENTED_EDGE('',*,*,#150,.T.);
#475=ORIENTED_EDGE('',*,*,#136,.T.);
#476=CARTESIAN_POINT('',(0.0,0.0,-50.79));
#477=DIRECTION('',(0.0,0.0,-1.0));
#478=DIRECTION('',(0.0,-1.0,0.0));
#479=SURFACE_STYLE_FILL_AREA(#583);
#480=ORIENTED_EDGE('',*,*,#154,.T.);
#481=ORIENTED_EDGE('',*,*,#134,.T.);
#482=CARTESIAN_POINT('',(0.0,4.16475,-92.09));
#483=DIRECTION('',(0.0,0.0,-1.0));
#484=DIRECTION('',(0.0,1.0,0.0));
#485=CARTESIAN_POINT('',(0.0,0.0,-50.79));
#486=DIRECTION('',(0.0,0.0,-1.0));
#487=DIRECTION('',(0.0,1.0,0.0));
#488=DIRECTION('',(-2.96514855645505E-022,2.42130750604053E-006,-0.999999999997069));
#489=SURFACE_STYLE_FILL_AREA(#584);
#490=ORIENTED_EDGE('',*,*,#142,.T.);
#491=ORIENTED_EDGE('',*,*,#112,.F.);
#492=ORIENTED_EDGE('',*,*,#140,.T.);
#493=CARTESIAN_POINT('',(0.0,0.0,-50.795));
#494=DIRECTION('',(-0.0,-0.0,1.0));
#495=DIRECTION('',(0.0,1.0,0.0));
#496=CARTESIAN_POINT('',(0.0,0.0,0.0100000000000051));
#497=DIRECTION('',(0.0,0.0,-1.0));
#498=DIRECTION('',(0.0,1.0,0.0));
#499=CARTESIAN_POINT('',(0.0,0.0,-50.79));
#500=DIRECTION('',(0.0,0.0,-1.0));
#501=DIRECTION('',(0.0,1.0,0.0));
#502=CARTESIAN_POINT('',(0.0,0.0,-50.79));
#503=DIRECTION('',(0.0,0.0,-1.0));
#504=DIRECTION('',(0.0,1.0,0.0));
#505=SURFACE_STYLE_FILL_AREA(#585);
#506=ORIENTED_EDGE('',*,*,#148,.F.);
#507=ORIENTED_EDGE('',*,*,#118,.F.);
#508=CARTESIAN_POINT('',(0.0,2.94579194313172,0.0100000000000051));
#509=DIRECTION('',(-0.0,0.0,1.0));
#510=DIRECTION('',(0.0,-1.0,0.0));
#511=SURFACE_STYLE_FILL_AREA(#586);
#512=ORIENTED_EDGE('',*,*,#114,.F.);
#513=ORIENTED_EDGE('',*,*,#120,.T.);
#514=ORIENTED_EDGE('',*,*,#128,.F.);
#515=ORIENTED_EDGE('',*,*,#154,.F.);
#516=CARTESIAN_POINT('',(0.0,0.0,-71.44));
#517=DIRECTION('',(0.0,-0.0,-1.0));
#518=DIRECTION('',(0.0,1.0,0.0));
#519=DIRECTION('',(-2.96514855645505E-022,2.42130750604053E-006,0.999999999997069));
#520=DIRECTION('',(-0.0,-0.0,1.0));
#521=CARTESIAN_POINT('',(0.0,0.0,-92.09));
#522=DIRECTION('',(0.0,0.0,-1.0));
#523=DIRECTION('',(0.0,1.0,0.0));
#524=CARTESIAN_POINT('',(0.0,0.0,-50.79));
#525=DIRECTION('',(0.0,0.0,-1.0));
#526=DIRECTION('',(0.0,-1.0,0.0));
#527=DIRECTION('',(-6.12303176911191E-017,0.500000000000002,-0.866025403784438));
#528=DIRECTION('',(1.22460547127383E-016,-0.999999279320618,-0.00120056580224297));
#529=DIRECTION('',(1.22460547127383E-016,-0.999999279320618,0.00120056580224297));
#530=SURFACE_STYLE_FILL_AREA(#587);
#531=ORIENTED_EDGE('',*,*,#92,.T.);
#532=ORIENTED_EDGE('',*,*,#150,.F.);
#533=ORIENTED_EDGE('',*,*,#130,.T.);
#534=ORIENTED_EDGE('',*,*,#98,.T.);
#535=CARTESIAN_POINT('',(0.0,0.0,-17.4525));
#536=DIRECTION('',(-0.0,-0.0,1.0));
#537=DIRECTION('',(0.0,1.0,0.0));
#538=CARTESIAN_POINT('',(0.0,0.0,0.0100000000000051));
#539=DIRECTION('',(0.0,0.0,-1.0));
#540=DIRECTION('',(0.0,1.0,0.0));
#541=CARTESIAN_POINT('',(0.0,0.0,-50.79));
#542=DIRECTION('',(0.0,0.0,-1.0));
#543=DIRECTION('',(0.0,-1.0,0.0));
#544=SURFACE_STYLE_FILL_AREA(#588);
#545=ORIENTED_EDGE('',*,*,#114,.T.);
#546=ORIENTED_EDGE('',*,*,#134,.F.);
#547=ORIENTED_EDGE('',*,*,#128,.T.);
#548=ORIENTED_EDGE('',*,*,#122,.T.);
#549=CARTESIAN_POINT('',(0.0,0.0,-71.44));
#550=DIRECTION('',(0.0,-0.0,-1.0));
#551=DIRECTION('',(0.0,1.0,0.0));
#552=CARTESIAN_POINT('',(0.0,0.0,-92.09));
#553=DIRECTION('',(0.0,0.0,-1.0));
#554=DIRECTION('',(0.0,1.0,0.0));
#555=CARTESIAN_POINT('',(0.0,0.0,-50.79));
#556=DIRECTION('',(0.0,0.0,-1.0));
#557=DIRECTION('',(0.0,1.0,0.0));
#558=SURFACE_STYLE_FILL_AREA(#589);
#559=ORIENTED_EDGE('',*,*,#92,.F.);
#560=ORIENTED_EDGE('',*,*,#170,.T.);
#561=ORIENTED_EDGE('',*,*,#130,.F.);
#562=ORIENTED_EDGE('',*,*,#136,.F.);
#563=CARTESIAN_POINT('',(0.0,0.0,-17.4525));
#564=DIRECTION('',(-0.0,-0.0,1.0));
#565=DIRECTION('',(0.0,1.0,0.0));
#566=SURFACE_STYLE_FILL_AREA(#590);
#567=ORIENTED_EDGE('',*,*,#138,.F.);
#568=ORIENTED_EDGE('',*,*,#148,.T.);
#569=ORIENTED_EDGE('',*,*,#104,.F.);
#570=ORIENTED_EDGE('',*,*,#170,.F.);
#571=CARTESIAN_POINT('',(0.0,0.0,-0.386999999999993));
#572=DIRECTION('',(0.0,-0.0,-1.0));
#573=DIRECTION('',(0.0,1.0,0.0));
#574=SURFACE_STYLE_FILL_AREA(#591);
#575=CARTESIAN_POINT('',(0.0,0.0,-0.783999999999992));
#576=DIRECTION('',(0.0,0.0,-1.0));
#577=DIRECTION('',(0.0,1.0,0.0));
#578=FILL_AREA_STYLE('',(#592));
#579=FILL_AREA_STYLE('',(#593));
#580=FILL_AREA_STYLE('',(#594));
#581=FILL_AREA_STYLE('',(#595));
#582=FILL_AREA_STYLE('',(#596));
#583=FILL_AREA_STYLE('',(#597));
#584=FILL_AREA_STYLE('',(#598));
#585=FILL_AREA_STYLE('',(#599));
#586=FILL_AREA_STYLE('',(#600));
#587=FILL_AREA_STYLE('',(#601));
#588=FILL_AREA_STYLE('',(#602));
#589=FILL_AREA_STYLE('',(#603));
#590=FILL_AREA_STYLE('',(#604));
#591=FILL_AREA_STYLE('',(#605));
#592=FILL_AREA_STYLE_COLOUR('',#606);
#593=FILL_AREA_STYLE_COLOUR('',#607);
#594=FILL_AREA_STYLE_COLOUR('',#608);
#595=FILL_AREA_STYLE_COLOUR('',#609);
#596=FILL_AREA_STYLE_COLOUR('',#610);
#597=FILL_AREA_STYLE_COLOUR('',#611);
#598=FILL_AREA_STYLE_COLOUR('',#612);
#599=FILL_AREA_STYLE_COLOUR('',#613);
#600=FILL_AREA_STYLE_COLOUR('',#614);
#601=FILL_AREA_STYLE_COLOUR('',#615);
#602=FILL_AREA_STYLE_COLOUR('',#616);
#603=FILL_AREA_STYLE_COLOUR('',#617);
#604=FILL_AREA_STYLE_COLOUR('',#618);
#605=FILL_AREA_STYLE_COLOUR('',#619);
#606=COLOUR_RGB('',0.800000011920929,0.800000011920929,0.800000011920929);
#607=COLOUR_RGB('',0.800000011920929,0.800000011920929,0.800000011920929);
#608=COLOUR_RGB('',0.498039215803146,0.498039215803146,0.498039215803146);
#609=COLOUR_RGB('',0.800000011920929,0.800000011920929,0.800000011920929);
#610=COLOUR_RGB('',0.498039215803146,0.498039215803146,0.498039215803146);
#611=COLOUR_RGB('',0.800000011920929,0.800000011920929,0.800000011920929);
#612=COLOUR_RGB('',0.800000011920929,0.800000011920929,0.800000011920929);
#613=COLOUR_RGB('',0.498039215803146,0.498039215803146,0.498039215803146);
#614=COLOUR_RGB('',0.800000011920929,0.800000011920929,0.800000011920929);
#615=COLOUR_RGB('',0.498039215803146,0.498039215803146,0.498039215803146);
#616=COLOUR_RGB('',0.800000011920929,0.800000011920929,0.800000011920929);
#617=COLOUR_RGB('',0.498039215803146,0.498039215803146,0.498039215803146);
#618=COLOUR_RGB('',0.498039215803146,0.498039215803146,0.498039215803146);
#619=COLOUR_RGB('',0.800000011920929,0.800000011920929,0.800000011920929);
#620=AXIS2_PLACEMENT_3D('PCS',#621,#622,#623);
#621=CARTESIAN_POINT('',(0.0,0.0,0.0));
#622=DIRECTION('',(0.0,0.0,1.0));
#623=DIRECTION('',(1.0,0.0,0.0));
#624=AXIS2_PLACEMENT_3D('CIP',#625,#626,#627);
#625=CARTESIAN_POINT('',(0.0,0.0,-92.1));
#626=DIRECTION('',(0.0,0.0,1.0));
#627=DIRECTION('',(1.0,0.0,0.0));
#628=AXIS2_PLACEMENT_3D('CRP',#629,#630,#631);
#629=CARTESIAN_POINT('',(-8.3345,0.0,-92.1));
#630=DIRECTION('',(0.0,0.0,1.0));
#631=DIRECTION('',(1.0,0.0,0.0));
#632=AXIS2_PLACEMENT_3D('MCS',#633,#634,#635);
#633=CARTESIAN_POINT('',(0.0,0.0,-34.131));
#634=DIRECTION('',(0.0,0.0,1.0));
#635=DIRECTION('',(1.0,0.0,0.0));
#636=CONSTRUCTIVE_GEOMETRY_REPRESENTATION_RELATIONSHIP('coordinate systems',$,#65,#637);
#637=CONSTRUCTIVE_GEOMETRY_REPRESENTATION('coordinate systems',(#620,#624,#628,#632),#10);
ENDSEC;
END-ISO-10303-21;
