ISO-10303-21;
HEADER;
FILE_DESCRIPTION(('no description'),'unknown implementation level');
FILE_NAME('solideStNG1A7zJKJitj2mM_8kFKwJrM_1.STP','  ',('CIMSOURCE GmbH'),('CADClick - KiM GmbH - www.kimweb.de'),'unknown preprocess','ACIS','unknown authorization');
FILE_SCHEMA(('automotive_design'));
ENDSEC;
DATA;
#1=MECHANICAL_DESIGN_GEOMETRIC_PRESENTATION_REPRESENTATION(' ',(#14,#15,#16,#17,#18,#19,#20,#21,#22,#23,#24,#25,#26,#27,#28,#29,#30,#31,#32,#33,#34,#35,#36,#37,#38,#39,#40,#41,#42,#43,#44,#45,#46,#47,#48,#49,#50,#51,#52,#53,#54,#55,#56,#57,#58,#59,#60),#10);
#2=PRODUCT_DEFINITION_CONTEXT('',#61,'design');
#3=APPLICATION_PROTOCOL_DEFINITION('INTERNATIONAL STANDARD','automotive_design',1994,#61);
#4=PRODUCT_CATEGORY_RELATIONSHIP('NONE','NONE',#62,#63);
#5=SHAPE_DEFINITION_REPRESENTATION(#64,#65);
#6=PRODUCT_DEFINITION_CONTEXT('',#66,'design');
#7=APPLICATION_PROTOCOL_DEFINITION('INTERNATIONAL STANDARD','automotive_design',1994,#66);
#8=PRODUCT_CATEGORY_RELATIONSHIP('NONE','NONE',#67,#68);
#9=SHAPE_DEFINITION_REPRESENTATION(#69,#70);
#10= (GEOMETRIC_REPRESENTATION_CONTEXT(3)GLOBAL_UNCERTAINTY_ASSIGNED_CONTEXT((#73))GLOBAL_UNIT_ASSIGNED_CONTEXT((#75,#76,#77))REPRESENTATION_CONTEXT('NONE','WORKSPACE'));
#14=STYLED_ITEM('',(#79),#80);
#15=STYLED_ITEM('',(#81),#82);
#16=STYLED_ITEM('',(#83),#84);
#17=STYLED_ITEM('',(#85),#86);
#18=STYLED_ITEM('',(#87),#88);
#19=STYLED_ITEM('',(#89),#90);
#20=STYLED_ITEM('',(#91),#92);
#21=STYLED_ITEM('',(#93),#94);
#22=STYLED_ITEM('',(#95),#96);
#23=STYLED_ITEM('',(#97),#98);
#24=STYLED_ITEM('',(#99),#100);
#25=STYLED_ITEM('',(#101),#102);
#26=STYLED_ITEM('',(#103),#104);
#27=STYLED_ITEM('',(#105),#106);
#28=STYLED_ITEM('',(#107),#108);
#29=STYLED_ITEM('',(#109),#110);
#30=STYLED_ITEM('',(#111),#112);
#31=STYLED_ITEM('',(#113),#114);
#32=STYLED_ITEM('',(#115),#116);
#33=STYLED_ITEM('',(#117),#118);
#34=STYLED_ITEM('',(#119),#120);
#35=STYLED_ITEM('',(#121),#122);
#36=STYLED_ITEM('',(#123),#124);
#37=STYLED_ITEM('',(#125),#126);
#38=STYLED_ITEM('',(#127),#128);
#39=STYLED_ITEM('',(#129),#130);
#40=STYLED_ITEM('',(#131),#132);
#41=STYLED_ITEM('',(#133),#134);
#42=STYLED_ITEM('',(#135),#136);
#43=STYLED_ITEM('',(#137),#138);
#44=STYLED_ITEM('',(#139),#140);
#45=STYLED_ITEM('',(#141),#142);
#46=STYLED_ITEM('',(#143),#144);
#47=STYLED_ITEM('',(#145),#146);
#48=STYLED_ITEM('',(#147),#148);
#49=STYLED_ITEM('',(#149),#150);
#50=STYLED_ITEM('',(#151),#152);
#51=STYLED_ITEM('',(#153),#154);
#52=STYLED_ITEM('',(#155),#156);
#53=STYLED_ITEM('',(#157),#158);
#54=STYLED_ITEM('',(#159),#160);
#55=STYLED_ITEM('',(#161),#162);
#56=STYLED_ITEM('',(#163),#164);
#57=STYLED_ITEM('',(#165),#166);
#58=STYLED_ITEM('',(#167),#168);
#59=STYLED_ITEM('',(#169),#170);
#60=STYLED_ITEM('',(#171),#172);
#61=APPLICATION_CONTEXT(' ');
#62=PRODUCT_CATEGORY('part','NONE');
#63=PRODUCT_RELATED_PRODUCT_CATEGORY('detail',' ',(#173));
#64=PRODUCT_DEFINITION_SHAPE('NONE','NONE',#174);
#65=ADVANCED_BREP_SHAPE_REPRESENTATION('1',(#104,#175),#10);
#66=APPLICATION_CONTEXT(' ');
#67=PRODUCT_CATEGORY('part','NONE');
#68=PRODUCT_RELATED_PRODUCT_CATEGORY('detail',' ',(#176));
#69=PRODUCT_DEFINITION_SHAPE('NONE','NONE',#177);
#70=ADVANCED_BREP_SHAPE_REPRESENTATION('2',(#110,#178),#10);
#73=UNCERTAINTY_MEASURE_WITH_UNIT(LENGTH_MEASURE(1.0E-006),#75,'','');
#75= (CONVERSION_BASED_UNIT('MILLIMETRE',#181)LENGTH_UNIT()NAMED_UNIT(#184));
#76= (NAMED_UNIT(#186)PLANE_ANGLE_UNIT()SI_UNIT($,.RADIAN.));
#77= (NAMED_UNIT(#186)SOLID_ANGLE_UNIT()SI_UNIT($,.STERADIAN.));
#79=PRESENTATION_STYLE_ASSIGNMENT((#192));
#80=EDGE_CURVE('',#126,#152,#193,.T.);
#81=PRESENTATION_STYLE_ASSIGNMENT((#194));
#82=ADVANCED_FACE('',(#195),#196,.F.);
#83=PRESENTATION_STYLE_ASSIGNMENT((#197));
#84=VERTEX_POINT('',#198);
#85=PRESENTATION_STYLE_ASSIGNMENT((#199));
#86=VERTEX_POINT('',#200);
#87=PRESENTATION_STYLE_ASSIGNMENT((#201));
#88=EDGE_CURVE('',#158,#98,#202,.T.);
#89=PRESENTATION_STYLE_ASSIGNMENT((#203));
#90=EDGE_CURVE('',#86,#98,#204,.T.);
#91=PRESENTATION_STYLE_ASSIGNMENT((#205));
#92=EDGE_CURVE('',#128,#130,#206,.T.);
#93=PRESENTATION_STYLE_ASSIGNMENT((#207));
#94=EDGE_CURVE('',#98,#86,#208,.T.);
#95=PRESENTATION_STYLE_ASSIGNMENT((#209));
#96=VERTEX_POINT('',#210);
#97=PRESENTATION_STYLE_ASSIGNMENT((#211));
#98=VERTEX_POINT('',#212);
#99=PRESENTATION_STYLE_ASSIGNMENT((#213));
#100=ADVANCED_FACE('',(#214),#215,.T.);
#101=PRESENTATION_STYLE_ASSIGNMENT((#216));
#102=VERTEX_POINT('',#217);
#103=PRESENTATION_STYLE_ASSIGNMENT((#218));
#104=MANIFOLD_SOLID_BREP('1',#219);
#105=PRESENTATION_STYLE_ASSIGNMENT((#220));
#106=ADVANCED_FACE('',(#221,#222),#223,.T.);
#107=PRESENTATION_STYLE_ASSIGNMENT((#224));
#108=EDGE_CURVE('',#96,#140,#225,.T.);
#109=PRESENTATION_STYLE_ASSIGNMENT((#226));
#110=MANIFOLD_SOLID_BREP('2',#227);
#111=PRESENTATION_STYLE_ASSIGNMENT((#228));
#112=ADVANCED_FACE('',(#229),#230,.T.);
#113=PRESENTATION_STYLE_ASSIGNMENT((#231));
#114=ADVANCED_FACE('',(#232),#233,.T.);
#115=PRESENTATION_STYLE_ASSIGNMENT((#234));
#116=EDGE_CURVE('',#142,#130,#235,.T.);
#117=PRESENTATION_STYLE_ASSIGNMENT((#236));
#118=EDGE_CURVE('',#164,#86,#237,.T.);
#119=PRESENTATION_STYLE_ASSIGNMENT((#238));
#120=EDGE_CURVE('',#96,#126,#239,.T.);
#121=PRESENTATION_STYLE_ASSIGNMENT((#240));
#122=EDGE_CURVE('',#98,#84,#241,.T.);
#123=PRESENTATION_STYLE_ASSIGNMENT((#242));
#124=ADVANCED_FACE('',(#243),#244,.T.);
#125=PRESENTATION_STYLE_ASSIGNMENT((#245));
#126=VERTEX_POINT('',#246);
#127=PRESENTATION_STYLE_ASSIGNMENT((#247));
#128=VERTEX_POINT('',#248);
#129=PRESENTATION_STYLE_ASSIGNMENT((#249));
#130=VERTEX_POINT('',#250);
#131=PRESENTATION_STYLE_ASSIGNMENT((#251));
#132=EDGE_CURVE('',#128,#142,#252,.T.);
#133=PRESENTATION_STYLE_ASSIGNMENT((#253));
#134=EDGE_CURVE('',#84,#164,#254,.T.);
#135=PRESENTATION_STYLE_ASSIGNMENT((#255));
#136=EDGE_CURVE('',#152,#140,#256,.T.);
#137=PRESENTATION_STYLE_ASSIGNMENT((#257));
#138=EDGE_CURVE('',#86,#102,#258,.T.);
#139=PRESENTATION_STYLE_ASSIGNMENT((#259));
#140=VERTEX_POINT('',#260);
#141=PRESENTATION_STYLE_ASSIGNMENT((#261));
#142=VERTEX_POINT('',#262);
#143=PRESENTATION_STYLE_ASSIGNMENT((#263));
#144=EDGE_CURVE('',#164,#84,#264,.T.);
#145=PRESENTATION_STYLE_ASSIGNMENT((#265));
#146=ADVANCED_FACE('',(#266),#267,.T.);
#147=PRESENTATION_STYLE_ASSIGNMENT((#268));
#148=ADVANCED_FACE('',(#269),#270,.F.);
#149=PRESENTATION_STYLE_ASSIGNMENT((#271));
#150=ADVANCED_FACE('',(#272),#273,.T.);
#151=PRESENTATION_STYLE_ASSIGNMENT((#274));
#152=VERTEX_POINT('',#275);
#153=PRESENTATION_STYLE_ASSIGNMENT((#276));
#154=EDGE_CURVE('',#130,#128,#277,.T.);
#155=PRESENTATION_STYLE_ASSIGNMENT((#278));
#156=ADVANCED_FACE('',(#279),#280,.T.);
#157=PRESENTATION_STYLE_ASSIGNMENT((#281));
#158=VERTEX_POINT('',#282);
#159=PRESENTATION_STYLE_ASSIGNMENT((#283));
#160=ADVANCED_FACE('',(#284),#285,.T.);
#161=PRESENTATION_STYLE_ASSIGNMENT((#286));
#162=ADVANCED_FACE('',(#287),#288,.T.);
#163=PRESENTATION_STYLE_ASSIGNMENT((#289));
#164=VERTEX_POINT('',#290);
#165=PRESENTATION_STYLE_ASSIGNMENT((#291));
#166=EDGE_CURVE('',#158,#102,#292,.T.);
#167=PRESENTATION_STYLE_ASSIGNMENT((#293));
#168=EDGE_CURVE('',#102,#158,#294,.T.);
#169=PRESENTATION_STYLE_ASSIGNMENT((#295));
#170=EDGE_CURVE('',#140,#96,#296,.T.);
#171=PRESENTATION_STYLE_ASSIGNMENT((#297));
#172=EDGE_CURVE('',#152,#126,#298,.T.);
#173=PRODUCT('1','1','PART-1-DESC',(#299));
#174=PRODUCT_DEFINITION('NONE','NONE',#300,#2);
#175=AXIS2_PLACEMENT_3D('',#301,#302,#303);
#176=PRODUCT('2','2','PART-2-DESC',(#304));
#177=PRODUCT_DEFINITION('NONE','NONE',#305,#6);
#178=AXIS2_PLACEMENT_3D('',#306,#307,#308);
#181=LENGTH_MEASURE_WITH_UNIT(LENGTH_MEASURE(1.0),#309);
#184=DIMENSIONAL_EXPONENTS(1.0,0.0,0.0,0.0,0.0,0.0,0.0);
#186=DIMENSIONAL_EXPONENTS(0.0,0.0,0.0,0.0,0.0,0.0,0.0);
#192=CURVE_STYLE('',#310,POSITIVE_LENGTH_MEASURE(1.0E-006),#311);
#193=CIRCLE('',#312,8.731);
#194=SURFACE_STYLE_USAGE(.BOTH.,#313);
#195=FACE_OUTER_BOUND('',#314,.T.);
#196=CONICAL_SURFACE('',#315,4.36295,1.56965031370488);
#197=POINT_STYLE(' ',#316,POSITIVE_LENGTH_MEASURE(1.0E-006),#317);
#198=CARTESIAN_POINT('',(-7.7762503467721E-016,6.35,-50.79));
#199=POINT_STYLE(' ',#318,POSITIVE_LENGTH_MEASURE(1.0E-006),#319);
#200=CARTESIAN_POINT('',(7.7762503467721E-016,-6.35,-0.783999999999992));
#201=CURVE_STYLE('',#320,POSITIVE_LENGTH_MEASURE(1.0E-006),#321);
#202=LINE('',#322,#323);
#203=CURVE_STYLE('',#324,POSITIVE_LENGTH_MEASURE(1.0E-006),#325);
#204=CIRCLE('',#326,6.35);
#205=CURVE_STYLE('',#327,POSITIVE_LENGTH_MEASURE(1.0E-006),#328);
#206=CIRCLE('',#329,8.7259);
#207=CURVE_STYLE('',#330,POSITIVE_LENGTH_MEASURE(1.0E-006),#331);
#208=CIRCLE('',#332,6.35);
#209=POINT_STYLE(' ',#333,POSITIVE_LENGTH_MEASURE(1.0E-006),#334);
#210=CARTESIAN_POINT('',(0.0,8.7309,-50.79));
#211=POINT_STYLE(' ',#335,POSITIVE_LENGTH_MEASURE(1.0E-006),#336);
#212=CARTESIAN_POINT('',(0.0,6.35,-0.783999999999992));
#213=SURFACE_STYLE_USAGE(.BOTH.,#337);
#214=FACE_OUTER_BOUND('',#338,.T.);
#215=CONICAL_SURFACE('',#339,8.73095,2.42130750604289E-006);
#216=POINT_STYLE(' ',#340,POSITIVE_LENGTH_MEASURE(1.0E-006),#341);
#217=CARTESIAN_POINT('',(7.21487106119574E-016,-5.89158388626344,0.0100000000000051));
#218=SURFACE_STYLE_USAGE(.BOTH.,#342);
#219=CLOSED_SHELL('',(#100,#148,#82,#106,#112,#146));
#220=SURFACE_STYLE_USAGE(.BOTH.,#343);
#221=FACE_OUTER_BOUND('',#344,.T.);
#222=FACE_BOUND('',#345,.T.);
#223=PLANE('',#346);
#224=CURVE_STYLE('',#347,POSITIVE_LENGTH_MEASURE(1.0E-006),#348);
#225=CIRCLE('',#349,8.7309);
#226=SURFACE_STYLE_USAGE(.BOTH.,#350);
#227=CLOSED_SHELL('',(#124,#162,#114,#150,#156,#160));
#228=SURFACE_STYLE_USAGE(.BOTH.,#351);
#229=FACE_OUTER_BOUND('',#352,.T.);
#230=CONICAL_SURFACE('',#353,8.73095,2.42130750604289E-006);
#231=SURFACE_STYLE_USAGE(.BOTH.,#354);
#232=FACE_OUTER_BOUND('',#355,.T.);
#233=PLANE('',#356);
#234=CURVE_STYLE('',#357,POSITIVE_LENGTH_MEASURE(1.0E-006),#358);
#235=LINE('',#359,#360);
#236=CURVE_STYLE('',#361,POSITIVE_LENGTH_MEASURE(1.0E-006),#362);
#237=LINE('',#363,#364);
#238=CURVE_STYLE('',#365,POSITIVE_LENGTH_MEASURE(1.0E-006),#366);
#239=LINE('',#367,#368);
#240=CURVE_STYLE('',#369,POSITIVE_LENGTH_MEASURE(1.0E-006),#370);
#241=LINE('',#371,#372);
#242=SURFACE_STYLE_USAGE(.BOTH.,#373);
#243=FACE_OUTER_BOUND('',#374,.T.);
#244=CYLINDRICAL_SURFACE('',#375,6.35);
#245=POINT_STYLE(' ',#376,POSITIVE_LENGTH_MEASURE(1.0E-006),#377);
#246=CARTESIAN_POINT('',(0.0,8.731,-92.09));
#247=POINT_STYLE(' ',#378,POSITIVE_LENGTH_MEASURE(1.0E-006),#379);
#248=CARTESIAN_POINT('',(0.0,8.7259,-50.79));
#249=POINT_STYLE(' ',#380,POSITIVE_LENGTH_MEASURE(1.0E-006),#381);
#250=CARTESIAN_POINT('',(1.06857925828187E-015,-8.7259,-50.79));
#251=CURVE_STYLE('',#382,POSITIVE_LENGTH_MEASURE(1.0E-006),#383);
#252=LINE('',#384,#385);
#253=CURVE_STYLE('',#386,POSITIVE_LENGTH_MEASURE(1.0E-006),#387);
#254=CIRCLE('',#388,6.35);
#255=CURVE_STYLE('',#389,POSITIVE_LENGTH_MEASURE(1.0E-006),#390);
#256=LINE('',#391,#392);
#257=CURVE_STYLE('',#393,POSITIVE_LENGTH_MEASURE(1.0E-006),#394);
#258=LINE('',#395,#396);
#259=POINT_STYLE(' ',#397,POSITIVE_LENGTH_MEASURE(1.0E-006),#398);
#260=CARTESIAN_POINT('',(1.06919156145878E-015,-8.7309,-50.79));
#261=POINT_STYLE(' ',#399,POSITIVE_LENGTH_MEASURE(1.0E-006),#400);
#262=CARTESIAN_POINT('',(0.0,0.0,-50.8));
#263=CURVE_STYLE('',#401,POSITIVE_LENGTH_MEASURE(1.0E-006),#402);
#264=CIRCLE('',#403,6.35);
#265=SURFACE_STYLE_USAGE(.BOTH.,#404);
#266=FACE_OUTER_BOUND('',#405,.T.);
#267=PLANE('',#406);
#268=SURFACE_STYLE_USAGE(.BOTH.,#407);
#269=FACE_OUTER_BOUND('',#408,.T.);
#270=CONICAL_SURFACE('',#409,4.36295,1.56965031370488);
#271=SURFACE_STYLE_USAGE(.BOTH.,#410);
#272=FACE_OUTER_BOUND('',#411,.T.);
#273=PLANE('',#412);
#274=POINT_STYLE(' ',#413,POSITIVE_LENGTH_MEASURE(1.0E-006),#414);
#275=CARTESIAN_POINT('',(1.06920380752232E-015,-8.731,-92.09));
#276=CURVE_STYLE('',#415,POSITIVE_LENGTH_MEASURE(1.0E-006),#416);
#277=CIRCLE('',#417,8.7259);
#278=SURFACE_STYLE_USAGE(.BOTH.,#418);
#279=FACE_OUTER_BOUND('',#419,.T.);
#280=CONICAL_SURFACE('',#420,6.12079194313172,0.523598775598301);
#281=POINT_STYLE(' ',#421,POSITIVE_LENGTH_MEASURE(1.0E-006),#422);
#282=CARTESIAN_POINT('',(0.0,5.89158388626344,0.0100000000000051));
#283=SURFACE_STYLE_USAGE(.BOTH.,#423);
#284=FACE_OUTER_BOUND('',#424,.T.);
#285=CYLINDRICAL_SURFACE('',#425,6.35);
#286=SURFACE_STYLE_USAGE(.BOTH.,#426);
#287=FACE_OUTER_BOUND('',#427,.T.);
#288=CONICAL_SURFACE('',#428,6.12079194313172,0.523598775598301);
#289=POINT_STYLE(' ',#429,POSITIVE_LENGTH_MEASURE(1.0E-006),#430);
#290=CARTESIAN_POINT('',(0.0,-6.35,-50.79));
#291=CURVE_STYLE('',#431,POSITIVE_LENGTH_MEASURE(1.0E-006),#432);
#292=CIRCLE('',#433,5.89158388626344);
#293=CURVE_STYLE('',#434,POSITIVE_LENGTH_MEASURE(1.0E-006),#435);
#294=CIRCLE('',#436,5.89158388626344);
#295=CURVE_STYLE('',#437,POSITIVE_LENGTH_MEASURE(1.0E-006),#438);
#296=CIRCLE('',#439,8.7309);
#297=CURVE_STYLE('',#440,POSITIVE_LENGTH_MEASURE(1.0E-006),#441);
#298=CIRCLE('',#442,8.731);
#299=PRODUCT_CONTEXT('',#61,'mechanical');
#300=PRODUCT_DEFINITION_FORMATION_WITH_SPECIFIED_SOURCE(' ','NONE',#173,.NOT_KNOWN.);
#301=CARTESIAN_POINT('',(0.0,0.0,0.0));
#302=DIRECTION('',(0.0,0.0,1.0));
#303=DIRECTION('',(1.0,0.0,0.0));
#304=PRODUCT_CONTEXT('',#66,'mechanical');
#305=PRODUCT_DEFINITION_FORMATION_WITH_SPECIFIED_SOURCE(' ','NONE',#176,.NOT_KNOWN.);
#306=CARTESIAN_POINT('',(0.0,0.0,0.0));
#307=DIRECTION('',(0.0,0.0,1.0));
#308=DIRECTION('',(1.0,0.0,0.0));
#309= (NAMED_UNIT(#184)LENGTH_UNIT()SI_UNIT(.MILLI.,.METRE.));
#310=DRAUGHTING_PRE_DEFINED_CURVE_FONT('continuous');
#311=COLOUR_RGB('',0.800000011920929,0.800000011920929,0.800000011920929);
#312=AXIS2_PLACEMENT_3D('',#444,#445,#446);
#313=SURFACE_SIDE_STYLE('',(#447));
#314=EDGE_LOOP('',(#448,#449,#450));
#315=AXIS2_PLACEMENT_3D('',#451,#452,#453);
#316=PRE_DEFINED_MARKER('');
#317=COLOUR_RGB('',0.498039215803146,0.498039215803146,0.498039215803146);
#318=PRE_DEFINED_MARKER('');
#319=COLOUR_RGB('',0.498039215803146,0.498039215803146,0.498039215803146);
#320=DRAUGHTING_PRE_DEFINED_CURVE_FONT('continuous');
#321=COLOUR_RGB('',0.498039215803146,0.498039215803146,0.498039215803146);
#322=CARTESIAN_POINT('',(-7.49556070398392E-016,6.12079194313172,-0.386999999999993));
#323=VECTOR('',#454,1.0);
#324=DRAUGHTING_PRE_DEFINED_CURVE_FONT('continuous');
#325=COLOUR_RGB('',0.498039215803146,0.498039215803146,0.498039215803146);
#326=AXIS2_PLACEMENT_3D('',#455,#456,#457);
#327=DRAUGHTING_PRE_DEFINED_CURVE_FONT('continuous');
#328=COLOUR_RGB('',0.800000011920929,0.800000011920929,0.800000011920929);
#329=AXIS2_PLACEMENT_3D('',#458,#459,#460);
#330=DRAUGHTING_PRE_DEFINED_CURVE_FONT('continuous');
#331=COLOUR_RGB('',0.498039215803146,0.498039215803146,0.498039215803146);
#332=AXIS2_PLACEMENT_3D('',#461,#462,#463);
#333=PRE_DEFINED_MARKER('');
#334=COLOUR_RGB('',0.800000011920929,0.800000011920929,0.800000011920929);
#335=PRE_DEFINED_MARKER('');
#336=COLOUR_RGB('',0.498039215803146,0.498039215803146,0.498039215803146);
#337=SURFACE_SIDE_STYLE('',(#464));
#338=EDGE_LOOP('',(#465,#466,#467,#468));
#339=AXIS2_PLACEMENT_3D('',#469,#470,#471);
#340=PRE_DEFINED_MARKER('');
#341=COLOUR_RGB('',0.498039215803146,0.498039215803146,0.498039215803146);
#342=SURFACE_SIDE_STYLE('',(#472));
#343=SURFACE_SIDE_STYLE('',(#473));
#344=EDGE_LOOP('',(#474,#475));
#345=EDGE_LOOP('',(#476,#477));
#346=AXIS2_PLACEMENT_3D('',#478,#479,#480);
#347=DRAUGHTING_PRE_DEFINED_CURVE_FONT('continuous');
#348=COLOUR_RGB('',0.800000011920929,0.800000011920929,0.800000011920929);
#349=AXIS2_PLACEMENT_3D('',#481,#482,#483);
#350=SURFACE_SIDE_STYLE('',(#484));
#351=SURFACE_SIDE_STYLE('',(#485));
#352=EDGE_LOOP('',(#486,#487,#488,#489));
#353=AXIS2_PLACEMENT_3D('',#490,#491,#492);
#354=SURFACE_SIDE_STYLE('',(#493));
#355=EDGE_LOOP('',(#494,#495));
#356=AXIS2_PLACEMENT_3D('',#496,#497,#498);
#357=DRAUGHTING_PRE_DEFINED_CURVE_FONT('continuous');
#358=COLOUR_RGB('',0.800000011920929,0.800000011920929,0.800000011920929);
#359=CARTESIAN_POINT('',(5.34289629140934E-016,-4.36295,-50.795));
#360=VECTOR('',#499,1.0);
#361=DRAUGHTING_PRE_DEFINED_CURVE_FONT('continuous');
#362=COLOUR_RGB('',0.498039215803146,0.498039215803146,0.498039215803146);
#363=CARTESIAN_POINT('',(7.7762503467721E-016,-6.35,-17.056));
#364=VECTOR('',#500,1.0);
#365=DRAUGHTING_PRE_DEFINED_CURVE_FONT('continuous');
#366=COLOUR_RGB('',0.800000011920929,0.800000011920929,0.800000011920929);
#367=CARTESIAN_POINT('',(-1.06919768449055E-015,8.73095,-71.44));
#368=VECTOR('',#501,1.0);
#369=DRAUGHTING_PRE_DEFINED_CURVE_FONT('continuous');
#370=COLOUR_RGB('',0.498039215803146,0.498039215803146,0.498039215803146);
#371=CARTESIAN_POINT('',(-7.7762503467721E-016,6.35,-17.056));
#372=VECTOR('',#502,1.0);
#373=SURFACE_SIDE_STYLE('',(#503));
#374=EDGE_LOOP('',(#504,#505,#506,#507));
#375=AXIS2_PLACEMENT_3D('',#508,#509,#510);
#376=PRE_DEFINED_MARKER('');
#377=COLOUR_RGB('',0.800000011920929,0.800000011920929,0.800000011920929);
#378=PRE_DEFINED_MARKER('');
#379=COLOUR_RGB('',0.800000011920929,0.800000011920929,0.800000011920929);
#380=PRE_DEFINED_MARKER('');
#381=COLOUR_RGB('',0.800000011920929,0.800000011920929,0.800000011920929);
#382=DRAUGHTING_PRE_DEFINED_CURVE_FONT('continuous');
#383=COLOUR_RGB('',0.800000011920929,0.800000011920929,0.800000011920929);
#384=CARTESIAN_POINT('',(-5.34289629140934E-016,4.36295,-50.795));
#385=VECTOR('',#511,1.0);
#386=DRAUGHTING_PRE_DEFINED_CURVE_FONT('continuous');
#387=COLOUR_RGB('',0.498039215803146,0.498039215803146,0.498039215803146);
#388=AXIS2_PLACEMENT_3D('',#512,#513,#514);
#389=DRAUGHTING_PRE_DEFINED_CURVE_FONT('continuous');
#390=COLOUR_RGB('',0.800000011920929,0.800000011920929,0.800000011920929);
#391=CARTESIAN_POINT('',(1.06919768449055E-015,-8.73095,-71.44));
#392=VECTOR('',#515,1.0);
#393=DRAUGHTING_PRE_DEFINED_CURVE_FONT('continuous');
#394=COLOUR_RGB('',0.498039215803146,0.498039215803146,0.498039215803146);
#395=CARTESIAN_POINT('',(7.49556070398392E-016,-6.12079194313172,-0.386999999999993));
#396=VECTOR('',#516,1.0);
#397=PRE_DEFINED_MARKER('');
#398=COLOUR_RGB('',0.800000011920929,0.800000011920929,0.800000011920929);
#399=PRE_DEFINED_MARKER('');
#400=COLOUR_RGB('',0.800000011920929,0.800000011920929,0.800000011920929);
#401=DRAUGHTING_PRE_DEFINED_CURVE_FONT('continuous');
#402=COLOUR_RGB('',0.498039215803146,0.498039215803146,0.498039215803146);
#403=AXIS2_PLACEMENT_3D('',#517,#518,#519);
#404=SURFACE_SIDE_STYLE('',(#520));
#405=EDGE_LOOP('',(#521,#522));
#406=AXIS2_PLACEMENT_3D('',#523,#524,#525);
#407=SURFACE_SIDE_STYLE('',(#526));
#408=EDGE_LOOP('',(#527,#528,#529));
#409=AXIS2_PLACEMENT_3D('',#530,#531,#532);
#410=SURFACE_SIDE_STYLE('',(#533));
#411=EDGE_LOOP('',(#534,#535));
#412=AXIS2_PLACEMENT_3D('',#536,#537,#538);
#413=PRE_DEFINED_MARKER('');
#414=COLOUR_RGB('',0.800000011920929,0.800000011920929,0.800000011920929);
#415=DRAUGHTING_PRE_DEFINED_CURVE_FONT('continuous');
#416=COLOUR_RGB('',0.800000011920929,0.800000011920929,0.800000011920929);
#417=AXIS2_PLACEMENT_3D('',#539,#540,#541);
#418=SURFACE_SIDE_STYLE('',(#542));
#419=EDGE_LOOP('',(#543,#544,#545,#546));
#420=AXIS2_PLACEMENT_3D('',#547,#548,#549);
#421=PRE_DEFINED_MARKER('');
#422=COLOUR_RGB('',0.498039215803146,0.498039215803146,0.498039215803146);
#423=SURFACE_SIDE_STYLE('',(#550));
#424=EDGE_LOOP('',(#551,#552,#553,#554));
#425=AXIS2_PLACEMENT_3D('',#555,#556,#557);
#426=SURFACE_SIDE_STYLE('',(#558));
#427=EDGE_LOOP('',(#559,#560,#561,#562));
#428=AXIS2_PLACEMENT_3D('',#563,#564,#565);
#429=PRE_DEFINED_MARKER('');
#430=COLOUR_RGB('',0.498039215803146,0.498039215803146,0.498039215803146);
#431=DRAUGHTING_PRE_DEFINED_CURVE_FONT('continuous');
#432=COLOUR_RGB('',0.498039215803146,0.498039215803146,0.498039215803146);
#433=AXIS2_PLACEMENT_3D('',#566,#567,#568);
#434=DRAUGHTING_PRE_DEFINED_CURVE_FONT('continuous');
#435=COLOUR_RGB('',0.498039215803146,0.498039215803146,0.498039215803146);
#436=AXIS2_PLACEMENT_3D('',#569,#570,#571);
#437=DRAUGHTING_PRE_DEFINED_CURVE_FONT('continuous');
#438=COLOUR_RGB('',0.800000011920929,0.800000011920929,0.800000011920929);
#439=AXIS2_PLACEMENT_3D('',#572,#573,#574);
#440=DRAUGHTING_PRE_DEFINED_CURVE_FONT('continuous');
#441=COLOUR_RGB('',0.800000011920929,0.800000011920929,0.800000011920929);
#442=AXIS2_PLACEMENT_3D('',#575,#576,#577);
#444=CARTESIAN_POINT('',(0.0,0.0,-92.09));
#445=DIRECTION('',(0.0,0.0,-1.0));
#446=DIRECTION('',(0.0,1.0,0.0));
#447=SURFACE_STYLE_FILL_AREA(#578);
#448=ORIENTED_EDGE('',*,*,#116,.T.);
#449=ORIENTED_EDGE('',*,*,#92,.F.);
#450=ORIENTED_EDGE('',*,*,#132,.T.);
#451=CARTESIAN_POINT('',(0.0,0.0,-50.795));
#452=DIRECTION('',(-0.0,-0.0,1.0));
#453=DIRECTION('',(0.0,1.0,0.0));
#454=DIRECTION('',(-6.12303176911191E-017,0.500000000000002,-0.866025403784438));
#455=CARTESIAN_POINT('',(0.0,0.0,-0.783999999999992));
#456=DIRECTION('',(0.0,0.0,-1.0));
#457=DIRECTION('',(0.0,1.0,0.0));
#458=CARTESIAN_POINT('',(0.0,0.0,-50.79));
#459=DIRECTION('',(0.0,0.0,-1.0));
#460=DIRECTION('',(0.0,1.0,0.0));
#461=CARTESIAN_POINT('',(0.0,0.0,-0.783999999999992));
#462=DIRECTION('',(0.0,0.0,-1.0));
#463=DIRECTION('',(0.0,1.0,0.0));
#464=SURFACE_STYLE_FILL_AREA(#579);
#465=ORIENTED_EDGE('',*,*,#120,.F.);
#466=ORIENTED_EDGE('',*,*,#108,.T.);
#467=ORIENTED_EDGE('',*,*,#136,.F.);
#468=ORIENTED_EDGE('',*,*,#80,.F.);
#469=CARTESIAN_POINT('',(0.0,0.0,-71.44));
#470=DIRECTION('',(0.0,-0.0,-1.0));
#471=DIRECTION('',(0.0,1.0,0.0));
#472=SURFACE_STYLE_FILL_AREA(#580);
#473=SURFACE_STYLE_FILL_AREA(#581);
#474=ORIENTED_EDGE('',*,*,#108,.F.);
#475=ORIENTED_EDGE('',*,*,#170,.F.);
#476=ORIENTED_EDGE('',*,*,#92,.T.);
#477=ORIENTED_EDGE('',*,*,#154,.T.);
#478=CARTESIAN_POINT('',(0.0,8.7284,-50.79));
#479=DIRECTION('',(-0.0,0.0,1.0));
#480=DIRECTION('',(0.0,-1.0,0.0));
#481=CARTESIAN_POINT('',(0.0,0.0,-50.79));
#482=DIRECTION('',(0.0,0.0,-1.0));
#483=DIRECTION('',(0.0,1.0,0.0));
#484=SURFACE_STYLE_FILL_AREA(#582);
#485=SURFACE_STYLE_FILL_AREA(#583);
#486=ORIENTED_EDGE('',*,*,#120,.T.);
#487=ORIENTED_EDGE('',*,*,#172,.F.);
#488=ORIENTED_EDGE('',*,*,#136,.T.);
#489=ORIENTED_EDGE('',*,*,#170,.T.);
#490=CARTESIAN_POINT('',(0.0,0.0,-71.44));
#491=DIRECTION('',(0.0,-0.0,-1.0));
#492=DIRECTION('',(0.0,1.0,0.0));
#493=SURFACE_STYLE_FILL_AREA(#584);
#494=ORIENTED_EDGE('',*,*,#144,.T.);
#495=ORIENTED_EDGE('',*,*,#134,.T.);
#496=CARTESIAN_POINT('',(0.0,0.0,-50.79));
#497=DIRECTION('',(0.0,0.0,-1.0));
#498=DIRECTION('',(0.0,-1.0,0.0));
#499=DIRECTION('',(1.22460554965654E-016,-0.999999343327071,0.00114601283916462));
#500=DIRECTION('',(-0.0,-0.0,1.0));
#501=DIRECTION('',(-2.96514855645505E-022,2.42130750604053E-006,-0.999999999997069));
#502=DIRECTION('',(0.0,0.0,-1.0));
#503=SURFACE_STYLE_FILL_AREA(#585);
#504=ORIENTED_EDGE('',*,*,#122,.F.);
#505=ORIENTED_EDGE('',*,*,#94,.T.);
#506=ORIENTED_EDGE('',*,*,#118,.F.);
#507=ORIENTED_EDGE('',*,*,#134,.F.);
#508=CARTESIAN_POINT('',(0.0,0.0,-17.056));
#509=DIRECTION('',(-0.0,-0.0,1.0));
#510=DIRECTION('',(0.0,1.0,0.0));
#511=DIRECTION('',(1.22460554965654E-016,-0.999999343327071,-0.00114601283916462));
#512=CARTESIAN_POINT('',(0.0,0.0,-50.79));
#513=DIRECTION('',(0.0,0.0,-1.0));
#514=DIRECTION('',(0.0,-1.0,0.0));
#515=DIRECTION('',(-2.96514855645505E-022,2.42130750604053E-006,0.999999999997069));
#516=DIRECTION('',(-6.12303176911191E-017,0.500000000000002,0.866025403784438));
#517=CARTESIAN_POINT('',(0.0,0.0,-50.79));
#518=DIRECTION('',(0.0,0.0,-1.0));
#519=DIRECTION('',(0.0,-1.0,0.0));
#520=SURFACE_STYLE_FILL_AREA(#586);
#521=ORIENTED_EDGE('',*,*,#80,.T.);
#522=ORIENTED_EDGE('',*,*,#172,.T.);
#523=CARTESIAN_POINT('',(0.0,4.363,-92.09));
#524=DIRECTION('',(0.0,0.0,-1.0));
#525=DIRECTION('',(0.0,1.0,0.0));
#526=SURFACE_STYLE_FILL_AREA(#587);
#527=ORIENTED_EDGE('',*,*,#116,.F.);
#528=ORIENTED_EDGE('',*,*,#132,.F.);
#529=ORIENTED_EDGE('',*,*,#154,.F.);
#530=CARTESIAN_POINT('',(0.0,0.0,-50.795));
#531=DIRECTION('',(-0.0,-0.0,1.0));
#532=DIRECTION('',(0.0,1.0,0.0));
#533=SURFACE_STYLE_FILL_AREA(#588);
#534=ORIENTED_EDGE('',*,*,#166,.F.);
#535=ORIENTED_EDGE('',*,*,#168,.F.);
#536=CARTESIAN_POINT('',(0.0,2.94579194313172,0.0100000000000051));
#537=DIRECTION('',(-0.0,0.0,1.0));
#538=DIRECTION('',(0.0,-1.0,0.0));
#539=CARTESIAN_POINT('',(0.0,0.0,-50.79));
#540=DIRECTION('',(0.0,0.0,-1.0));
#541=DIRECTION('',(0.0,1.0,0.0));
#542=SURFACE_STYLE_FILL_AREA(#589);
#543=ORIENTED_EDGE('',*,*,#88,.T.);
#544=ORIENTED_EDGE('',*,*,#90,.F.);
#545=ORIENTED_EDGE('',*,*,#138,.T.);
#546=ORIENTED_EDGE('',*,*,#168,.T.);
#547=CARTESIAN_POINT('',(0.0,0.0,-0.386999999999993));
#548=DIRECTION('',(0.0,-0.0,-1.0));
#549=DIRECTION('',(0.0,1.0,0.0));
#550=SURFACE_STYLE_FILL_AREA(#590);
#551=ORIENTED_EDGE('',*,*,#122,.T.);
#552=ORIENTED_EDGE('',*,*,#144,.F.);
#553=ORIENTED_EDGE('',*,*,#118,.T.);
#554=ORIENTED_EDGE('',*,*,#90,.T.);
#555=CARTESIAN_POINT('',(0.0,0.0,-17.056));
#556=DIRECTION('',(-0.0,-0.0,1.0));
#557=DIRECTION('',(0.0,1.0,0.0));
#558=SURFACE_STYLE_FILL_AREA(#591);
#559=ORIENTED_EDGE('',*,*,#88,.F.);
#560=ORIENTED_EDGE('',*,*,#166,.T.);
#561=ORIENTED_EDGE('',*,*,#138,.F.);
#562=ORIENTED_EDGE('',*,*,#94,.F.);
#563=CARTESIAN_POINT('',(0.0,0.0,-0.386999999999993));
#564=DIRECTION('',(0.0,-0.0,-1.0));
#565=DIRECTION('',(0.0,1.0,0.0));
#566=CARTESIAN_POINT('',(0.0,0.0,0.0100000000000051));
#567=DIRECTION('',(0.0,0.0,-1.0));
#568=DIRECTION('',(0.0,1.0,0.0));
#569=CARTESIAN_POINT('',(0.0,0.0,0.0100000000000051));
#570=DIRECTION('',(0.0,0.0,-1.0));
#571=DIRECTION('',(0.0,1.0,0.0));
#572=CARTESIAN_POINT('',(0.0,0.0,-50.79));
#573=DIRECTION('',(0.0,0.0,-1.0));
#574=DIRECTION('',(0.0,1.0,0.0));
#575=CARTESIAN_POINT('',(0.0,0.0,-92.09));
#576=DIRECTION('',(0.0,0.0,-1.0));
#577=DIRECTION('',(0.0,1.0,0.0));
#578=FILL_AREA_STYLE('',(#592));
#579=FILL_AREA_STYLE('',(#593));
#580=FILL_AREA_STYLE('',(#594));
#581=FILL_AREA_STYLE('',(#595));
#582=FILL_AREA_STYLE('',(#596));
#583=FILL_AREA_STYLE('',(#597));
#584=FILL_AREA_STYLE('',(#598));
#585=FILL_AREA_STYLE('',(#599));
#586=FILL_AREA_STYLE('',(#600));
#587=FILL_AREA_STYLE('',(#601));
#588=FILL_AREA_STYLE('',(#602));
#589=FILL_AREA_STYLE('',(#603));
#590=FILL_AREA_STYLE('',(#604));
#591=FILL_AREA_STYLE('',(#605));
#592=FILL_AREA_STYLE_COLOUR('',#606);
#593=FILL_AREA_STYLE_COLOUR('',#607);
#594=FILL_AREA_STYLE_COLOUR('',#608);
#595=FILL_AREA_STYLE_COLOUR('',#609);
#596=FILL_AREA_STYLE_COLOUR('',#610);
#597=FILL_AREA_STYLE_COLOUR('',#611);
#598=FILL_AREA_STYLE_COLOUR('',#612);
#599=FILL_AREA_STYLE_COLOUR('',#613);
#600=FILL_AREA_STYLE_COLOUR('',#614);
#601=FILL_AREA_STYLE_COLOUR('',#615);
#602=FILL_AREA_STYLE_COLOUR('',#616);
#603=FILL_AREA_STYLE_COLOUR('',#617);
#604=FILL_AREA_STYLE_COLOUR('',#618);
#605=FILL_AREA_STYLE_COLOUR('',#619);
#606=COLOUR_RGB('',0.800000011920929,0.800000011920929,0.800000011920929);
#607=COLOUR_RGB('',0.800000011920929,0.800000011920929,0.800000011920929);
#608=COLOUR_RGB('',0.800000011920929,0.800000011920929,0.800000011920929);
#609=COLOUR_RGB('',0.800000011920929,0.800000011920929,0.800000011920929);
#610=COLOUR_RGB('',0.800000011920929,0.800000011920929,0.800000011920929);
#611=COLOUR_RGB('',0.800000011920929,0.800000011920929,0.800000011920929);
#612=COLOUR_RGB('',0.498039215803146,0.498039215803146,0.498039215803146);
#613=COLOUR_RGB('',0.498039215803146,0.498039215803146,0.498039215803146);
#614=COLOUR_RGB('',0.800000011920929,0.800000011920929,0.800000011920929);
#615=COLOUR_RGB('',0.800000011920929,0.800000011920929,0.800000011920929);
#616=COLOUR_RGB('',0.498039215803146,0.498039215803146,0.498039215803146);
#617=COLOUR_RGB('',0.498039215803146,0.498039215803146,0.498039215803146);
#618=COLOUR_RGB('',0.498039215803146,0.498039215803146,0.498039215803146);
#619=COLOUR_RGB('',0.498039215803146,0.498039215803146,0.498039215803146);
#620=AXIS2_PLACEMENT_3D('PCS',#621,#622,#623);
#621=CARTESIAN_POINT('',(0.0,0.0,0.0));
#622=DIRECTION('',(0.0,0.0,1.0));
#623=DIRECTION('',(1.0,0.0,0.0));
#624=AXIS2_PLACEMENT_3D('CIP',#625,#626,#627);
#625=CARTESIAN_POINT('',(0.0,0.0,-92.1));
#626=DIRECTION('',(0.0,0.0,1.0));
#627=DIRECTION('',(1.0,0.0,0.0));
#628=AXIS2_PLACEMENT_3D('CRP',#629,#630,#631);
#629=CARTESIAN_POINT('',(-8.731,0.0,-92.1));
#630=DIRECTION('',(0.0,0.0,1.0));
#631=DIRECTION('',(1.0,0.0,0.0));
#632=AXIS2_PLACEMENT_3D('MCS',#633,#634,#635);
#633=CARTESIAN_POINT('',(0.0,0.0,-33.338));
#634=DIRECTION('',(0.0,0.0,1.0));
#635=DIRECTION('',(1.0,0.0,0.0));
#636=CONSTRUCTIVE_GEOMETRY_REPRESENTATION_RELATIONSHIP('coordinate systems',$,#65,#637);
#637=CONSTRUCTIVE_GEOMETRY_REPRESENTATION('coordinate systems',(#620,#624,#628,#632),#10);
ENDSEC;
END-ISO-10303-21;
