ISO-10303-21;
HEADER;
FILE_DESCRIPTION(('no description'),'unknown implementation level');
FILE_NAME('solid9pRyjDRO_ygcaqyC7sGhoSdvvw4_1.STP','  ',('CIMSOURCE GmbH'),('CADClick - KiM GmbH - www.kimweb.de'),'unknown preprocess','ACIS','unknown authorization');
FILE_SCHEMA(('automotive_design'));
ENDSEC;
DATA;
#1=MECHANICAL_DESIGN_GEOMETRIC_PRESENTATION_REPRESENTATION(' ',(#14,#15,#16,#17,#18,#19,#20,#21,#22,#23,#24,#25,#26,#27,#28,#29,#30,#31,#32,#33,#34,#35,#36,#37,#38,#39,#40,#41,#42,#43,#44,#45,#46,#47,#48,#49,#50,#51,#52,#53,#54,#55,#56,#57,#58,#59,#60),#10);
#2=PRODUCT_DEFINITION_CONTEXT('',#61,'design');
#3=APPLICATION_PROTOCOL_DEFINITION('INTERNATIONAL STANDARD','automotive_design',1994,#61);
#4=PRODUCT_CATEGORY_RELATIONSHIP('NONE','NONE',#62,#63);
#5=SHAPE_DEFINITION_REPRESENTATION(#64,#65);
#6=PRODUCT_DEFINITION_CONTEXT('',#66,'design');
#7=APPLICATION_PROTOCOL_DEFINITION('INTERNATIONAL STANDARD','automotive_design',1994,#66);
#8=PRODUCT_CATEGORY_RELATIONSHIP('NONE','NONE',#67,#68);
#9=SHAPE_DEFINITION_REPRESENTATION(#69,#70);
#10= (GEOMETRIC_REPRESENTATION_CONTEXT(3)GLOBAL_UNCERTAINTY_ASSIGNED_CONTEXT((#73))GLOBAL_UNIT_ASSIGNED_CONTEXT((#75,#76,#77))REPRESENTATION_CONTEXT('NONE','WORKSPACE'));
#14=STYLED_ITEM('',(#79),#80);
#15=STYLED_ITEM('',(#81),#82);
#16=STYLED_ITEM('',(#83),#84);
#17=STYLED_ITEM('',(#85),#86);
#18=STYLED_ITEM('',(#87),#88);
#19=STYLED_ITEM('',(#89),#90);
#20=STYLED_ITEM('',(#91),#92);
#21=STYLED_ITEM('',(#93),#94);
#22=STYLED_ITEM('',(#95),#96);
#23=STYLED_ITEM('',(#97),#98);
#24=STYLED_ITEM('',(#99),#100);
#25=STYLED_ITEM('',(#101),#102);
#26=STYLED_ITEM('',(#103),#104);
#27=STYLED_ITEM('',(#105),#106);
#28=STYLED_ITEM('',(#107),#108);
#29=STYLED_ITEM('',(#109),#110);
#30=STYLED_ITEM('',(#111),#112);
#31=STYLED_ITEM('',(#113),#114);
#32=STYLED_ITEM('',(#115),#116);
#33=STYLED_ITEM('',(#117),#118);
#34=STYLED_ITEM('',(#119),#120);
#35=STYLED_ITEM('',(#121),#122);
#36=STYLED_ITEM('',(#123),#124);
#37=STYLED_ITEM('',(#125),#126);
#38=STYLED_ITEM('',(#127),#128);
#39=STYLED_ITEM('',(#129),#130);
#40=STYLED_ITEM('',(#131),#132);
#41=STYLED_ITEM('',(#133),#134);
#42=STYLED_ITEM('',(#135),#136);
#43=STYLED_ITEM('',(#137),#138);
#44=STYLED_ITEM('',(#139),#140);
#45=STYLED_ITEM('',(#141),#142);
#46=STYLED_ITEM('',(#143),#144);
#47=STYLED_ITEM('',(#145),#146);
#48=STYLED_ITEM('',(#147),#148);
#49=STYLED_ITEM('',(#149),#150);
#50=STYLED_ITEM('',(#151),#152);
#51=STYLED_ITEM('',(#153),#154);
#52=STYLED_ITEM('',(#155),#156);
#53=STYLED_ITEM('',(#157),#158);
#54=STYLED_ITEM('',(#159),#160);
#55=STYLED_ITEM('',(#161),#162);
#56=STYLED_ITEM('',(#163),#164);
#57=STYLED_ITEM('',(#165),#166);
#58=STYLED_ITEM('',(#167),#168);
#59=STYLED_ITEM('',(#169),#170);
#60=STYLED_ITEM('',(#171),#172);
#61=APPLICATION_CONTEXT(' ');
#62=PRODUCT_CATEGORY('part','NONE');
#63=PRODUCT_RELATED_PRODUCT_CATEGORY('detail',' ',(#173));
#64=PRODUCT_DEFINITION_SHAPE('NONE','NONE',#174);
#65=ADVANCED_BREP_SHAPE_REPRESENTATION('1',(#86,#175),#10);
#66=APPLICATION_CONTEXT(' ');
#67=PRODUCT_CATEGORY('part','NONE');
#68=PRODUCT_RELATED_PRODUCT_CATEGORY('detail',' ',(#176));
#69=PRODUCT_DEFINITION_SHAPE('NONE','NONE',#177);
#70=ADVANCED_BREP_SHAPE_REPRESENTATION('2',(#104,#178),#10);
#73=UNCERTAINTY_MEASURE_WITH_UNIT(LENGTH_MEASURE(1.0E-006),#75,'','');
#75= (CONVERSION_BASED_UNIT('MILLIMETRE',#181)LENGTH_UNIT()NAMED_UNIT(#184));
#76= (NAMED_UNIT(#186)PLANE_ANGLE_UNIT()SI_UNIT($,.RADIAN.));
#77= (NAMED_UNIT(#186)SOLID_ANGLE_UNIT()SI_UNIT($,.STERADIAN.));
#79=PRESENTATION_STYLE_ASSIGNMENT((#192));
#80=ADVANCED_FACE('',(#193,#194),#195,.T.);
#81=PRESENTATION_STYLE_ASSIGNMENT((#196));
#82=ADVANCED_FACE('',(#197),#198,.T.);
#83=PRESENTATION_STYLE_ASSIGNMENT((#199));
#84=ADVANCED_FACE('',(#200),#201,.T.);
#85=PRESENTATION_STYLE_ASSIGNMENT((#202));
#86=MANIFOLD_SOLID_BREP('1',#203);
#87=PRESENTATION_STYLE_ASSIGNMENT((#204));
#88=ADVANCED_FACE('',(#205),#206,.T.);
#89=PRESENTATION_STYLE_ASSIGNMENT((#207));
#90=EDGE_CURVE('',#108,#136,#208,.T.);
#91=PRESENTATION_STYLE_ASSIGNMENT((#209));
#92=EDGE_CURVE('',#136,#108,#210,.T.);
#93=PRESENTATION_STYLE_ASSIGNMENT((#211));
#94=ADVANCED_FACE('',(#212),#213,.T.);
#95=PRESENTATION_STYLE_ASSIGNMENT((#214));
#96=EDGE_CURVE('',#110,#122,#215,.T.);
#97=PRESENTATION_STYLE_ASSIGNMENT((#216));
#98=EDGE_CURVE('',#140,#142,#217,.T.);
#99=PRESENTATION_STYLE_ASSIGNMENT((#218));
#100=EDGE_CURVE('',#118,#130,#219,.T.);
#101=PRESENTATION_STYLE_ASSIGNMENT((#220));
#102=EDGE_CURVE('',#166,#122,#221,.T.);
#103=PRESENTATION_STYLE_ASSIGNMENT((#222));
#104=MANIFOLD_SOLID_BREP('2',#223);
#105=PRESENTATION_STYLE_ASSIGNMENT((#224));
#106=EDGE_CURVE('',#164,#142,#225,.T.);
#107=PRESENTATION_STYLE_ASSIGNMENT((#226));
#108=VERTEX_POINT('',#227);
#109=PRESENTATION_STYLE_ASSIGNMENT((#228));
#110=VERTEX_POINT('',#229);
#111=PRESENTATION_STYLE_ASSIGNMENT((#230));
#112=ADVANCED_FACE('',(#231),#232,.F.);
#113=PRESENTATION_STYLE_ASSIGNMENT((#233));
#114=EDGE_CURVE('',#144,#140,#234,.T.);
#115=PRESENTATION_STYLE_ASSIGNMENT((#235));
#116=ADVANCED_FACE('',(#236),#237,.T.);
#117=PRESENTATION_STYLE_ASSIGNMENT((#238));
#118=VERTEX_POINT('',#239);
#119=PRESENTATION_STYLE_ASSIGNMENT((#240));
#120=EDGE_CURVE('',#130,#154,#241,.T.);
#121=PRESENTATION_STYLE_ASSIGNMENT((#242));
#122=VERTEX_POINT('',#243);
#123=PRESENTATION_STYLE_ASSIGNMENT((#244));
#124=EDGE_CURVE('',#164,#144,#245,.T.);
#125=PRESENTATION_STYLE_ASSIGNMENT((#246));
#126=ADVANCED_FACE('',(#247),#248,.T.);
#127=PRESENTATION_STYLE_ASSIGNMENT((#249));
#128=ADVANCED_FACE('',(#250),#251,.T.);
#129=PRESENTATION_STYLE_ASSIGNMENT((#252));
#130=VERTEX_POINT('',#253);
#131=PRESENTATION_STYLE_ASSIGNMENT((#254));
#132=EDGE_CURVE('',#154,#118,#255,.T.);
#133=PRESENTATION_STYLE_ASSIGNMENT((#256));
#134=VERTEX_POINT('',#257);
#135=PRESENTATION_STYLE_ASSIGNMENT((#258));
#136=VERTEX_POINT('',#259);
#137=PRESENTATION_STYLE_ASSIGNMENT((#260));
#138=EDGE_CURVE('',#122,#110,#261,.T.);
#139=PRESENTATION_STYLE_ASSIGNMENT((#262));
#140=VERTEX_POINT('',#263);
#141=PRESENTATION_STYLE_ASSIGNMENT((#264));
#142=VERTEX_POINT('',#265);
#143=PRESENTATION_STYLE_ASSIGNMENT((#266));
#144=VERTEX_POINT('',#267);
#145=PRESENTATION_STYLE_ASSIGNMENT((#268));
#146=EDGE_CURVE('',#118,#154,#269,.T.);
#147=PRESENTATION_STYLE_ASSIGNMENT((#270));
#148=EDGE_CURVE('',#134,#108,#271,.T.);
#149=PRESENTATION_STYLE_ASSIGNMENT((#272));
#150=EDGE_CURVE('',#134,#166,#273,.T.);
#151=PRESENTATION_STYLE_ASSIGNMENT((#274));
#152=ADVANCED_FACE('',(#275),#276,.F.);
#153=PRESENTATION_STYLE_ASSIGNMENT((#277));
#154=VERTEX_POINT('',#278);
#155=PRESENTATION_STYLE_ASSIGNMENT((#279));
#156=EDGE_CURVE('',#136,#166,#280,.T.);
#157=PRESENTATION_STYLE_ASSIGNMENT((#281));
#158=ADVANCED_FACE('',(#282),#283,.T.);
#159=PRESENTATION_STYLE_ASSIGNMENT((#284));
#160=EDGE_CURVE('',#140,#144,#285,.T.);
#161=PRESENTATION_STYLE_ASSIGNMENT((#286));
#162=EDGE_CURVE('',#142,#164,#287,.T.);
#163=PRESENTATION_STYLE_ASSIGNMENT((#288));
#164=VERTEX_POINT('',#289);
#165=PRESENTATION_STYLE_ASSIGNMENT((#290));
#166=VERTEX_POINT('',#291);
#167=PRESENTATION_STYLE_ASSIGNMENT((#292));
#168=ADVANCED_FACE('',(#293),#294,.T.);
#169=PRESENTATION_STYLE_ASSIGNMENT((#295));
#170=EDGE_CURVE('',#166,#134,#296,.T.);
#171=PRESENTATION_STYLE_ASSIGNMENT((#297));
#172=EDGE_CURVE('',#110,#134,#298,.T.);
#173=PRODUCT('1','1','PART-1-DESC',(#299));
#174=PRODUCT_DEFINITION('NONE','NONE',#300,#2);
#175=AXIS2_PLACEMENT_3D('',#301,#302,#303);
#176=PRODUCT('2','2','PART-2-DESC',(#304));
#177=PRODUCT_DEFINITION('NONE','NONE',#305,#6);
#178=AXIS2_PLACEMENT_3D('',#306,#307,#308);
#181=LENGTH_MEASURE_WITH_UNIT(LENGTH_MEASURE(1.0),#309);
#184=DIMENSIONAL_EXPONENTS(1.0,0.0,0.0,0.0,0.0,0.0,0.0);
#186=DIMENSIONAL_EXPONENTS(0.0,0.0,0.0,0.0,0.0,0.0,0.0);
#192=SURFACE_STYLE_USAGE(.BOTH.,#310);
#193=FACE_OUTER_BOUND('',#311,.T.);
#194=FACE_BOUND('',#312,.T.);
#195=PLANE('',#313);
#196=SURFACE_STYLE_USAGE(.BOTH.,#314);
#197=FACE_OUTER_BOUND('',#315,.T.);
#198=CONICAL_SURFACE('',#316,9.12795,2.42130750604289E-006);
#199=SURFACE_STYLE_USAGE(.BOTH.,#317);
#200=FACE_OUTER_BOUND('',#318,.T.);
#201=CONICAL_SURFACE('',#319,6.12079194313172,0.523598775598299);
#202=SURFACE_STYLE_USAGE(.BOTH.,#320);
#203=CLOSED_SHELL('',(#82,#112,#152,#80,#116,#126));
#204=SURFACE_STYLE_USAGE(.BOTH.,#321);
#205=FACE_OUTER_BOUND('',#322,.T.);
#206=CYLINDRICAL_SURFACE('',#323,6.35);
#207=CURVE_STYLE('',#324,POSITIVE_LENGTH_MEASURE(1.0E-006),#325);
#208=CIRCLE('',#326,6.35);
#209=CURVE_STYLE('',#327,POSITIVE_LENGTH_MEASURE(1.0E-006),#328);
#210=CIRCLE('',#329,6.35);
#211=SURFACE_STYLE_USAGE(.BOTH.,#330);
#212=FACE_OUTER_BOUND('',#331,.T.);
#213=PLANE('',#332);
#214=CURVE_STYLE('',#333,POSITIVE_LENGTH_MEASURE(1.0E-006),#334);
#215=CIRCLE('',#335,5.89158388626344);
#216=CURVE_STYLE('',#336,POSITIVE_LENGTH_MEASURE(1.0E-006),#337);
#217=LINE('',#338,#339);
#218=CURVE_STYLE('',#340,POSITIVE_LENGTH_MEASURE(1.0E-006),#341);
#219=LINE('',#342,#343);
#220=CURVE_STYLE('',#344,POSITIVE_LENGTH_MEASURE(1.0E-006),#345);
#221=LINE('',#346,#347);
#222=SURFACE_STYLE_USAGE(.BOTH.,#348);
#223=CLOSED_SHELL('',(#88,#84,#94,#128,#158,#168));
#224=CURVE_STYLE('',#349,POSITIVE_LENGTH_MEASURE(1.0E-006),#350);
#225=CIRCLE('',#351,9.128);
#226=POINT_STYLE(' ',#352,POSITIVE_LENGTH_MEASURE(1.0E-006),#353);
#227=CARTESIAN_POINT('',(-7.7762503467721E-016,6.35,-50.79));
#228=POINT_STYLE(' ',#354,POSITIVE_LENGTH_MEASURE(1.0E-006),#355);
#229=CARTESIAN_POINT('',(0.0,5.89158388626344,0.00999999999999801));
#230=SURFACE_STYLE_USAGE(.BOTH.,#356);
#231=FACE_OUTER_BOUND('',#357,.T.);
#232=CONICAL_SURFACE('',#358,4.56145,1.56970018455998);
#233=CURVE_STYLE('',#359,POSITIVE_LENGTH_MEASURE(1.0E-006),#360);
#234=CIRCLE('',#361,9.1279);
#235=SURFACE_STYLE_USAGE(.BOTH.,#362);
#236=FACE_OUTER_BOUND('',#363,.T.);
#237=CONICAL_SURFACE('',#364,9.12795,2.42130750604289E-006);
#238=POINT_STYLE(' ',#365,POSITIVE_LENGTH_MEASURE(1.0E-006),#366);
#239=CARTESIAN_POINT('',(0.0,9.1229,-50.79));
#240=CURVE_STYLE('',#367,POSITIVE_LENGTH_MEASURE(1.0E-006),#368);
#241=LINE('',#369,#370);
#242=POINT_STYLE(' ',#371,POSITIVE_LENGTH_MEASURE(1.0E-006),#372);
#243=CARTESIAN_POINT('',(7.21487106119574E-016,-5.89158388626344,0.00999999999999801));
#244=CURVE_STYLE('',#373,POSITIVE_LENGTH_MEASURE(1.0E-006),#374);
#245=LINE('',#375,#376);
#246=SURFACE_STYLE_USAGE(.BOTH.,#377);
#247=FACE_OUTER_BOUND('',#378,.T.);
#248=PLANE('',#379);
#249=SURFACE_STYLE_USAGE(.BOTH.,#380);
#250=FACE_OUTER_BOUND('',#381,.T.);
#251=PLANE('',#382);
#252=POINT_STYLE(' ',#383,POSITIVE_LENGTH_MEASURE(1.0E-006),#384);
#253=CARTESIAN_POINT('',(0.0,0.0,-50.8));
#254=CURVE_STYLE('',#385,POSITIVE_LENGTH_MEASURE(1.0E-006),#386);
#255=CIRCLE('',#387,9.1229);
#256=POINT_STYLE(' ',#388,POSITIVE_LENGTH_MEASURE(1.0E-006),#389);
#257=CARTESIAN_POINT('',(0.0,6.35,-0.784000000000002));
#258=POINT_STYLE(' ',#390,POSITIVE_LENGTH_MEASURE(1.0E-006),#391);
#259=CARTESIAN_POINT('',(0.0,-6.35,-50.79));
#260=CURVE_STYLE('',#392,POSITIVE_LENGTH_MEASURE(1.0E-006),#393);
#261=CIRCLE('',#394,5.89158388626344);
#262=POINT_STYLE(' ',#395,POSITIVE_LENGTH_MEASURE(1.0E-006),#396);
#263=CARTESIAN_POINT('',(0.0,9.1279,-50.79));
#264=POINT_STYLE(' ',#397,POSITIVE_LENGTH_MEASURE(1.0E-006),#398);
#265=CARTESIAN_POINT('',(0.0,9.128,-92.09));
#266=POINT_STYLE(' ',#399,POSITIVE_LENGTH_MEASURE(1.0E-006),#400);
#267=CARTESIAN_POINT('',(1.11780843370553E-015,-9.1279,-50.79));
#268=CURVE_STYLE('',#401,POSITIVE_LENGTH_MEASURE(1.0E-006),#402);
#269=CIRCLE('',#403,9.1229);
#270=CURVE_STYLE('',#404,POSITIVE_LENGTH_MEASURE(1.0E-006),#405);
#271=LINE('',#406,#407);
#272=CURVE_STYLE('',#408,POSITIVE_LENGTH_MEASURE(1.0E-006),#409);
#273=CIRCLE('',#410,6.35);
#274=SURFACE_STYLE_USAGE(.BOTH.,#411);
#275=FACE_OUTER_BOUND('',#412,.T.);
#276=CONICAL_SURFACE('',#413,4.56145,1.56970018455998);
#277=POINT_STYLE(' ',#414,POSITIVE_LENGTH_MEASURE(1.0E-006),#415);
#278=CARTESIAN_POINT('',(1.11719613052862E-015,-9.1229,-50.79));
#279=CURVE_STYLE('',#416,POSITIVE_LENGTH_MEASURE(1.0E-006),#417);
#280=LINE('',#418,#419);
#281=SURFACE_STYLE_USAGE(.BOTH.,#420);
#282=FACE_OUTER_BOUND('',#421,.T.);
#283=CONICAL_SURFACE('',#422,6.12079194313172,0.523598775598299);
#284=CURVE_STYLE('',#423,POSITIVE_LENGTH_MEASURE(1.0E-006),#424);
#285=CIRCLE('',#425,9.1279);
#286=CURVE_STYLE('',#426,POSITIVE_LENGTH_MEASURE(1.0E-006),#427);
#287=CIRCLE('',#428,9.128);
#288=POINT_STYLE(' ',#429,POSITIVE_LENGTH_MEASURE(1.0E-006),#430);
#289=CARTESIAN_POINT('',(1.11782067976907E-015,-9.128,-92.09));
#290=POINT_STYLE(' ',#431,POSITIVE_LENGTH_MEASURE(1.0E-006),#432);
#291=CARTESIAN_POINT('',(7.7762503467721E-016,-6.35,-0.784000000000002));
#292=SURFACE_STYLE_USAGE(.BOTH.,#433);
#293=FACE_OUTER_BOUND('',#434,.T.);
#294=CYLINDRICAL_SURFACE('',#435,6.35);
#295=CURVE_STYLE('',#436,POSITIVE_LENGTH_MEASURE(1.0E-006),#437);
#296=CIRCLE('',#438,6.35);
#297=CURVE_STYLE('',#439,POSITIVE_LENGTH_MEASURE(1.0E-006),#440);
#298=LINE('',#441,#442);
#299=PRODUCT_CONTEXT('',#61,'mechanical');
#300=PRODUCT_DEFINITION_FORMATION_WITH_SPECIFIED_SOURCE(' ','NONE',#173,.NOT_KNOWN.);
#301=CARTESIAN_POINT('',(0.0,0.0,0.0));
#302=DIRECTION('',(0.0,0.0,1.0));
#303=DIRECTION('',(1.0,0.0,0.0));
#304=PRODUCT_CONTEXT('',#66,'mechanical');
#305=PRODUCT_DEFINITION_FORMATION_WITH_SPECIFIED_SOURCE(' ','NONE',#176,.NOT_KNOWN.);
#306=CARTESIAN_POINT('',(0.0,0.0,0.0));
#307=DIRECTION('',(0.0,0.0,1.0));
#308=DIRECTION('',(1.0,0.0,0.0));
#309= (NAMED_UNIT(#184)LENGTH_UNIT()SI_UNIT(.MILLI.,.METRE.));
#310=SURFACE_SIDE_STYLE('',(#444));
#311=EDGE_LOOP('',(#445,#446));
#312=EDGE_LOOP('',(#447,#448));
#313=AXIS2_PLACEMENT_3D('',#449,#450,#451);
#314=SURFACE_SIDE_STYLE('',(#452));
#315=EDGE_LOOP('',(#453,#454,#455,#456));
#316=AXIS2_PLACEMENT_3D('',#457,#458,#459);
#317=SURFACE_SIDE_STYLE('',(#460));
#318=EDGE_LOOP('',(#461,#462,#463,#464));
#319=AXIS2_PLACEMENT_3D('',#465,#466,#467);
#320=SURFACE_SIDE_STYLE('',(#468));
#321=SURFACE_SIDE_STYLE('',(#469));
#322=EDGE_LOOP('',(#470,#471,#472,#473));
#323=AXIS2_PLACEMENT_3D('',#474,#475,#476);
#324=DRAUGHTING_PRE_DEFINED_CURVE_FONT('continuous');
#325=COLOUR_RGB('',0.498039215803146,0.498039215803146,0.498039215803146);
#326=AXIS2_PLACEMENT_3D('',#477,#478,#479);
#327=DRAUGHTING_PRE_DEFINED_CURVE_FONT('continuous');
#328=COLOUR_RGB('',0.498039215803146,0.498039215803146,0.498039215803146);
#329=AXIS2_PLACEMENT_3D('',#480,#481,#482);
#330=SURFACE_SIDE_STYLE('',(#483));
#331=EDGE_LOOP('',(#484,#485));
#332=AXIS2_PLACEMENT_3D('',#486,#487,#488);
#333=DRAUGHTING_PRE_DEFINED_CURVE_FONT('continuous');
#334=COLOUR_RGB('',0.498039215803146,0.498039215803146,0.498039215803146);
#335=AXIS2_PLACEMENT_3D('',#489,#490,#491);
#336=DRAUGHTING_PRE_DEFINED_CURVE_FONT('continuous');
#337=COLOUR_RGB('',0.800000011920929,0.800000011920929,0.800000011920929);
#338=CARTESIAN_POINT('',(-1.1178145567373E-015,9.12795,-71.44));
#339=VECTOR('',#492,1.0);
#340=DRAUGHTING_PRE_DEFINED_CURVE_FONT('continuous');
#341=COLOUR_RGB('',0.800000011920929,0.800000011920929,0.800000011920929);
#342=CARTESIAN_POINT('',(-5.58598065264308E-016,4.56145,-50.795));
#343=VECTOR('',#493,1.0);
#344=DRAUGHTING_PRE_DEFINED_CURVE_FONT('continuous');
#345=COLOUR_RGB('',0.498039215803146,0.498039215803146,0.498039215803146);
#346=CARTESIAN_POINT('',(7.49556070398392E-016,-6.12079194313172,-0.387));
#347=VECTOR('',#494,1.0);
#348=SURFACE_SIDE_STYLE('',(#495));
#349=DRAUGHTING_PRE_DEFINED_CURVE_FONT('continuous');
#350=COLOUR_RGB('',0.800000011920929,0.800000011920929,0.800000011920929);
#351=AXIS2_PLACEMENT_3D('',#496,#497,#498);
#352=PRE_DEFINED_MARKER('');
#353=COLOUR_RGB('',0.498039215803146,0.498039215803146,0.498039215803146);
#354=PRE_DEFINED_MARKER('');
#355=COLOUR_RGB('',0.498039215803146,0.498039215803146,0.498039215803146);
#356=SURFACE_SIDE_STYLE('',(#499));
#357=EDGE_LOOP('',(#500,#501,#502));
#358=AXIS2_PLACEMENT_3D('',#503,#504,#505);
#359=DRAUGHTING_PRE_DEFINED_CURVE_FONT('continuous');
#360=COLOUR_RGB('',0.800000011920929,0.800000011920929,0.800000011920929);
#361=AXIS2_PLACEMENT_3D('',#506,#507,#508);
#362=SURFACE_SIDE_STYLE('',(#509));
#363=EDGE_LOOP('',(#510,#511,#512,#513));
#364=AXIS2_PLACEMENT_3D('',#514,#515,#516);
#365=PRE_DEFINED_MARKER('');
#366=COLOUR_RGB('',0.800000011920929,0.800000011920929,0.800000011920929);
#367=DRAUGHTING_PRE_DEFINED_CURVE_FONT('continuous');
#368=COLOUR_RGB('',0.800000011920929,0.800000011920929,0.800000011920929);
#369=CARTESIAN_POINT('',(5.58598065264308E-016,-4.56145,-50.795));
#370=VECTOR('',#517,1.0);
#371=PRE_DEFINED_MARKER('');
#372=COLOUR_RGB('',0.498039215803146,0.498039215803146,0.498039215803146);
#373=DRAUGHTING_PRE_DEFINED_CURVE_FONT('continuous');
#374=COLOUR_RGB('',0.800000011920929,0.800000011920929,0.800000011920929);
#375=CARTESIAN_POINT('',(1.1178145567373E-015,-9.12795,-71.44));
#376=VECTOR('',#518,1.0);
#377=SURFACE_SIDE_STYLE('',(#519));
#378=EDGE_LOOP('',(#520,#521));
#379=AXIS2_PLACEMENT_3D('',#522,#523,#524);
#380=SURFACE_SIDE_STYLE('',(#525));
#381=EDGE_LOOP('',(#526,#527));
#382=AXIS2_PLACEMENT_3D('',#528,#529,#530);
#383=PRE_DEFINED_MARKER('');
#384=COLOUR_RGB('',0.800000011920929,0.800000011920929,0.800000011920929);
#385=DRAUGHTING_PRE_DEFINED_CURVE_FONT('continuous');
#386=COLOUR_RGB('',0.800000011920929,0.800000011920929,0.800000011920929);
#387=AXIS2_PLACEMENT_3D('',#531,#532,#533);
#388=PRE_DEFINED_MARKER('');
#389=COLOUR_RGB('',0.498039215803146,0.498039215803146,0.498039215803146);
#390=PRE_DEFINED_MARKER('');
#391=COLOUR_RGB('',0.498039215803146,0.498039215803146,0.498039215803146);
#392=DRAUGHTING_PRE_DEFINED_CURVE_FONT('continuous');
#393=COLOUR_RGB('',0.498039215803146,0.498039215803146,0.498039215803146);
#394=AXIS2_PLACEMENT_3D('',#534,#535,#536);
#395=PRE_DEFINED_MARKER('');
#396=COLOUR_RGB('',0.800000011920929,0.800000011920929,0.800000011920929);
#397=PRE_DEFINED_MARKER('');
#398=COLOUR_RGB('',0.800000011920929,0.800000011920929,0.800000011920929);
#399=PRE_DEFINED_MARKER('');
#400=COLOUR_RGB('',0.800000011920929,0.800000011920929,0.800000011920929);
#401=DRAUGHTING_PRE_DEFINED_CURVE_FONT('continuous');
#402=COLOUR_RGB('',0.800000011920929,0.800000011920929,0.800000011920929);
#403=AXIS2_PLACEMENT_3D('',#537,#538,#539);
#404=DRAUGHTING_PRE_DEFINED_CURVE_FONT('continuous');
#405=COLOUR_RGB('',0.498039215803146,0.498039215803146,0.498039215803146);
#406=CARTESIAN_POINT('',(-7.7762503467721E-016,6.35,-16.659));
#407=VECTOR('',#540,1.0);
#408=DRAUGHTING_PRE_DEFINED_CURVE_FONT('continuous');
#409=COLOUR_RGB('',0.498039215803146,0.498039215803146,0.498039215803146);
#410=AXIS2_PLACEMENT_3D('',#541,#542,#543);
#411=SURFACE_SIDE_STYLE('',(#544));
#412=EDGE_LOOP('',(#545,#546,#547));
#413=AXIS2_PLACEMENT_3D('',#548,#549,#550);
#414=PRE_DEFINED_MARKER('');
#415=COLOUR_RGB('',0.800000011920929,0.800000011920929,0.800000011920929);
#416=DRAUGHTING_PRE_DEFINED_CURVE_FONT('continuous');
#417=COLOUR_RGB('',0.498039215803146,0.498039215803146,0.498039215803146);
#418=CARTESIAN_POINT('',(7.7762503467721E-016,-6.35,-16.659));
#419=VECTOR('',#551,1.0);
#420=SURFACE_SIDE_STYLE('',(#552));
#421=EDGE_LOOP('',(#553,#554,#555,#556));
#422=AXIS2_PLACEMENT_3D('',#557,#558,#559);
#423=DRAUGHTING_PRE_DEFINED_CURVE_FONT('continuous');
#424=COLOUR_RGB('',0.800000011920929,0.800000011920929,0.800000011920929);
#425=AXIS2_PLACEMENT_3D('',#560,#561,#562);
#426=DRAUGHTING_PRE_DEFINED_CURVE_FONT('continuous');
#427=COLOUR_RGB('',0.800000011920929,0.800000011920929,0.800000011920929);
#428=AXIS2_PLACEMENT_3D('',#563,#564,#565);
#429=PRE_DEFINED_MARKER('');
#430=COLOUR_RGB('',0.800000011920929,0.800000011920929,0.800000011920929);
#431=PRE_DEFINED_MARKER('');
#432=COLOUR_RGB('',0.498039215803146,0.498039215803146,0.498039215803146);
#433=SURFACE_SIDE_STYLE('',(#566));
#434=EDGE_LOOP('',(#567,#568,#569,#570));
#435=AXIS2_PLACEMENT_3D('',#571,#572,#573);
#436=DRAUGHTING_PRE_DEFINED_CURVE_FONT('continuous');
#437=COLOUR_RGB('',0.498039215803146,0.498039215803146,0.498039215803146);
#438=AXIS2_PLACEMENT_3D('',#574,#575,#576);
#439=DRAUGHTING_PRE_DEFINED_CURVE_FONT('continuous');
#440=COLOUR_RGB('',0.498039215803146,0.498039215803146,0.498039215803146);
#441=CARTESIAN_POINT('',(-7.49556070398392E-016,6.12079194313172,-0.387));
#442=VECTOR('',#577,1.0);
#444=SURFACE_STYLE_FILL_AREA(#578);
#445=ORIENTED_EDGE('',*,*,#160,.F.);
#446=ORIENTED_EDGE('',*,*,#114,.F.);
#447=ORIENTED_EDGE('',*,*,#146,.T.);
#448=ORIENTED_EDGE('',*,*,#132,.T.);
#449=CARTESIAN_POINT('',(0.0,9.1254,-50.79));
#450=DIRECTION('',(-0.0,0.0,1.0));
#451=DIRECTION('',(0.0,-1.0,0.0));
#452=SURFACE_STYLE_FILL_AREA(#579);
#453=ORIENTED_EDGE('',*,*,#98,.F.);
#454=ORIENTED_EDGE('',*,*,#160,.T.);
#455=ORIENTED_EDGE('',*,*,#124,.F.);
#456=ORIENTED_EDGE('',*,*,#162,.F.);
#457=CARTESIAN_POINT('',(0.0,0.0,-71.44));
#458=DIRECTION('',(0.0,-0.0,-1.0));
#459=DIRECTION('',(0.0,1.0,0.0));
#460=SURFACE_STYLE_FILL_AREA(#580);
#461=ORIENTED_EDGE('',*,*,#172,.F.);
#462=ORIENTED_EDGE('',*,*,#96,.T.);
#463=ORIENTED_EDGE('',*,*,#102,.F.);
#464=ORIENTED_EDGE('',*,*,#150,.F.);
#465=CARTESIAN_POINT('',(0.0,0.0,-0.387));
#466=DIRECTION('',(0.0,-0.0,-1.0));
#467=DIRECTION('',(0.0,1.0,0.0));
#468=SURFACE_STYLE_FILL_AREA(#581);
#469=SURFACE_STYLE_FILL_AREA(#582);
#470=ORIENTED_EDGE('',*,*,#148,.F.);
#471=ORIENTED_EDGE('',*,*,#150,.T.);
#472=ORIENTED_EDGE('',*,*,#156,.F.);
#473=ORIENTED_EDGE('',*,*,#90,.F.);
#474=CARTESIAN_POINT('',(0.0,0.0,-16.659));
#475=DIRECTION('',(-0.0,-0.0,1.0));
#476=DIRECTION('',(0.0,1.0,0.0));
#477=CARTESIAN_POINT('',(0.0,0.0,-50.79));
#478=DIRECTION('',(0.0,0.0,-1.0));
#479=DIRECTION('',(0.0,-1.0,0.0));
#480=CARTESIAN_POINT('',(0.0,0.0,-50.79));
#481=DIRECTION('',(0.0,0.0,-1.0));
#482=DIRECTION('',(0.0,-1.0,0.0));
#483=SURFACE_STYLE_FILL_AREA(#583);
#484=ORIENTED_EDGE('',*,*,#92,.T.);
#485=ORIENTED_EDGE('',*,*,#90,.T.);
#486=CARTESIAN_POINT('',(0.0,0.0,-50.79));
#487=DIRECTION('',(0.0,0.0,-1.0));
#488=DIRECTION('',(0.0,-1.0,0.0));
#489=CARTESIAN_POINT('',(0.0,0.0,0.00999999999999801));
#490=DIRECTION('',(0.0,0.0,-1.0));
#491=DIRECTION('',(0.0,1.0,0.0));
#492=DIRECTION('',(-2.96514855645504E-022,2.42130750604053E-006,-0.999999999997069));
#493=DIRECTION('',(1.22460561812316E-016,-0.999999399236161,-0.00109614201540701));
#494=DIRECTION('',(-6.12303176911189E-017,0.5,0.866025403784439));
#495=SURFACE_STYLE_FILL_AREA(#584);
#496=CARTESIAN_POINT('',(0.0,0.0,-92.09));
#497=DIRECTION('',(0.0,0.0,-1.0));
#498=DIRECTION('',(0.0,1.0,0.0));
#499=SURFACE_STYLE_FILL_AREA(#585);
#500=ORIENTED_EDGE('',*,*,#120,.F.);
#501=ORIENTED_EDGE('',*,*,#100,.F.);
#502=ORIENTED_EDGE('',*,*,#132,.F.);
#503=CARTESIAN_POINT('',(0.0,0.0,-50.795));
#504=DIRECTION('',(-0.0,-0.0,1.0));
#505=DIRECTION('',(0.0,1.0,0.0));
#506=CARTESIAN_POINT('',(0.0,0.0,-50.79));
#507=DIRECTION('',(0.0,0.0,-1.0));
#508=DIRECTION('',(0.0,1.0,0.0));
#509=SURFACE_STYLE_FILL_AREA(#586);
#510=ORIENTED_EDGE('',*,*,#98,.T.);
#511=ORIENTED_EDGE('',*,*,#106,.F.);
#512=ORIENTED_EDGE('',*,*,#124,.T.);
#513=ORIENTED_EDGE('',*,*,#114,.T.);
#514=CARTESIAN_POINT('',(0.0,0.0,-71.44));
#515=DIRECTION('',(0.0,-0.0,-1.0));
#516=DIRECTION('',(0.0,1.0,0.0));
#517=DIRECTION('',(1.22460561812316E-016,-0.999999399236161,0.00109614201540701));
#518=DIRECTION('',(-2.96514855645504E-022,2.42130750604053E-006,0.999999999997069));
#519=SURFACE_STYLE_FILL_AREA(#587);
#520=ORIENTED_EDGE('',*,*,#162,.T.);
#521=ORIENTED_EDGE('',*,*,#106,.T.);
#522=CARTESIAN_POINT('',(0.0,4.5615,-92.09));
#523=DIRECTION('',(0.0,0.0,-1.0));
#524=DIRECTION('',(0.0,1.0,0.0));
#525=SURFACE_STYLE_FILL_AREA(#588);
#526=ORIENTED_EDGE('',*,*,#96,.F.);
#527=ORIENTED_EDGE('',*,*,#138,.F.);
#528=CARTESIAN_POINT('',(0.0,2.94579194313172,0.00999999999999801));
#529=DIRECTION('',(-0.0,0.0,1.0));
#530=DIRECTION('',(0.0,-1.0,0.0));
#531=CARTESIAN_POINT('',(0.0,0.0,-50.79));
#532=DIRECTION('',(0.0,0.0,-1.0));
#533=DIRECTION('',(0.0,1.0,0.0));
#534=CARTESIAN_POINT('',(0.0,0.0,0.00999999999999801));
#535=DIRECTION('',(0.0,0.0,-1.0));
#536=DIRECTION('',(0.0,1.0,0.0));
#537=CARTESIAN_POINT('',(0.0,0.0,-50.79));
#538=DIRECTION('',(0.0,0.0,-1.0));
#539=DIRECTION('',(0.0,1.0,0.0));
#540=DIRECTION('',(0.0,0.0,-1.0));
#541=CARTESIAN_POINT('',(0.0,0.0,-0.784000000000002));
#542=DIRECTION('',(0.0,0.0,-1.0));
#543=DIRECTION('',(0.0,1.0,0.0));
#544=SURFACE_STYLE_FILL_AREA(#589);
#545=ORIENTED_EDGE('',*,*,#120,.T.);
#546=ORIENTED_EDGE('',*,*,#146,.F.);
#547=ORIENTED_EDGE('',*,*,#100,.T.);
#548=CARTESIAN_POINT('',(0.0,0.0,-50.795));
#549=DIRECTION('',(-0.0,-0.0,1.0));
#550=DIRECTION('',(0.0,1.0,0.0));
#551=DIRECTION('',(-0.0,-0.0,1.0));
#552=SURFACE_STYLE_FILL_AREA(#590);
#553=ORIENTED_EDGE('',*,*,#172,.T.);
#554=ORIENTED_EDGE('',*,*,#170,.F.);
#555=ORIENTED_EDGE('',*,*,#102,.T.);
#556=ORIENTED_EDGE('',*,*,#138,.T.);
#557=CARTESIAN_POINT('',(0.0,0.0,-0.387));
#558=DIRECTION('',(0.0,-0.0,-1.0));
#559=DIRECTION('',(0.0,1.0,0.0));
#560=CARTESIAN_POINT('',(0.0,0.0,-50.79));
#561=DIRECTION('',(0.0,0.0,-1.0));
#562=DIRECTION('',(0.0,1.0,0.0));
#563=CARTESIAN_POINT('',(0.0,0.0,-92.09));
#564=DIRECTION('',(0.0,0.0,-1.0));
#565=DIRECTION('',(0.0,1.0,0.0));
#566=SURFACE_STYLE_FILL_AREA(#591);
#567=ORIENTED_EDGE('',*,*,#148,.T.);
#568=ORIENTED_EDGE('',*,*,#92,.F.);
#569=ORIENTED_EDGE('',*,*,#156,.T.);
#570=ORIENTED_EDGE('',*,*,#170,.T.);
#571=CARTESIAN_POINT('',(0.0,0.0,-16.659));
#572=DIRECTION('',(-0.0,-0.0,1.0));
#573=DIRECTION('',(0.0,1.0,0.0));
#574=CARTESIAN_POINT('',(0.0,0.0,-0.784000000000002));
#575=DIRECTION('',(0.0,0.0,-1.0));
#576=DIRECTION('',(0.0,1.0,0.0));
#577=DIRECTION('',(-6.12303176911188E-017,0.5,-0.866025403784439));
#578=FILL_AREA_STYLE('',(#592));
#579=FILL_AREA_STYLE('',(#593));
#580=FILL_AREA_STYLE('',(#594));
#581=FILL_AREA_STYLE('',(#595));
#582=FILL_AREA_STYLE('',(#596));
#583=FILL_AREA_STYLE('',(#597));
#584=FILL_AREA_STYLE('',(#598));
#585=FILL_AREA_STYLE('',(#599));
#586=FILL_AREA_STYLE('',(#600));
#587=FILL_AREA_STYLE('',(#601));
#588=FILL_AREA_STYLE('',(#602));
#589=FILL_AREA_STYLE('',(#603));
#590=FILL_AREA_STYLE('',(#604));
#591=FILL_AREA_STYLE('',(#605));
#592=FILL_AREA_STYLE_COLOUR('',#606);
#593=FILL_AREA_STYLE_COLOUR('',#607);
#594=FILL_AREA_STYLE_COLOUR('',#608);
#595=FILL_AREA_STYLE_COLOUR('',#609);
#596=FILL_AREA_STYLE_COLOUR('',#610);
#597=FILL_AREA_STYLE_COLOUR('',#611);
#598=FILL_AREA_STYLE_COLOUR('',#612);
#599=FILL_AREA_STYLE_COLOUR('',#613);
#600=FILL_AREA_STYLE_COLOUR('',#614);
#601=FILL_AREA_STYLE_COLOUR('',#615);
#602=FILL_AREA_STYLE_COLOUR('',#616);
#603=FILL_AREA_STYLE_COLOUR('',#617);
#604=FILL_AREA_STYLE_COLOUR('',#618);
#605=FILL_AREA_STYLE_COLOUR('',#619);
#606=COLOUR_RGB('',0.800000011920929,0.800000011920929,0.800000011920929);
#607=COLOUR_RGB('',0.800000011920929,0.800000011920929,0.800000011920929);
#608=COLOUR_RGB('',0.498039215803146,0.498039215803146,0.498039215803146);
#609=COLOUR_RGB('',0.800000011920929,0.800000011920929,0.800000011920929);
#610=COLOUR_RGB('',0.498039215803146,0.498039215803146,0.498039215803146);
#611=COLOUR_RGB('',0.498039215803146,0.498039215803146,0.498039215803146);
#612=COLOUR_RGB('',0.800000011920929,0.800000011920929,0.800000011920929);
#613=COLOUR_RGB('',0.800000011920929,0.800000011920929,0.800000011920929);
#614=COLOUR_RGB('',0.800000011920929,0.800000011920929,0.800000011920929);
#615=COLOUR_RGB('',0.800000011920929,0.800000011920929,0.800000011920929);
#616=COLOUR_RGB('',0.498039215803146,0.498039215803146,0.498039215803146);
#617=COLOUR_RGB('',0.800000011920929,0.800000011920929,0.800000011920929);
#618=COLOUR_RGB('',0.498039215803146,0.498039215803146,0.498039215803146);
#619=COLOUR_RGB('',0.498039215803146,0.498039215803146,0.498039215803146);
#620=AXIS2_PLACEMENT_3D('PCS',#621,#622,#623);
#621=CARTESIAN_POINT('',(0.0,0.0,0.0));
#622=DIRECTION('',(0.0,0.0,1.0));
#623=DIRECTION('',(1.0,0.0,0.0));
#624=AXIS2_PLACEMENT_3D('CIP',#625,#626,#627);
#625=CARTESIAN_POINT('',(0.0,0.0,-92.1));
#626=DIRECTION('',(0.0,0.0,1.0));
#627=DIRECTION('',(1.0,0.0,0.0));
#628=AXIS2_PLACEMENT_3D('CRP',#629,#630,#631);
#629=CARTESIAN_POINT('',(-9.128,0.0,-92.1));
#630=DIRECTION('',(0.0,0.0,1.0));
#631=DIRECTION('',(1.0,0.0,0.0));
#632=AXIS2_PLACEMENT_3D('MCS',#633,#634,#635);
#633=CARTESIAN_POINT('',(0.0,0.0,-32.544));
#634=DIRECTION('',(0.0,0.0,1.0));
#635=DIRECTION('',(1.0,0.0,0.0));
#636=CONSTRUCTIVE_GEOMETRY_REPRESENTATION_RELATIONSHIP('coordinate systems',$,#65,#637);
#637=CONSTRUCTIVE_GEOMETRY_REPRESENTATION('coordinate systems',(#620,#624,#628,#632),#10);
ENDSEC;
END-ISO-10303-21;
