ISO-10303-21;
HEADER;
FILE_DESCRIPTION(('no description'),'unknown implementation level');
FILE_NAME('solid5DoTLwvHEifG7hLj38cLRNphqlc_1.STP','  ',('CIMSOURCE GmbH'),('CADClick - KiM GmbH - www.kimweb.de'),'unknown preprocess','ACIS','unknown authorization');
FILE_SCHEMA(('automotive_design'));
ENDSEC;
DATA;
#1=MECHANICAL_DESIGN_GEOMETRIC_PRESENTATION_REPRESENTATION(' ',(#14,#15,#16,#17,#18,#19,#20,#21,#22,#23,#24,#25,#26,#27,#28,#29,#30,#31,#32,#33,#34,#35,#36,#37,#38,#39,#40,#41,#42,#43,#44,#45,#46,#47,#48,#49,#50,#51,#52,#53,#54,#55,#56,#57,#58,#59,#60),#10);
#2=PRODUCT_DEFINITION_CONTEXT('',#61,'design');
#3=APPLICATION_PROTOCOL_DEFINITION('INTERNATIONAL STANDARD','automotive_design',1994,#61);
#4=PRODUCT_CATEGORY_RELATIONSHIP('NONE','NONE',#62,#63);
#5=SHAPE_DEFINITION_REPRESENTATION(#64,#65);
#6=PRODUCT_DEFINITION_CONTEXT('',#66,'design');
#7=APPLICATION_PROTOCOL_DEFINITION('INTERNATIONAL STANDARD','automotive_design',1994,#66);
#8=PRODUCT_CATEGORY_RELATIONSHIP('NONE','NONE',#67,#68);
#9=SHAPE_DEFINITION_REPRESENTATION(#69,#70);
#10= (GEOMETRIC_REPRESENTATION_CONTEXT(3)GLOBAL_UNCERTAINTY_ASSIGNED_CONTEXT((#73))GLOBAL_UNIT_ASSIGNED_CONTEXT((#75,#76,#77))REPRESENTATION_CONTEXT('NONE','WORKSPACE'));
#14=STYLED_ITEM('',(#79),#80);
#15=STYLED_ITEM('',(#81),#82);
#16=STYLED_ITEM('',(#83),#84);
#17=STYLED_ITEM('',(#85),#86);
#18=STYLED_ITEM('',(#87),#88);
#19=STYLED_ITEM('',(#89),#90);
#20=STYLED_ITEM('',(#91),#92);
#21=STYLED_ITEM('',(#93),#94);
#22=STYLED_ITEM('',(#95),#96);
#23=STYLED_ITEM('',(#97),#98);
#24=STYLED_ITEM('',(#99),#100);
#25=STYLED_ITEM('',(#101),#102);
#26=STYLED_ITEM('',(#103),#104);
#27=STYLED_ITEM('',(#105),#106);
#28=STYLED_ITEM('',(#107),#108);
#29=STYLED_ITEM('',(#109),#110);
#30=STYLED_ITEM('',(#111),#112);
#31=STYLED_ITEM('',(#113),#114);
#32=STYLED_ITEM('',(#115),#116);
#33=STYLED_ITEM('',(#117),#118);
#34=STYLED_ITEM('',(#119),#120);
#35=STYLED_ITEM('',(#121),#122);
#36=STYLED_ITEM('',(#123),#124);
#37=STYLED_ITEM('',(#125),#126);
#38=STYLED_ITEM('',(#127),#128);
#39=STYLED_ITEM('',(#129),#130);
#40=STYLED_ITEM('',(#131),#132);
#41=STYLED_ITEM('',(#133),#134);
#42=STYLED_ITEM('',(#135),#136);
#43=STYLED_ITEM('',(#137),#138);
#44=STYLED_ITEM('',(#139),#140);
#45=STYLED_ITEM('',(#141),#142);
#46=STYLED_ITEM('',(#143),#144);
#47=STYLED_ITEM('',(#145),#146);
#48=STYLED_ITEM('',(#147),#148);
#49=STYLED_ITEM('',(#149),#150);
#50=STYLED_ITEM('',(#151),#152);
#51=STYLED_ITEM('',(#153),#154);
#52=STYLED_ITEM('',(#155),#156);
#53=STYLED_ITEM('',(#157),#158);
#54=STYLED_ITEM('',(#159),#160);
#55=STYLED_ITEM('',(#161),#162);
#56=STYLED_ITEM('',(#163),#164);
#57=STYLED_ITEM('',(#165),#166);
#58=STYLED_ITEM('',(#167),#168);
#59=STYLED_ITEM('',(#169),#170);
#60=STYLED_ITEM('',(#171),#172);
#61=APPLICATION_CONTEXT(' ');
#62=PRODUCT_CATEGORY('part','NONE');
#63=PRODUCT_RELATED_PRODUCT_CATEGORY('detail',' ',(#173));
#64=PRODUCT_DEFINITION_SHAPE('NONE','NONE',#174);
#65=ADVANCED_BREP_SHAPE_REPRESENTATION('1',(#156,#175),#10);
#66=APPLICATION_CONTEXT(' ');
#67=PRODUCT_CATEGORY('part','NONE');
#68=PRODUCT_RELATED_PRODUCT_CATEGORY('detail',' ',(#176));
#69=PRODUCT_DEFINITION_SHAPE('NONE','NONE',#177);
#70=ADVANCED_BREP_SHAPE_REPRESENTATION('2',(#96,#178),#10);
#73=UNCERTAINTY_MEASURE_WITH_UNIT(LENGTH_MEASURE(1.0E-006),#75,'','');
#75= (CONVERSION_BASED_UNIT('MILLIMETRE',#181)LENGTH_UNIT()NAMED_UNIT(#184));
#76= (NAMED_UNIT(#186)PLANE_ANGLE_UNIT()SI_UNIT($,.RADIAN.));
#77= (NAMED_UNIT(#186)SOLID_ANGLE_UNIT()SI_UNIT($,.STERADIAN.));
#79=PRESENTATION_STYLE_ASSIGNMENT((#192));
#80=EDGE_CURVE('',#118,#160,#193,.T.);
#81=PRESENTATION_STYLE_ASSIGNMENT((#194));
#82=VERTEX_POINT('',#195);
#83=PRESENTATION_STYLE_ASSIGNMENT((#196));
#84=EDGE_CURVE('',#134,#92,#197,.T.);
#85=PRESENTATION_STYLE_ASSIGNMENT((#198));
#86=VERTEX_POINT('',#199);
#87=PRESENTATION_STYLE_ASSIGNMENT((#200));
#88=VERTEX_POINT('',#201);
#89=PRESENTATION_STYLE_ASSIGNMENT((#202));
#90=ADVANCED_FACE('',(#203),#204,.T.);
#91=PRESENTATION_STYLE_ASSIGNMENT((#205));
#92=VERTEX_POINT('',#206);
#93=PRESENTATION_STYLE_ASSIGNMENT((#207));
#94=EDGE_CURVE('',#98,#92,#208,.T.);
#95=PRESENTATION_STYLE_ASSIGNMENT((#209));
#96=MANIFOLD_SOLID_BREP('2',#210);
#97=PRESENTATION_STYLE_ASSIGNMENT((#211));
#98=VERTEX_POINT('',#212);
#99=PRESENTATION_STYLE_ASSIGNMENT((#213));
#100=EDGE_CURVE('',#116,#88,#214,.T.);
#101=PRESENTATION_STYLE_ASSIGNMENT((#215));
#102=EDGE_CURVE('',#98,#154,#216,.T.);
#103=PRESENTATION_STYLE_ASSIGNMENT((#217));
#104=ADVANCED_FACE('',(#218,#219),#220,.T.);
#105=PRESENTATION_STYLE_ASSIGNMENT((#221));
#106=ADVANCED_FACE('',(#222),#223,.T.);
#107=PRESENTATION_STYLE_ASSIGNMENT((#224));
#108=ADVANCED_FACE('',(#225),#226,.F.);
#109=PRESENTATION_STYLE_ASSIGNMENT((#227));
#110=ADVANCED_FACE('',(#228),#229,.F.);
#111=PRESENTATION_STYLE_ASSIGNMENT((#230));
#112=ADVANCED_FACE('',(#231),#232,.T.);
#113=PRESENTATION_STYLE_ASSIGNMENT((#233));
#114=ADVANCED_FACE('',(#234),#235,.T.);
#115=PRESENTATION_STYLE_ASSIGNMENT((#236));
#116=VERTEX_POINT('',#237);
#117=PRESENTATION_STYLE_ASSIGNMENT((#238));
#118=VERTEX_POINT('',#239);
#119=PRESENTATION_STYLE_ASSIGNMENT((#240));
#120=VERTEX_POINT('',#241);
#121=PRESENTATION_STYLE_ASSIGNMENT((#242));
#122=EDGE_CURVE('',#86,#82,#243,.T.);
#123=PRESENTATION_STYLE_ASSIGNMENT((#244));
#124=ADVANCED_FACE('',(#245),#246,.T.);
#125=PRESENTATION_STYLE_ASSIGNMENT((#247));
#126=EDGE_CURVE('',#92,#168,#248,.T.);
#127=PRESENTATION_STYLE_ASSIGNMENT((#249));
#128=VERTEX_POINT('',#250);
#129=PRESENTATION_STYLE_ASSIGNMENT((#251));
#130=EDGE_CURVE('',#154,#98,#252,.T.);
#131=PRESENTATION_STYLE_ASSIGNMENT((#253));
#132=EDGE_CURVE('',#128,#86,#254,.T.);
#133=PRESENTATION_STYLE_ASSIGNMENT((#255));
#134=VERTEX_POINT('',#256);
#135=PRESENTATION_STYLE_ASSIGNMENT((#257));
#136=ADVANCED_FACE('',(#258),#259,.T.);
#137=PRESENTATION_STYLE_ASSIGNMENT((#260));
#138=EDGE_CURVE('',#120,#168,#261,.T.);
#139=PRESENTATION_STYLE_ASSIGNMENT((#262));
#140=ADVANCED_FACE('',(#263),#264,.T.);
#141=PRESENTATION_STYLE_ASSIGNMENT((#265));
#142=EDGE_CURVE('',#120,#134,#266,.T.);
#143=PRESENTATION_STYLE_ASSIGNMENT((#267));
#144=EDGE_CURVE('',#134,#154,#268,.T.);
#145=PRESENTATION_STYLE_ASSIGNMENT((#269));
#146=EDGE_CURVE('',#92,#134,#270,.T.);
#147=PRESENTATION_STYLE_ASSIGNMENT((#271));
#148=EDGE_CURVE('',#116,#160,#272,.T.);
#149=PRESENTATION_STYLE_ASSIGNMENT((#273));
#150=EDGE_CURVE('',#88,#118,#274,.T.);
#151=PRESENTATION_STYLE_ASSIGNMENT((#275));
#152=EDGE_CURVE('',#86,#128,#276,.T.);
#153=PRESENTATION_STYLE_ASSIGNMENT((#277));
#154=VERTEX_POINT('',#278);
#155=PRESENTATION_STYLE_ASSIGNMENT((#279));
#156=MANIFOLD_SOLID_BREP('1',#280);
#157=PRESENTATION_STYLE_ASSIGNMENT((#281));
#158=EDGE_CURVE('',#168,#120,#282,.T.);
#159=PRESENTATION_STYLE_ASSIGNMENT((#283));
#160=VERTEX_POINT('',#284);
#161=PRESENTATION_STYLE_ASSIGNMENT((#285));
#162=ADVANCED_FACE('',(#286),#287,.T.);
#163=PRESENTATION_STYLE_ASSIGNMENT((#288));
#164=EDGE_CURVE('',#82,#128,#289,.T.);
#165=PRESENTATION_STYLE_ASSIGNMENT((#290));
#166=ADVANCED_FACE('',(#291),#292,.T.);
#167=PRESENTATION_STYLE_ASSIGNMENT((#293));
#168=VERTEX_POINT('',#294);
#169=PRESENTATION_STYLE_ASSIGNMENT((#295));
#170=EDGE_CURVE('',#118,#88,#296,.T.);
#171=PRESENTATION_STYLE_ASSIGNMENT((#297));
#172=EDGE_CURVE('',#160,#116,#298,.T.);
#173=PRODUCT('1','1','PART-1-DESC',(#299));
#174=PRODUCT_DEFINITION('NONE','NONE',#300,#2);
#175=AXIS2_PLACEMENT_3D('',#301,#302,#303);
#176=PRODUCT('2','2','PART-2-DESC',(#304));
#177=PRODUCT_DEFINITION('NONE','NONE',#305,#6);
#178=AXIS2_PLACEMENT_3D('',#306,#307,#308);
#181=LENGTH_MEASURE_WITH_UNIT(LENGTH_MEASURE(1.0),#309);
#184=DIMENSIONAL_EXPONENTS(1.0,0.0,0.0,0.0,0.0,0.0,0.0);
#186=DIMENSIONAL_EXPONENTS(0.0,0.0,0.0,0.0,0.0,0.0,0.0);
#192=CURVE_STYLE('',#310,POSITIVE_LENGTH_MEASURE(1.0E-006),#311);
#193=LINE('',#312,#313);
#194=POINT_STYLE(' ',#314,POSITIVE_LENGTH_MEASURE(1.0E-006),#315);
#195=CARTESIAN_POINT('',(0.0,0.0,-50.8));
#196=CURVE_STYLE('',#316,POSITIVE_LENGTH_MEASURE(1.0E-006),#317);
#197=CIRCLE('',#318,6.35);
#198=POINT_STYLE(' ',#319,POSITIVE_LENGTH_MEASURE(1.0E-006),#320);
#199=CARTESIAN_POINT('',(0.0,9.1229,-50.79));
#200=POINT_STYLE(' ',#321,POSITIVE_LENGTH_MEASURE(1.0E-006),#322);
#201=CARTESIAN_POINT('',(0.0,9.128,-92.09));
#202=SURFACE_STYLE_USAGE(.BOTH.,#323);
#203=FACE_OUTER_BOUND('',#324,.T.);
#204=PLANE('',#325);
#205=POINT_STYLE(' ',#326,POSITIVE_LENGTH_MEASURE(1.0E-006),#327);
#206=CARTESIAN_POINT('',(0.0,6.35,-0.784000000000002));
#207=CURVE_STYLE('',#328,POSITIVE_LENGTH_MEASURE(1.0E-006),#329);
#208=LINE('',#330,#331);
#209=SURFACE_STYLE_USAGE(.BOTH.,#332);
#210=CLOSED_SHELL('',(#114,#112,#140,#124,#136,#106));
#211=POINT_STYLE(' ',#333,POSITIVE_LENGTH_MEASURE(1.0E-006),#334);
#212=CARTESIAN_POINT('',(0.0,5.89158388626344,0.00999999999999801));
#213=CURVE_STYLE('',#335,POSITIVE_LENGTH_MEASURE(1.0E-006),#336);
#214=LINE('',#337,#338);
#215=CURVE_STYLE('',#339,POSITIVE_LENGTH_MEASURE(1.0E-006),#340);
#216=CIRCLE('',#341,5.89158388626344);
#217=SURFACE_STYLE_USAGE(.BOTH.,#342);
#218=FACE_OUTER_BOUND('',#343,.T.);
#219=FACE_BOUND('',#344,.T.);
#220=PLANE('',#345);
#221=SURFACE_STYLE_USAGE(.BOTH.,#346);
#222=FACE_OUTER_BOUND('',#347,.T.);
#223=CYLINDRICAL_SURFACE('',#348,6.35);
#224=SURFACE_STYLE_USAGE(.BOTH.,#349);
#225=FACE_OUTER_BOUND('',#350,.T.);
#226=CONICAL_SURFACE('',#351,4.56145,1.56970018455998);
#227=SURFACE_STYLE_USAGE(.BOTH.,#352);
#228=FACE_OUTER_BOUND('',#353,.T.);
#229=CONICAL_SURFACE('',#354,4.56145,1.56970018455998);
#230=SURFACE_STYLE_USAGE(.BOTH.,#355);
#231=FACE_OUTER_BOUND('',#356,.T.);
#232=CONICAL_SURFACE('',#357,6.12079194313172,0.523598775598299);
#233=SURFACE_STYLE_USAGE(.BOTH.,#358);
#234=FACE_OUTER_BOUND('',#359,.T.);
#235=CYLINDRICAL_SURFACE('',#360,6.35);
#236=POINT_STYLE(' ',#361,POSITIVE_LENGTH_MEASURE(1.0E-006),#362);
#237=CARTESIAN_POINT('',(0.0,9.1279,-50.79));
#238=POINT_STYLE(' ',#363,POSITIVE_LENGTH_MEASURE(1.0E-006),#364);
#239=CARTESIAN_POINT('',(1.11782067976907E-015,-9.128,-92.09));
#240=POINT_STYLE(' ',#365,POSITIVE_LENGTH_MEASURE(1.0E-006),#366);
#241=CARTESIAN_POINT('',(0.0,-6.35,-50.79));
#242=CURVE_STYLE('',#367,POSITIVE_LENGTH_MEASURE(1.0E-006),#368);
#243=LINE('',#369,#370);
#244=SURFACE_STYLE_USAGE(.BOTH.,#371);
#245=FACE_OUTER_BOUND('',#372,.T.);
#246=PLANE('',#373);
#247=CURVE_STYLE('',#374,POSITIVE_LENGTH_MEASURE(1.0E-006),#375);
#248=LINE('',#376,#377);
#249=POINT_STYLE(' ',#378,POSITIVE_LENGTH_MEASURE(1.0E-006),#379);
#250=CARTESIAN_POINT('',(1.11719613052862E-015,-9.1229,-50.79));
#251=CURVE_STYLE('',#380,POSITIVE_LENGTH_MEASURE(1.0E-006),#381);
#252=CIRCLE('',#382,5.89158388626344);
#253=CURVE_STYLE('',#383,POSITIVE_LENGTH_MEASURE(1.0E-006),#384);
#254=CIRCLE('',#385,9.1229);
#255=POINT_STYLE(' ',#386,POSITIVE_LENGTH_MEASURE(1.0E-006),#387);
#256=CARTESIAN_POINT('',(7.7762503467721E-016,-6.35,-0.784000000000002));
#257=SURFACE_STYLE_USAGE(.BOTH.,#388);
#258=FACE_OUTER_BOUND('',#389,.T.);
#259=CONICAL_SURFACE('',#390,6.12079194313172,0.523598775598299);
#260=CURVE_STYLE('',#391,POSITIVE_LENGTH_MEASURE(1.0E-006),#392);
#261=CIRCLE('',#393,6.35);
#262=SURFACE_STYLE_USAGE(.BOTH.,#394);
#263=FACE_OUTER_BOUND('',#395,.T.);
#264=PLANE('',#396);
#265=CURVE_STYLE('',#397,POSITIVE_LENGTH_MEASURE(1.0E-006),#398);
#266=LINE('',#399,#400);
#267=CURVE_STYLE('',#401,POSITIVE_LENGTH_MEASURE(1.0E-006),#402);
#268=LINE('',#403,#404);
#269=CURVE_STYLE('',#405,POSITIVE_LENGTH_MEASURE(1.0E-006),#406);
#270=CIRCLE('',#407,6.35);
#271=CURVE_STYLE('',#408,POSITIVE_LENGTH_MEASURE(1.0E-006),#409);
#272=CIRCLE('',#410,9.1279);
#273=CURVE_STYLE('',#411,POSITIVE_LENGTH_MEASURE(1.0E-006),#412);
#274=CIRCLE('',#413,9.128);
#275=CURVE_STYLE('',#414,POSITIVE_LENGTH_MEASURE(1.0E-006),#415);
#276=CIRCLE('',#416,9.1229);
#277=POINT_STYLE(' ',#417,POSITIVE_LENGTH_MEASURE(1.0E-006),#418);
#278=CARTESIAN_POINT('',(7.21487106119574E-016,-5.89158388626344,0.00999999999999801));
#279=SURFACE_STYLE_USAGE(.BOTH.,#419);
#280=CLOSED_SHELL('',(#166,#110,#108,#104,#162,#90));
#281=CURVE_STYLE('',#420,POSITIVE_LENGTH_MEASURE(1.0E-006),#421);
#282=CIRCLE('',#422,6.35);
#283=POINT_STYLE(' ',#423,POSITIVE_LENGTH_MEASURE(1.0E-006),#424);
#284=CARTESIAN_POINT('',(1.11780843370553E-015,-9.1279,-50.79));
#285=SURFACE_STYLE_USAGE(.BOTH.,#425);
#286=FACE_OUTER_BOUND('',#426,.T.);
#287=CONICAL_SURFACE('',#427,9.12795,2.42130750604289E-006);
#288=CURVE_STYLE('',#428,POSITIVE_LENGTH_MEASURE(1.0E-006),#429);
#289=LINE('',#430,#431);
#290=SURFACE_STYLE_USAGE(.BOTH.,#432);
#291=FACE_OUTER_BOUND('',#433,.T.);
#292=CONICAL_SURFACE('',#434,9.12795,2.42130750604289E-006);
#293=POINT_STYLE(' ',#435,POSITIVE_LENGTH_MEASURE(1.0E-006),#436);
#294=CARTESIAN_POINT('',(-7.7762503467721E-016,6.35,-50.79));
#295=CURVE_STYLE('',#437,POSITIVE_LENGTH_MEASURE(1.0E-006),#438);
#296=CIRCLE('',#439,9.128);
#297=CURVE_STYLE('',#440,POSITIVE_LENGTH_MEASURE(1.0E-006),#441);
#298=CIRCLE('',#442,9.1279);
#299=PRODUCT_CONTEXT('',#61,'mechanical');
#300=PRODUCT_DEFINITION_FORMATION_WITH_SPECIFIED_SOURCE(' ','NONE',#173,.NOT_KNOWN.);
#301=CARTESIAN_POINT('',(0.0,0.0,0.0));
#302=DIRECTION('',(0.0,0.0,1.0));
#303=DIRECTION('',(1.0,0.0,0.0));
#304=PRODUCT_CONTEXT('',#66,'mechanical');
#305=PRODUCT_DEFINITION_FORMATION_WITH_SPECIFIED_SOURCE(' ','NONE',#176,.NOT_KNOWN.);
#306=CARTESIAN_POINT('',(0.0,0.0,0.0));
#307=DIRECTION('',(0.0,0.0,1.0));
#308=DIRECTION('',(1.0,0.0,0.0));
#309= (NAMED_UNIT(#184)LENGTH_UNIT()SI_UNIT(.MILLI.,.METRE.));
#310=DRAUGHTING_PRE_DEFINED_CURVE_FONT('continuous');
#311=COLOUR_RGB('',0.800000011920929,0.800000011920929,0.800000011920929);
#312=CARTESIAN_POINT('',(1.1178145567373E-015,-9.12795,-71.44));
#313=VECTOR('',#444,1.0);
#314=PRE_DEFINED_MARKER('');
#315=COLOUR_RGB('',0.800000011920929,0.800000011920929,0.800000011920929);
#316=DRAUGHTING_PRE_DEFINED_CURVE_FONT('continuous');
#317=COLOUR_RGB('',0.498039215803146,0.498039215803146,0.498039215803146);
#318=AXIS2_PLACEMENT_3D('',#445,#446,#447);
#319=PRE_DEFINED_MARKER('');
#320=COLOUR_RGB('',0.800000011920929,0.800000011920929,0.800000011920929);
#321=PRE_DEFINED_MARKER('');
#322=COLOUR_RGB('',0.800000011920929,0.800000011920929,0.800000011920929);
#323=SURFACE_SIDE_STYLE('',(#448));
#324=EDGE_LOOP('',(#449,#450));
#325=AXIS2_PLACEMENT_3D('',#451,#452,#453);
#326=PRE_DEFINED_MARKER('');
#327=COLOUR_RGB('',0.498039215803146,0.498039215803146,0.498039215803146);
#328=DRAUGHTING_PRE_DEFINED_CURVE_FONT('continuous');
#329=COLOUR_RGB('',0.498039215803146,0.498039215803146,0.498039215803146);
#330=CARTESIAN_POINT('',(-7.49556070398392E-016,6.12079194313172,-0.387));
#331=VECTOR('',#454,1.0);
#332=SURFACE_SIDE_STYLE('',(#455));
#333=PRE_DEFINED_MARKER('');
#334=COLOUR_RGB('',0.498039215803146,0.498039215803146,0.498039215803146);
#335=DRAUGHTING_PRE_DEFINED_CURVE_FONT('continuous');
#336=COLOUR_RGB('',0.800000011920929,0.800000011920929,0.800000011920929);
#337=CARTESIAN_POINT('',(-1.1178145567373E-015,9.12795,-71.44));
#338=VECTOR('',#456,1.0);
#339=DRAUGHTING_PRE_DEFINED_CURVE_FONT('continuous');
#340=COLOUR_RGB('',0.498039215803146,0.498039215803146,0.498039215803146);
#341=AXIS2_PLACEMENT_3D('',#457,#458,#459);
#342=SURFACE_SIDE_STYLE('',(#460));
#343=EDGE_LOOP('',(#461,#462));
#344=EDGE_LOOP('',(#463,#464));
#345=AXIS2_PLACEMENT_3D('',#465,#466,#467);
#346=SURFACE_SIDE_STYLE('',(#468));
#347=EDGE_LOOP('',(#469,#470,#471,#472));
#348=AXIS2_PLACEMENT_3D('',#473,#474,#475);
#349=SURFACE_SIDE_STYLE('',(#476));
#350=EDGE_LOOP('',(#477,#478,#479));
#351=AXIS2_PLACEMENT_3D('',#480,#481,#482);
#352=SURFACE_SIDE_STYLE('',(#483));
#353=EDGE_LOOP('',(#484,#485,#486));
#354=AXIS2_PLACEMENT_3D('',#487,#488,#489);
#355=SURFACE_SIDE_STYLE('',(#490));
#356=EDGE_LOOP('',(#491,#492,#493,#494));
#357=AXIS2_PLACEMENT_3D('',#495,#496,#497);
#358=SURFACE_SIDE_STYLE('',(#498));
#359=EDGE_LOOP('',(#499,#500,#501,#502));
#360=AXIS2_PLACEMENT_3D('',#503,#504,#505);
#361=PRE_DEFINED_MARKER('');
#362=COLOUR_RGB('',0.800000011920929,0.800000011920929,0.800000011920929);
#363=PRE_DEFINED_MARKER('');
#364=COLOUR_RGB('',0.800000011920929,0.800000011920929,0.800000011920929);
#365=PRE_DEFINED_MARKER('');
#366=COLOUR_RGB('',0.498039215803146,0.498039215803146,0.498039215803146);
#367=DRAUGHTING_PRE_DEFINED_CURVE_FONT('continuous');
#368=COLOUR_RGB('',0.800000011920929,0.800000011920929,0.800000011920929);
#369=CARTESIAN_POINT('',(-5.58598065264308E-016,4.56145,-50.795));
#370=VECTOR('',#506,1.0);
#371=SURFACE_SIDE_STYLE('',(#507));
#372=EDGE_LOOP('',(#508,#509));
#373=AXIS2_PLACEMENT_3D('',#510,#511,#512);
#374=DRAUGHTING_PRE_DEFINED_CURVE_FONT('continuous');
#375=COLOUR_RGB('',0.498039215803146,0.498039215803146,0.498039215803146);
#376=CARTESIAN_POINT('',(-7.7762503467721E-016,6.35,-16.659));
#377=VECTOR('',#513,1.0);
#378=PRE_DEFINED_MARKER('');
#379=COLOUR_RGB('',0.800000011920929,0.800000011920929,0.800000011920929);
#380=DRAUGHTING_PRE_DEFINED_CURVE_FONT('continuous');
#381=COLOUR_RGB('',0.498039215803146,0.498039215803146,0.498039215803146);
#382=AXIS2_PLACEMENT_3D('',#514,#515,#516);
#383=DRAUGHTING_PRE_DEFINED_CURVE_FONT('continuous');
#384=COLOUR_RGB('',0.800000011920929,0.800000011920929,0.800000011920929);
#385=AXIS2_PLACEMENT_3D('',#517,#518,#519);
#386=PRE_DEFINED_MARKER('');
#387=COLOUR_RGB('',0.498039215803146,0.498039215803146,0.498039215803146);
#388=SURFACE_SIDE_STYLE('',(#520));
#389=EDGE_LOOP('',(#521,#522,#523,#524));
#390=AXIS2_PLACEMENT_3D('',#525,#526,#527);
#391=DRAUGHTING_PRE_DEFINED_CURVE_FONT('continuous');
#392=COLOUR_RGB('',0.498039215803146,0.498039215803146,0.498039215803146);
#393=AXIS2_PLACEMENT_3D('',#528,#529,#530);
#394=SURFACE_SIDE_STYLE('',(#531));
#395=EDGE_LOOP('',(#532,#533));
#396=AXIS2_PLACEMENT_3D('',#534,#535,#536);
#397=DRAUGHTING_PRE_DEFINED_CURVE_FONT('continuous');
#398=COLOUR_RGB('',0.498039215803146,0.498039215803146,0.498039215803146);
#399=CARTESIAN_POINT('',(7.7762503467721E-016,-6.35,-16.659));
#400=VECTOR('',#537,1.0);
#401=DRAUGHTING_PRE_DEFINED_CURVE_FONT('continuous');
#402=COLOUR_RGB('',0.498039215803146,0.498039215803146,0.498039215803146);
#403=CARTESIAN_POINT('',(7.49556070398392E-016,-6.12079194313172,-0.387));
#404=VECTOR('',#538,1.0);
#405=DRAUGHTING_PRE_DEFINED_CURVE_FONT('continuous');
#406=COLOUR_RGB('',0.498039215803146,0.498039215803146,0.498039215803146);
#407=AXIS2_PLACEMENT_3D('',#539,#540,#541);
#408=DRAUGHTING_PRE_DEFINED_CURVE_FONT('continuous');
#409=COLOUR_RGB('',0.800000011920929,0.800000011920929,0.800000011920929);
#410=AXIS2_PLACEMENT_3D('',#542,#543,#544);
#411=DRAUGHTING_PRE_DEFINED_CURVE_FONT('continuous');
#412=COLOUR_RGB('',0.800000011920929,0.800000011920929,0.800000011920929);
#413=AXIS2_PLACEMENT_3D('',#545,#546,#547);
#414=DRAUGHTING_PRE_DEFINED_CURVE_FONT('continuous');
#415=COLOUR_RGB('',0.800000011920929,0.800000011920929,0.800000011920929);
#416=AXIS2_PLACEMENT_3D('',#548,#549,#550);
#417=PRE_DEFINED_MARKER('');
#418=COLOUR_RGB('',0.498039215803146,0.498039215803146,0.498039215803146);
#419=SURFACE_SIDE_STYLE('',(#551));
#420=DRAUGHTING_PRE_DEFINED_CURVE_FONT('continuous');
#421=COLOUR_RGB('',0.498039215803146,0.498039215803146,0.498039215803146);
#422=AXIS2_PLACEMENT_3D('',#552,#553,#554);
#423=PRE_DEFINED_MARKER('');
#424=COLOUR_RGB('',0.800000011920929,0.800000011920929,0.800000011920929);
#425=SURFACE_SIDE_STYLE('',(#555));
#426=EDGE_LOOP('',(#556,#557,#558,#559));
#427=AXIS2_PLACEMENT_3D('',#560,#561,#562);
#428=DRAUGHTING_PRE_DEFINED_CURVE_FONT('continuous');
#429=COLOUR_RGB('',0.800000011920929,0.800000011920929,0.800000011920929);
#430=CARTESIAN_POINT('',(5.58598065264308E-016,-4.56145,-50.795));
#431=VECTOR('',#563,1.0);
#432=SURFACE_SIDE_STYLE('',(#564));
#433=EDGE_LOOP('',(#565,#566,#567,#568));
#434=AXIS2_PLACEMENT_3D('',#569,#570,#571);
#435=PRE_DEFINED_MARKER('');
#436=COLOUR_RGB('',0.498039215803146,0.498039215803146,0.498039215803146);
#437=DRAUGHTING_PRE_DEFINED_CURVE_FONT('continuous');
#438=COLOUR_RGB('',0.800000011920929,0.800000011920929,0.800000011920929);
#439=AXIS2_PLACEMENT_3D('',#572,#573,#574);
#440=DRAUGHTING_PRE_DEFINED_CURVE_FONT('continuous');
#441=COLOUR_RGB('',0.800000011920929,0.800000011920929,0.800000011920929);
#442=AXIS2_PLACEMENT_3D('',#575,#576,#577);
#444=DIRECTION('',(-2.96514855645504E-022,2.42130750604053E-006,0.999999999997069));
#445=CARTESIAN_POINT('',(0.0,0.0,-0.784000000000002));
#446=DIRECTION('',(0.0,0.0,-1.0));
#447=DIRECTION('',(0.0,1.0,0.0));
#448=SURFACE_STYLE_FILL_AREA(#578);
#449=ORIENTED_EDGE('',*,*,#150,.T.);
#450=ORIENTED_EDGE('',*,*,#170,.T.);
#451=CARTESIAN_POINT('',(0.0,4.5615,-92.09));
#452=DIRECTION('',(0.0,0.0,-1.0));
#453=DIRECTION('',(0.0,1.0,0.0));
#454=DIRECTION('',(-6.12303176911188E-017,0.5,-0.866025403784439));
#455=SURFACE_STYLE_FILL_AREA(#579);
#456=DIRECTION('',(-2.96514855645504E-022,2.42130750604053E-006,-0.999999999997069));
#457=CARTESIAN_POINT('',(0.0,0.0,0.00999999999999801));
#458=DIRECTION('',(0.0,0.0,-1.0));
#459=DIRECTION('',(0.0,1.0,0.0));
#460=SURFACE_STYLE_FILL_AREA(#580);
#461=ORIENTED_EDGE('',*,*,#148,.F.);
#462=ORIENTED_EDGE('',*,*,#172,.F.);
#463=ORIENTED_EDGE('',*,*,#152,.T.);
#464=ORIENTED_EDGE('',*,*,#132,.T.);
#465=CARTESIAN_POINT('',(0.0,9.1254,-50.79));
#466=DIRECTION('',(-0.0,0.0,1.0));
#467=DIRECTION('',(0.0,-1.0,0.0));
#468=SURFACE_STYLE_FILL_AREA(#581);
#469=ORIENTED_EDGE('',*,*,#126,.T.);
#470=ORIENTED_EDGE('',*,*,#138,.F.);
#471=ORIENTED_EDGE('',*,*,#142,.T.);
#472=ORIENTED_EDGE('',*,*,#84,.T.);
#473=CARTESIAN_POINT('',(0.0,0.0,-16.659));
#474=DIRECTION('',(-0.0,-0.0,1.0));
#475=DIRECTION('',(0.0,1.0,0.0));
#476=SURFACE_STYLE_FILL_AREA(#582);
#477=ORIENTED_EDGE('',*,*,#164,.T.);
#478=ORIENTED_EDGE('',*,*,#152,.F.);
#479=ORIENTED_EDGE('',*,*,#122,.T.);
#480=CARTESIAN_POINT('',(0.0,0.0,-50.795));
#481=DIRECTION('',(-0.0,-0.0,1.0));
#482=DIRECTION('',(0.0,1.0,0.0));
#483=SURFACE_STYLE_FILL_AREA(#583);
#484=ORIENTED_EDGE('',*,*,#164,.F.);
#485=ORIENTED_EDGE('',*,*,#122,.F.);
#486=ORIENTED_EDGE('',*,*,#132,.F.);
#487=CARTESIAN_POINT('',(0.0,0.0,-50.795));
#488=DIRECTION('',(-0.0,-0.0,1.0));
#489=DIRECTION('',(0.0,1.0,0.0));
#490=SURFACE_STYLE_FILL_AREA(#584);
#491=ORIENTED_EDGE('',*,*,#94,.F.);
#492=ORIENTED_EDGE('',*,*,#102,.T.);
#493=ORIENTED_EDGE('',*,*,#144,.F.);
#494=ORIENTED_EDGE('',*,*,#146,.F.);
#495=CARTESIAN_POINT('',(0.0,0.0,-0.387));
#496=DIRECTION('',(0.0,-0.0,-1.0));
#497=DIRECTION('',(0.0,1.0,0.0));
#498=SURFACE_STYLE_FILL_AREA(#585);
#499=ORIENTED_EDGE('',*,*,#126,.F.);
#500=ORIENTED_EDGE('',*,*,#146,.T.);
#501=ORIENTED_EDGE('',*,*,#142,.F.);
#502=ORIENTED_EDGE('',*,*,#158,.F.);
#503=CARTESIAN_POINT('',(0.0,0.0,-16.659));
#504=DIRECTION('',(-0.0,-0.0,1.0));
#505=DIRECTION('',(0.0,1.0,0.0));
#506=DIRECTION('',(1.22460561812316E-016,-0.999999399236161,-0.00109614201540701));
#507=SURFACE_STYLE_FILL_AREA(#586);
#508=ORIENTED_EDGE('',*,*,#102,.F.);
#509=ORIENTED_EDGE('',*,*,#130,.F.);
#510=CARTESIAN_POINT('',(0.0,2.94579194313172,0.00999999999999801));
#511=DIRECTION('',(-0.0,0.0,1.0));
#512=DIRECTION('',(0.0,-1.0,0.0));
#513=DIRECTION('',(0.0,0.0,-1.0));
#514=CARTESIAN_POINT('',(0.0,0.0,0.00999999999999801));
#515=DIRECTION('',(0.0,0.0,-1.0));
#516=DIRECTION('',(0.0,1.0,0.0));
#517=CARTESIAN_POINT('',(0.0,0.0,-50.79));
#518=DIRECTION('',(0.0,0.0,-1.0));
#519=DIRECTION('',(0.0,1.0,0.0));
#520=SURFACE_STYLE_FILL_AREA(#587);
#521=ORIENTED_EDGE('',*,*,#94,.T.);
#522=ORIENTED_EDGE('',*,*,#84,.F.);
#523=ORIENTED_EDGE('',*,*,#144,.T.);
#524=ORIENTED_EDGE('',*,*,#130,.T.);
#525=CARTESIAN_POINT('',(0.0,0.0,-0.387));
#526=DIRECTION('',(0.0,-0.0,-1.0));
#527=DIRECTION('',(0.0,1.0,0.0));
#528=CARTESIAN_POINT('',(0.0,0.0,-50.79));
#529=DIRECTION('',(0.0,0.0,-1.0));
#530=DIRECTION('',(0.0,-1.0,0.0));
#531=SURFACE_STYLE_FILL_AREA(#588);
#532=ORIENTED_EDGE('',*,*,#138,.T.);
#533=ORIENTED_EDGE('',*,*,#158,.T.);
#534=CARTESIAN_POINT('',(0.0,0.0,-50.79));
#535=DIRECTION('',(0.0,0.0,-1.0));
#536=DIRECTION('',(0.0,-1.0,0.0));
#537=DIRECTION('',(-0.0,-0.0,1.0));
#538=DIRECTION('',(-6.12303176911189E-017,0.5,0.866025403784439));
#539=CARTESIAN_POINT('',(0.0,0.0,-0.784000000000002));
#540=DIRECTION('',(0.0,0.0,-1.0));
#541=DIRECTION('',(0.0,1.0,0.0));
#542=CARTESIAN_POINT('',(0.0,0.0,-50.79));
#543=DIRECTION('',(0.0,0.0,-1.0));
#544=DIRECTION('',(0.0,1.0,0.0));
#545=CARTESIAN_POINT('',(0.0,0.0,-92.09));
#546=DIRECTION('',(0.0,0.0,-1.0));
#547=DIRECTION('',(0.0,1.0,0.0));
#548=CARTESIAN_POINT('',(0.0,0.0,-50.79));
#549=DIRECTION('',(0.0,0.0,-1.0));
#550=DIRECTION('',(0.0,1.0,0.0));
#551=SURFACE_STYLE_FILL_AREA(#589);
#552=CARTESIAN_POINT('',(0.0,0.0,-50.79));
#553=DIRECTION('',(0.0,0.0,-1.0));
#554=DIRECTION('',(0.0,-1.0,0.0));
#555=SURFACE_STYLE_FILL_AREA(#590);
#556=ORIENTED_EDGE('',*,*,#100,.T.);
#557=ORIENTED_EDGE('',*,*,#170,.F.);
#558=ORIENTED_EDGE('',*,*,#80,.T.);
#559=ORIENTED_EDGE('',*,*,#172,.T.);
#560=CARTESIAN_POINT('',(0.0,0.0,-71.44));
#561=DIRECTION('',(0.0,-0.0,-1.0));
#562=DIRECTION('',(0.0,1.0,0.0));
#563=DIRECTION('',(1.22460561812316E-016,-0.999999399236161,0.00109614201540701));
#564=SURFACE_STYLE_FILL_AREA(#591);
#565=ORIENTED_EDGE('',*,*,#100,.F.);
#566=ORIENTED_EDGE('',*,*,#148,.T.);
#567=ORIENTED_EDGE('',*,*,#80,.F.);
#568=ORIENTED_EDGE('',*,*,#150,.F.);
#569=CARTESIAN_POINT('',(0.0,0.0,-71.44));
#570=DIRECTION('',(0.0,-0.0,-1.0));
#571=DIRECTION('',(0.0,1.0,0.0));
#572=CARTESIAN_POINT('',(0.0,0.0,-92.09));
#573=DIRECTION('',(0.0,0.0,-1.0));
#574=DIRECTION('',(0.0,1.0,0.0));
#575=CARTESIAN_POINT('',(0.0,0.0,-50.79));
#576=DIRECTION('',(0.0,0.0,-1.0));
#577=DIRECTION('',(0.0,1.0,0.0));
#578=FILL_AREA_STYLE('',(#592));
#579=FILL_AREA_STYLE('',(#593));
#580=FILL_AREA_STYLE('',(#594));
#581=FILL_AREA_STYLE('',(#595));
#582=FILL_AREA_STYLE('',(#596));
#583=FILL_AREA_STYLE('',(#597));
#584=FILL_AREA_STYLE('',(#598));
#585=FILL_AREA_STYLE('',(#599));
#586=FILL_AREA_STYLE('',(#600));
#587=FILL_AREA_STYLE('',(#601));
#588=FILL_AREA_STYLE('',(#602));
#589=FILL_AREA_STYLE('',(#603));
#590=FILL_AREA_STYLE('',(#604));
#591=FILL_AREA_STYLE('',(#605));
#592=FILL_AREA_STYLE_COLOUR('',#606);
#593=FILL_AREA_STYLE_COLOUR('',#607);
#594=FILL_AREA_STYLE_COLOUR('',#608);
#595=FILL_AREA_STYLE_COLOUR('',#609);
#596=FILL_AREA_STYLE_COLOUR('',#610);
#597=FILL_AREA_STYLE_COLOUR('',#611);
#598=FILL_AREA_STYLE_COLOUR('',#612);
#599=FILL_AREA_STYLE_COLOUR('',#613);
#600=FILL_AREA_STYLE_COLOUR('',#614);
#601=FILL_AREA_STYLE_COLOUR('',#615);
#602=FILL_AREA_STYLE_COLOUR('',#616);
#603=FILL_AREA_STYLE_COLOUR('',#617);
#604=FILL_AREA_STYLE_COLOUR('',#618);
#605=FILL_AREA_STYLE_COLOUR('',#619);
#606=COLOUR_RGB('',0.800000011920929,0.800000011920929,0.800000011920929);
#607=COLOUR_RGB('',0.800000011920929,0.800000011920929,0.800000011920929);
#608=COLOUR_RGB('',0.800000011920929,0.800000011920929,0.800000011920929);
#609=COLOUR_RGB('',0.498039215803146,0.498039215803146,0.498039215803146);
#610=COLOUR_RGB('',0.800000011920929,0.800000011920929,0.800000011920929);
#611=COLOUR_RGB('',0.800000011920929,0.800000011920929,0.800000011920929);
#612=COLOUR_RGB('',0.498039215803146,0.498039215803146,0.498039215803146);
#613=COLOUR_RGB('',0.498039215803146,0.498039215803146,0.498039215803146);
#614=COLOUR_RGB('',0.498039215803146,0.498039215803146,0.498039215803146);
#615=COLOUR_RGB('',0.498039215803146,0.498039215803146,0.498039215803146);
#616=COLOUR_RGB('',0.498039215803146,0.498039215803146,0.498039215803146);
#617=COLOUR_RGB('',0.800000011920929,0.800000011920929,0.800000011920929);
#618=COLOUR_RGB('',0.800000011920929,0.800000011920929,0.800000011920929);
#619=COLOUR_RGB('',0.800000011920929,0.800000011920929,0.800000011920929);
#620=AXIS2_PLACEMENT_3D('PCS',#621,#622,#623);
#621=CARTESIAN_POINT('',(0.0,0.0,0.0));
#622=DIRECTION('',(0.0,0.0,1.0));
#623=DIRECTION('',(1.0,0.0,0.0));
#624=AXIS2_PLACEMENT_3D('CIP',#625,#626,#627);
#625=CARTESIAN_POINT('',(0.0,0.0,-92.1));
#626=DIRECTION('',(0.0,0.0,1.0));
#627=DIRECTION('',(1.0,0.0,0.0));
#628=AXIS2_PLACEMENT_3D('CRP',#629,#630,#631);
#629=CARTESIAN_POINT('',(-9.128,0.0,-92.1));
#630=DIRECTION('',(0.0,0.0,1.0));
#631=DIRECTION('',(1.0,0.0,0.0));
#632=AXIS2_PLACEMENT_3D('MCS',#633,#634,#635);
#633=CARTESIAN_POINT('',(0.0,0.0,-32.544));
#634=DIRECTION('',(0.0,0.0,1.0));
#635=DIRECTION('',(1.0,0.0,0.0));
#636=CONSTRUCTIVE_GEOMETRY_REPRESENTATION_RELATIONSHIP('coordinate systems',$,#65,#637);
#637=CONSTRUCTIVE_GEOMETRY_REPRESENTATION('coordinate systems',(#620,#624,#628,#632),#10);
ENDSEC;
END-ISO-10303-21;
