ISO-10303-21;
HEADER;
FILE_DESCRIPTION(('no description'),'unknown implementation level');
FILE_NAME('solid6zmyA_YUX8z0DtoI439ZpwnITPQ_1.STP','  ',('CIMSOURCE GmbH'),('CADClick - KiM GmbH - www.kimweb.de'),'unknown preprocess','ACIS','unknown authorization');
FILE_SCHEMA(('automotive_design'));
ENDSEC;
DATA;
#1=MECHANICAL_DESIGN_GEOMETRIC_PRESENTATION_REPRESENTATION(' ',(#14,#15,#16,#17,#18,#19,#20,#21,#22,#23,#24,#25,#26,#27,#28,#29,#30,#31,#32,#33,#34,#35,#36,#37,#38,#39,#40,#41,#42,#43,#44,#45,#46,#47,#48,#49,#50,#51,#52,#53,#54,#55,#56,#57,#58,#59,#60),#10);
#2=PRODUCT_DEFINITION_CONTEXT('',#61,'design');
#3=APPLICATION_PROTOCOL_DEFINITION('INTERNATIONAL STANDARD','automotive_design',1994,#61);
#4=PRODUCT_CATEGORY_RELATIONSHIP('NONE','NONE',#62,#63);
#5=SHAPE_DEFINITION_REPRESENTATION(#64,#65);
#6=PRODUCT_DEFINITION_CONTEXT('',#66,'design');
#7=APPLICATION_PROTOCOL_DEFINITION('INTERNATIONAL STANDARD','automotive_design',1994,#66);
#8=PRODUCT_CATEGORY_RELATIONSHIP('NONE','NONE',#67,#68);
#9=SHAPE_DEFINITION_REPRESENTATION(#69,#70);
#10= (GEOMETRIC_REPRESENTATION_CONTEXT(3)GLOBAL_UNCERTAINTY_ASSIGNED_CONTEXT((#73))GLOBAL_UNIT_ASSIGNED_CONTEXT((#75,#76,#77))REPRESENTATION_CONTEXT('NONE','WORKSPACE'));
#14=STYLED_ITEM('',(#79),#80);
#15=STYLED_ITEM('',(#81),#82);
#16=STYLED_ITEM('',(#83),#84);
#17=STYLED_ITEM('',(#85),#86);
#18=STYLED_ITEM('',(#87),#88);
#19=STYLED_ITEM('',(#89),#90);
#20=STYLED_ITEM('',(#91),#92);
#21=STYLED_ITEM('',(#93),#94);
#22=STYLED_ITEM('',(#95),#96);
#23=STYLED_ITEM('',(#97),#98);
#24=STYLED_ITEM('',(#99),#100);
#25=STYLED_ITEM('',(#101),#102);
#26=STYLED_ITEM('',(#103),#104);
#27=STYLED_ITEM('',(#105),#106);
#28=STYLED_ITEM('',(#107),#108);
#29=STYLED_ITEM('',(#109),#110);
#30=STYLED_ITEM('',(#111),#112);
#31=STYLED_ITEM('',(#113),#114);
#32=STYLED_ITEM('',(#115),#116);
#33=STYLED_ITEM('',(#117),#118);
#34=STYLED_ITEM('',(#119),#120);
#35=STYLED_ITEM('',(#121),#122);
#36=STYLED_ITEM('',(#123),#124);
#37=STYLED_ITEM('',(#125),#126);
#38=STYLED_ITEM('',(#127),#128);
#39=STYLED_ITEM('',(#129),#130);
#40=STYLED_ITEM('',(#131),#132);
#41=STYLED_ITEM('',(#133),#134);
#42=STYLED_ITEM('',(#135),#136);
#43=STYLED_ITEM('',(#137),#138);
#44=STYLED_ITEM('',(#139),#140);
#45=STYLED_ITEM('',(#141),#142);
#46=STYLED_ITEM('',(#143),#144);
#47=STYLED_ITEM('',(#145),#146);
#48=STYLED_ITEM('',(#147),#148);
#49=STYLED_ITEM('',(#149),#150);
#50=STYLED_ITEM('',(#151),#152);
#51=STYLED_ITEM('',(#153),#154);
#52=STYLED_ITEM('',(#155),#156);
#53=STYLED_ITEM('',(#157),#158);
#54=STYLED_ITEM('',(#159),#160);
#55=STYLED_ITEM('',(#161),#162);
#56=STYLED_ITEM('',(#163),#164);
#57=STYLED_ITEM('',(#165),#166);
#58=STYLED_ITEM('',(#167),#168);
#59=STYLED_ITEM('',(#169),#170);
#60=STYLED_ITEM('',(#171),#172);
#61=APPLICATION_CONTEXT(' ');
#62=PRODUCT_CATEGORY('part','NONE');
#63=PRODUCT_RELATED_PRODUCT_CATEGORY('detail',' ',(#173));
#64=PRODUCT_DEFINITION_SHAPE('NONE','NONE',#174);
#65=ADVANCED_BREP_SHAPE_REPRESENTATION('1',(#128,#175),#10);
#66=APPLICATION_CONTEXT(' ');
#67=PRODUCT_CATEGORY('part','NONE');
#68=PRODUCT_RELATED_PRODUCT_CATEGORY('detail',' ',(#176));
#69=PRODUCT_DEFINITION_SHAPE('NONE','NONE',#177);
#70=ADVANCED_BREP_SHAPE_REPRESENTATION('2',(#122,#178),#10);
#73=UNCERTAINTY_MEASURE_WITH_UNIT(LENGTH_MEASURE(1.0E-006),#75,'','');
#75= (CONVERSION_BASED_UNIT('MILLIMETRE',#181)LENGTH_UNIT()NAMED_UNIT(#184));
#76= (NAMED_UNIT(#186)PLANE_ANGLE_UNIT()SI_UNIT($,.RADIAN.));
#77= (NAMED_UNIT(#186)SOLID_ANGLE_UNIT()SI_UNIT($,.STERADIAN.));
#79=PRESENTATION_STYLE_ASSIGNMENT((#192));
#80=VERTEX_POINT('',#193);
#81=PRESENTATION_STYLE_ASSIGNMENT((#194));
#82=EDGE_CURVE('',#158,#88,#195,.T.);
#83=PRESENTATION_STYLE_ASSIGNMENT((#196));
#84=EDGE_CURVE('',#126,#150,#197,.T.);
#85=PRESENTATION_STYLE_ASSIGNMENT((#198));
#86=ADVANCED_FACE('',(#199),#200,.F.);
#87=PRESENTATION_STYLE_ASSIGNMENT((#201));
#88=VERTEX_POINT('',#202);
#89=PRESENTATION_STYLE_ASSIGNMENT((#203));
#90=VERTEX_POINT('',#204);
#91=PRESENTATION_STYLE_ASSIGNMENT((#205));
#92=EDGE_CURVE('',#170,#116,#206,.T.);
#93=PRESENTATION_STYLE_ASSIGNMENT((#207));
#94=EDGE_CURVE('',#110,#80,#208,.T.);
#95=PRESENTATION_STYLE_ASSIGNMENT((#209));
#96=EDGE_CURVE('',#164,#150,#210,.T.);
#97=PRESENTATION_STYLE_ASSIGNMENT((#211));
#98=EDGE_CURVE('',#150,#126,#212,.T.);
#99=PRESENTATION_STYLE_ASSIGNMENT((#213));
#100=ADVANCED_FACE('',(#214),#215,.T.);
#101=PRESENTATION_STYLE_ASSIGNMENT((#216));
#102=EDGE_CURVE('',#148,#88,#217,.T.);
#103=PRESENTATION_STYLE_ASSIGNMENT((#218));
#104=ADVANCED_FACE('',(#219,#220),#221,.T.);
#105=PRESENTATION_STYLE_ASSIGNMENT((#222));
#106=EDGE_CURVE('',#156,#158,#223,.T.);
#107=PRESENTATION_STYLE_ASSIGNMENT((#224));
#108=ADVANCED_FACE('',(#225),#226,.T.);
#109=PRESENTATION_STYLE_ASSIGNMENT((#227));
#110=VERTEX_POINT('',#228);
#111=PRESENTATION_STYLE_ASSIGNMENT((#229));
#112=EDGE_CURVE('',#146,#110,#230,.T.);
#113=PRESENTATION_STYLE_ASSIGNMENT((#231));
#114=EDGE_CURVE('',#80,#110,#232,.T.);
#115=PRESENTATION_STYLE_ASSIGNMENT((#233));
#116=VERTEX_POINT('',#234);
#117=PRESENTATION_STYLE_ASSIGNMENT((#235));
#118=ADVANCED_FACE('',(#236),#237,.F.);
#119=PRESENTATION_STYLE_ASSIGNMENT((#238));
#120=EDGE_CURVE('',#164,#146,#239,.T.);
#121=PRESENTATION_STYLE_ASSIGNMENT((#240));
#122=MANIFOLD_SOLID_BREP('2',#241);
#123=PRESENTATION_STYLE_ASSIGNMENT((#242));
#124=ADVANCED_FACE('',(#243),#244,.T.);
#125=PRESENTATION_STYLE_ASSIGNMENT((#245));
#126=VERTEX_POINT('',#246);
#127=PRESENTATION_STYLE_ASSIGNMENT((#247));
#128=MANIFOLD_SOLID_BREP('1',#248);
#129=PRESENTATION_STYLE_ASSIGNMENT((#249));
#130=ADVANCED_FACE('',(#250),#251,.T.);
#131=PRESENTATION_STYLE_ASSIGNMENT((#252));
#132=EDGE_CURVE('',#146,#164,#253,.T.);
#133=PRESENTATION_STYLE_ASSIGNMENT((#254));
#134=ADVANCED_FACE('',(#255),#256,.T.);
#135=PRESENTATION_STYLE_ASSIGNMENT((#257));
#136=EDGE_CURVE('',#80,#164,#258,.T.);
#137=PRESENTATION_STYLE_ASSIGNMENT((#259));
#138=ADVANCED_FACE('',(#260),#261,.T.);
#139=PRESENTATION_STYLE_ASSIGNMENT((#262));
#140=EDGE_CURVE('',#126,#146,#263,.T.);
#141=PRESENTATION_STYLE_ASSIGNMENT((#264));
#142=EDGE_CURVE('',#158,#156,#265,.T.);
#143=PRESENTATION_STYLE_ASSIGNMENT((#266));
#144=ADVANCED_FACE('',(#267),#268,.T.);
#145=PRESENTATION_STYLE_ASSIGNMENT((#269));
#146=VERTEX_POINT('',#270);
#147=PRESENTATION_STYLE_ASSIGNMENT((#271));
#148=VERTEX_POINT('',#272);
#149=PRESENTATION_STYLE_ASSIGNMENT((#273));
#150=VERTEX_POINT('',#274);
#151=PRESENTATION_STYLE_ASSIGNMENT((#275));
#152=EDGE_CURVE('',#90,#170,#276,.T.);
#153=PRESENTATION_STYLE_ASSIGNMENT((#277));
#154=EDGE_CURVE('',#88,#148,#278,.T.);
#155=PRESENTATION_STYLE_ASSIGNMENT((#279));
#156=VERTEX_POINT('',#280);
#157=PRESENTATION_STYLE_ASSIGNMENT((#281));
#158=VERTEX_POINT('',#282);
#159=PRESENTATION_STYLE_ASSIGNMENT((#283));
#160=ADVANCED_FACE('',(#284),#285,.T.);
#161=PRESENTATION_STYLE_ASSIGNMENT((#286));
#162=ADVANCED_FACE('',(#287),#288,.T.);
#163=PRESENTATION_STYLE_ASSIGNMENT((#289));
#164=VERTEX_POINT('',#290);
#165=PRESENTATION_STYLE_ASSIGNMENT((#291));
#166=EDGE_CURVE('',#116,#90,#292,.T.);
#167=PRESENTATION_STYLE_ASSIGNMENT((#293));
#168=EDGE_CURVE('',#170,#90,#294,.T.);
#169=PRESENTATION_STYLE_ASSIGNMENT((#295));
#170=VERTEX_POINT('',#296);
#171=PRESENTATION_STYLE_ASSIGNMENT((#297));
#172=EDGE_CURVE('',#148,#156,#298,.T.);
#173=PRODUCT('1','1','PART-1-DESC',(#299));
#174=PRODUCT_DEFINITION('NONE','NONE',#300,#2);
#175=AXIS2_PLACEMENT_3D('',#301,#302,#303);
#176=PRODUCT('2','2','PART-2-DESC',(#304));
#177=PRODUCT_DEFINITION('NONE','NONE',#305,#6);
#178=AXIS2_PLACEMENT_3D('',#306,#307,#308);
#181=LENGTH_MEASURE_WITH_UNIT(LENGTH_MEASURE(1.0),#309);
#184=DIMENSIONAL_EXPONENTS(1.0,0.0,0.0,0.0,0.0,0.0,0.0);
#186=DIMENSIONAL_EXPONENTS(0.0,0.0,0.0,0.0,0.0,0.0,0.0);
#192=POINT_STYLE(' ',#310,POSITIVE_LENGTH_MEASURE(1.0E-006),#311);
#193=CARTESIAN_POINT('',(0.0,-7.9375,-53.89));
#194=CURVE_STYLE('',#312,POSITIVE_LENGTH_MEASURE(1.0E-006),#313);
#195=LINE('',#314,#315);
#196=CURVE_STYLE('',#316,POSITIVE_LENGTH_MEASURE(1.0E-006),#317);
#197=CIRCLE('',#318,7.47908388626344);
#198=SURFACE_STYLE_USAGE(.BOTH.,#319);
#199=FACE_OUTER_BOUND('',#320,.T.);
#200=CONICAL_SURFACE('',#321,4.36295,1.56965031370488);
#201=POINT_STYLE(' ',#322,POSITIVE_LENGTH_MEASURE(1.0E-006),#323);
#202=CARTESIAN_POINT('',(0.0,8.731,-95.19));
#203=POINT_STYLE(' ',#324,POSITIVE_LENGTH_MEASURE(1.0E-006),#325);
#204=CARTESIAN_POINT('',(1.06857925828187E-015,-8.7259,-53.89));
#205=CURVE_STYLE('',#326,POSITIVE_LENGTH_MEASURE(1.0E-006),#327);
#206=LINE('',#328,#329);
#207=CURVE_STYLE('',#330,POSITIVE_LENGTH_MEASURE(1.0E-006),#331);
#208=CIRCLE('',#332,7.9375);
#209=CURVE_STYLE('',#333,POSITIVE_LENGTH_MEASURE(1.0E-006),#334);
#210=LINE('',#335,#336);
#211=CURVE_STYLE('',#337,POSITIVE_LENGTH_MEASURE(1.0E-006),#338);
#212=CIRCLE('',#339,7.47908388626344);
#213=SURFACE_STYLE_USAGE(.BOTH.,#340);
#214=FACE_OUTER_BOUND('',#341,.T.);
#215=CONICAL_SURFACE('',#342,7.70829194313172,0.523598775598301);
#216=CURVE_STYLE('',#343,POSITIVE_LENGTH_MEASURE(1.0E-006),#344);
#217=CIRCLE('',#345,8.731);
#218=SURFACE_STYLE_USAGE(.BOTH.,#346);
#219=FACE_OUTER_BOUND('',#347,.T.);
#220=FACE_BOUND('',#348,.T.);
#221=PLANE('',#349);
#222=CURVE_STYLE('',#350,POSITIVE_LENGTH_MEASURE(1.0E-006),#351);
#223=CIRCLE('',#352,8.7309);
#224=SURFACE_STYLE_USAGE(.BOTH.,#353);
#225=FACE_OUTER_BOUND('',#354,.T.);
#226=CYLINDRICAL_SURFACE('',#355,7.9375);
#227=POINT_STYLE(' ',#356,POSITIVE_LENGTH_MEASURE(1.0E-006),#357);
#228=CARTESIAN_POINT('',(-9.72031293346512E-016,7.9375,-53.89));
#229=CURVE_STYLE('',#358,POSITIVE_LENGTH_MEASURE(1.0E-006),#359);
#230=LINE('',#360,#361);
#231=CURVE_STYLE('',#362,POSITIVE_LENGTH_MEASURE(1.0E-006),#363);
#232=CIRCLE('',#364,7.9375);
#233=POINT_STYLE(' ',#365,POSITIVE_LENGTH_MEASURE(1.0E-006),#366);
#234=CARTESIAN_POINT('',(0.0,0.0,-53.9));
#235=SURFACE_STYLE_USAGE(.BOTH.,#367);
#236=FACE_OUTER_BOUND('',#368,.T.);
#237=CONICAL_SURFACE('',#369,4.36295,1.56965031370488);
#238=CURVE_STYLE('',#370,POSITIVE_LENGTH_MEASURE(1.0E-006),#371);
#239=CIRCLE('',#372,7.9375);
#240=SURFACE_STYLE_USAGE(.BOTH.,#373);
#241=CLOSED_SHELL('',(#130,#134,#162,#160,#100,#108));
#242=SURFACE_STYLE_USAGE(.BOTH.,#374);
#243=FACE_OUTER_BOUND('',#375,.T.);
#244=CONICAL_SURFACE('',#376,8.73095,2.42130750604289E-006);
#245=POINT_STYLE(' ',#377,POSITIVE_LENGTH_MEASURE(1.0E-006),#378);
#246=CARTESIAN_POINT('',(0.0,7.47908388626344,0.00999999999999801));
#247=SURFACE_STYLE_USAGE(.BOTH.,#379);
#248=CLOSED_SHELL('',(#124,#118,#86,#104,#144,#138));
#249=SURFACE_STYLE_USAGE(.BOTH.,#380);
#250=FACE_OUTER_BOUND('',#381,.T.);
#251=CYLINDRICAL_SURFACE('',#382,7.9375);
#252=CURVE_STYLE('',#383,POSITIVE_LENGTH_MEASURE(1.0E-006),#384);
#253=CIRCLE('',#385,7.9375);
#254=SURFACE_STYLE_USAGE(.BOTH.,#386);
#255=FACE_OUTER_BOUND('',#387,.T.);
#256=CONICAL_SURFACE('',#388,7.70829194313172,0.523598775598301);
#257=CURVE_STYLE('',#389,POSITIVE_LENGTH_MEASURE(1.0E-006),#390);
#258=LINE('',#391,#392);
#259=SURFACE_STYLE_USAGE(.BOTH.,#393);
#260=FACE_OUTER_BOUND('',#394,.T.);
#261=PLANE('',#395);
#262=CURVE_STYLE('',#396,POSITIVE_LENGTH_MEASURE(1.0E-006),#397);
#263=LINE('',#398,#399);
#264=CURVE_STYLE('',#400,POSITIVE_LENGTH_MEASURE(1.0E-006),#401);
#265=CIRCLE('',#402,8.7309);
#266=SURFACE_STYLE_USAGE(.BOTH.,#403);
#267=FACE_OUTER_BOUND('',#404,.T.);
#268=CONICAL_SURFACE('',#405,8.73095,2.42130750604289E-006);
#269=POINT_STYLE(' ',#406,POSITIVE_LENGTH_MEASURE(1.0E-006),#407);
#270=CARTESIAN_POINT('',(0.0,7.9375,-0.783999999999999));
#271=POINT_STYLE(' ',#408,POSITIVE_LENGTH_MEASURE(1.0E-006),#409);
#272=CARTESIAN_POINT('',(1.06920380752232E-015,-8.731,-95.19));
#273=POINT_STYLE(' ',#410,POSITIVE_LENGTH_MEASURE(1.0E-006),#411);
#274=CARTESIAN_POINT('',(9.15893364788876E-016,-7.47908388626344,0.00999999999999801));
#275=CURVE_STYLE('',#412,POSITIVE_LENGTH_MEASURE(1.0E-006),#413);
#276=CIRCLE('',#414,8.7259);
#277=CURVE_STYLE('',#415,POSITIVE_LENGTH_MEASURE(1.0E-006),#416);
#278=CIRCLE('',#417,8.731);
#279=POINT_STYLE(' ',#418,POSITIVE_LENGTH_MEASURE(1.0E-006),#419);
#280=CARTESIAN_POINT('',(1.06919156145878E-015,-8.7309,-53.89));
#281=POINT_STYLE(' ',#420,POSITIVE_LENGTH_MEASURE(1.0E-006),#421);
#282=CARTESIAN_POINT('',(0.0,8.7309,-53.89));
#283=SURFACE_STYLE_USAGE(.BOTH.,#422);
#284=FACE_OUTER_BOUND('',#423,.T.);
#285=PLANE('',#424);
#286=SURFACE_STYLE_USAGE(.BOTH.,#425);
#287=FACE_OUTER_BOUND('',#426,.T.);
#288=PLANE('',#427);
#289=POINT_STYLE(' ',#428,POSITIVE_LENGTH_MEASURE(1.0E-006),#429);
#290=CARTESIAN_POINT('',(9.72031293346512E-016,-7.9375,-0.783999999999999));
#291=CURVE_STYLE('',#430,POSITIVE_LENGTH_MEASURE(1.0E-006),#431);
#292=LINE('',#432,#433);
#293=CURVE_STYLE('',#434,POSITIVE_LENGTH_MEASURE(1.0E-006),#435);
#294=CIRCLE('',#436,8.7259);
#295=POINT_STYLE(' ',#437,POSITIVE_LENGTH_MEASURE(1.0E-006),#438);
#296=CARTESIAN_POINT('',(0.0,8.7259,-53.89));
#297=CURVE_STYLE('',#439,POSITIVE_LENGTH_MEASURE(1.0E-006),#440);
#298=LINE('',#441,#442);
#299=PRODUCT_CONTEXT('',#61,'mechanical');
#300=PRODUCT_DEFINITION_FORMATION_WITH_SPECIFIED_SOURCE(' ','NONE',#173,.NOT_KNOWN.);
#301=CARTESIAN_POINT('',(0.0,0.0,0.0));
#302=DIRECTION('',(0.0,0.0,1.0));
#303=DIRECTION('',(1.0,0.0,0.0));
#304=PRODUCT_CONTEXT('',#66,'mechanical');
#305=PRODUCT_DEFINITION_FORMATION_WITH_SPECIFIED_SOURCE(' ','NONE',#176,.NOT_KNOWN.);
#306=CARTESIAN_POINT('',(0.0,0.0,0.0));
#307=DIRECTION('',(0.0,0.0,1.0));
#308=DIRECTION('',(1.0,0.0,0.0));
#309= (NAMED_UNIT(#184)LENGTH_UNIT()SI_UNIT(.MILLI.,.METRE.));
#310=PRE_DEFINED_MARKER('');
#311=COLOUR_RGB('',0.498039215803146,0.498039215803146,0.498039215803146);
#312=DRAUGHTING_PRE_DEFINED_CURVE_FONT('continuous');
#313=COLOUR_RGB('',0.800000011920929,0.800000011920929,0.800000011920929);
#314=CARTESIAN_POINT('',(-1.06919768449055E-015,8.73095,-74.54));
#315=VECTOR('',#444,1.0);
#316=DRAUGHTING_PRE_DEFINED_CURVE_FONT('continuous');
#317=COLOUR_RGB('',0.498039215803146,0.498039215803146,0.498039215803146);
#318=AXIS2_PLACEMENT_3D('',#445,#446,#447);
#319=SURFACE_SIDE_STYLE('',(#448));
#320=EDGE_LOOP('',(#449,#450,#451));
#321=AXIS2_PLACEMENT_3D('',#452,#453,#454);
#322=PRE_DEFINED_MARKER('');
#323=COLOUR_RGB('',0.800000011920929,0.800000011920929,0.800000011920929);
#324=PRE_DEFINED_MARKER('');
#325=COLOUR_RGB('',0.800000011920929,0.800000011920929,0.800000011920929);
#326=DRAUGHTING_PRE_DEFINED_CURVE_FONT('continuous');
#327=COLOUR_RGB('',0.800000011920929,0.800000011920929,0.800000011920929);
#328=CARTESIAN_POINT('',(-5.34289629140934E-016,4.36295,-53.895));
#329=VECTOR('',#455,1.0);
#330=DRAUGHTING_PRE_DEFINED_CURVE_FONT('continuous');
#331=COLOUR_RGB('',0.498039215803146,0.498039215803146,0.498039215803146);
#332=AXIS2_PLACEMENT_3D('',#456,#457,#458);
#333=DRAUGHTING_PRE_DEFINED_CURVE_FONT('continuous');
#334=COLOUR_RGB('',0.498039215803146,0.498039215803146,0.498039215803146);
#335=CARTESIAN_POINT('',(9.43962329067694E-016,-7.70829194313172,-0.387));
#336=VECTOR('',#459,1.0);
#337=DRAUGHTING_PRE_DEFINED_CURVE_FONT('continuous');
#338=COLOUR_RGB('',0.498039215803146,0.498039215803146,0.498039215803146);
#339=AXIS2_PLACEMENT_3D('',#460,#461,#462);
#340=SURFACE_SIDE_STYLE('',(#463));
#341=EDGE_LOOP('',(#464,#465,#466,#467));
#342=AXIS2_PLACEMENT_3D('',#468,#469,#470);
#343=DRAUGHTING_PRE_DEFINED_CURVE_FONT('continuous');
#344=COLOUR_RGB('',0.800000011920929,0.800000011920929,0.800000011920929);
#345=AXIS2_PLACEMENT_3D('',#471,#472,#473);
#346=SURFACE_SIDE_STYLE('',(#474));
#347=EDGE_LOOP('',(#475,#476));
#348=EDGE_LOOP('',(#477,#478));
#349=AXIS2_PLACEMENT_3D('',#479,#480,#481);
#350=DRAUGHTING_PRE_DEFINED_CURVE_FONT('continuous');
#351=COLOUR_RGB('',0.800000011920929,0.800000011920929,0.800000011920929);
#352=AXIS2_PLACEMENT_3D('',#482,#483,#484);
#353=SURFACE_SIDE_STYLE('',(#485));
#354=EDGE_LOOP('',(#486,#487,#488,#489));
#355=AXIS2_PLACEMENT_3D('',#490,#491,#492);
#356=PRE_DEFINED_MARKER('');
#357=COLOUR_RGB('',0.498039215803146,0.498039215803146,0.498039215803146);
#358=DRAUGHTING_PRE_DEFINED_CURVE_FONT('continuous');
#359=COLOUR_RGB('',0.498039215803146,0.498039215803146,0.498039215803146);
#360=CARTESIAN_POINT('',(-9.72031293346512E-016,7.9375,-18.606));
#361=VECTOR('',#493,1.0);
#362=DRAUGHTING_PRE_DEFINED_CURVE_FONT('continuous');
#363=COLOUR_RGB('',0.498039215803146,0.498039215803146,0.498039215803146);
#364=AXIS2_PLACEMENT_3D('',#494,#495,#496);
#365=PRE_DEFINED_MARKER('');
#366=COLOUR_RGB('',0.800000011920929,0.800000011920929,0.800000011920929);
#367=SURFACE_SIDE_STYLE('',(#497));
#368=EDGE_LOOP('',(#498,#499,#500));
#369=AXIS2_PLACEMENT_3D('',#501,#502,#503);
#370=DRAUGHTING_PRE_DEFINED_CURVE_FONT('continuous');
#371=COLOUR_RGB('',0.498039215803146,0.498039215803146,0.498039215803146);
#372=AXIS2_PLACEMENT_3D('',#504,#505,#506);
#373=SURFACE_SIDE_STYLE('',(#507));
#374=SURFACE_SIDE_STYLE('',(#508));
#375=EDGE_LOOP('',(#509,#510,#511,#512));
#376=AXIS2_PLACEMENT_3D('',#513,#514,#515);
#377=PRE_DEFINED_MARKER('');
#378=COLOUR_RGB('',0.498039215803146,0.498039215803146,0.498039215803146);
#379=SURFACE_SIDE_STYLE('',(#516));
#380=SURFACE_SIDE_STYLE('',(#517));
#381=EDGE_LOOP('',(#518,#519,#520,#521));
#382=AXIS2_PLACEMENT_3D('',#522,#523,#524);
#383=DRAUGHTING_PRE_DEFINED_CURVE_FONT('continuous');
#384=COLOUR_RGB('',0.498039215803146,0.498039215803146,0.498039215803146);
#385=AXIS2_PLACEMENT_3D('',#525,#526,#527);
#386=SURFACE_SIDE_STYLE('',(#528));
#387=EDGE_LOOP('',(#529,#530,#531,#532));
#388=AXIS2_PLACEMENT_3D('',#533,#534,#535);
#389=DRAUGHTING_PRE_DEFINED_CURVE_FONT('continuous');
#390=COLOUR_RGB('',0.498039215803146,0.498039215803146,0.498039215803146);
#391=CARTESIAN_POINT('',(9.72031293346512E-016,-7.9375,-18.606));
#392=VECTOR('',#536,1.0);
#393=SURFACE_SIDE_STYLE('',(#537));
#394=EDGE_LOOP('',(#538,#539));
#395=AXIS2_PLACEMENT_3D('',#540,#541,#542);
#396=DRAUGHTING_PRE_DEFINED_CURVE_FONT('continuous');
#397=COLOUR_RGB('',0.498039215803146,0.498039215803146,0.498039215803146);
#398=CARTESIAN_POINT('',(-9.43962329067694E-016,7.70829194313172,-0.387));
#399=VECTOR('',#543,1.0);
#400=DRAUGHTING_PRE_DEFINED_CURVE_FONT('continuous');
#401=COLOUR_RGB('',0.800000011920929,0.800000011920929,0.800000011920929);
#402=AXIS2_PLACEMENT_3D('',#544,#545,#546);
#403=SURFACE_SIDE_STYLE('',(#547));
#404=EDGE_LOOP('',(#548,#549,#550,#551));
#405=AXIS2_PLACEMENT_3D('',#552,#553,#554);
#406=PRE_DEFINED_MARKER('');
#407=COLOUR_RGB('',0.498039215803146,0.498039215803146,0.498039215803146);
#408=PRE_DEFINED_MARKER('');
#409=COLOUR_RGB('',0.800000011920929,0.800000011920929,0.800000011920929);
#410=PRE_DEFINED_MARKER('');
#411=COLOUR_RGB('',0.498039215803146,0.498039215803146,0.498039215803146);
#412=DRAUGHTING_PRE_DEFINED_CURVE_FONT('continuous');
#413=COLOUR_RGB('',0.800000011920929,0.800000011920929,0.800000011920929);
#414=AXIS2_PLACEMENT_3D('',#555,#556,#557);
#415=DRAUGHTING_PRE_DEFINED_CURVE_FONT('continuous');
#416=COLOUR_RGB('',0.800000011920929,0.800000011920929,0.800000011920929);
#417=AXIS2_PLACEMENT_3D('',#558,#559,#560);
#418=PRE_DEFINED_MARKER('');
#419=COLOUR_RGB('',0.800000011920929,0.800000011920929,0.800000011920929);
#420=PRE_DEFINED_MARKER('');
#421=COLOUR_RGB('',0.800000011920929,0.800000011920929,0.800000011920929);
#422=SURFACE_SIDE_STYLE('',(#561));
#423=EDGE_LOOP('',(#562,#563));
#424=AXIS2_PLACEMENT_3D('',#564,#565,#566);
#425=SURFACE_SIDE_STYLE('',(#567));
#426=EDGE_LOOP('',(#568,#569));
#427=AXIS2_PLACEMENT_3D('',#570,#571,#572);
#428=PRE_DEFINED_MARKER('');
#429=COLOUR_RGB('',0.498039215803146,0.498039215803146,0.498039215803146);
#430=DRAUGHTING_PRE_DEFINED_CURVE_FONT('continuous');
#431=COLOUR_RGB('',0.800000011920929,0.800000011920929,0.800000011920929);
#432=CARTESIAN_POINT('',(5.34289629140934E-016,-4.36295,-53.895));
#433=VECTOR('',#573,1.0);
#434=DRAUGHTING_PRE_DEFINED_CURVE_FONT('continuous');
#435=COLOUR_RGB('',0.800000011920929,0.800000011920929,0.800000011920929);
#436=AXIS2_PLACEMENT_3D('',#574,#575,#576);
#437=PRE_DEFINED_MARKER('');
#438=COLOUR_RGB('',0.800000011920929,0.800000011920929,0.800000011920929);
#439=DRAUGHTING_PRE_DEFINED_CURVE_FONT('continuous');
#440=COLOUR_RGB('',0.800000011920929,0.800000011920929,0.800000011920929);
#441=CARTESIAN_POINT('',(1.06919768449055E-015,-8.73095,-74.54));
#442=VECTOR('',#577,1.0);
#444=DIRECTION('',(-2.96514855645505E-022,2.42130750604053E-006,-0.999999999997069));
#445=CARTESIAN_POINT('',(0.0,0.0,0.00999999999999801));
#446=DIRECTION('',(0.0,0.0,-1.0));
#447=DIRECTION('',(0.0,1.0,0.0));
#448=SURFACE_STYLE_FILL_AREA(#578);
#449=ORIENTED_EDGE('',*,*,#166,.T.);
#450=ORIENTED_EDGE('',*,*,#168,.F.);
#451=ORIENTED_EDGE('',*,*,#92,.T.);
#452=CARTESIAN_POINT('',(0.0,0.0,-53.895));
#453=DIRECTION('',(-0.0,-0.0,1.0));
#454=DIRECTION('',(0.0,1.0,0.0));
#455=DIRECTION('',(1.22460554965654E-016,-0.999999343327071,-0.00114601283916462));
#456=CARTESIAN_POINT('',(0.0,0.0,-53.89));
#457=DIRECTION('',(0.0,0.0,-1.0));
#458=DIRECTION('',(0.0,-1.0,0.0));
#459=DIRECTION('',(-6.12303176911191E-017,0.500000000000002,0.866025403784438));
#460=CARTESIAN_POINT('',(0.0,0.0,0.00999999999999801));
#461=DIRECTION('',(0.0,0.0,-1.0));
#462=DIRECTION('',(0.0,1.0,0.0));
#463=SURFACE_STYLE_FILL_AREA(#579);
#464=ORIENTED_EDGE('',*,*,#140,.T.);
#465=ORIENTED_EDGE('',*,*,#120,.F.);
#466=ORIENTED_EDGE('',*,*,#96,.T.);
#467=ORIENTED_EDGE('',*,*,#98,.T.);
#468=CARTESIAN_POINT('',(0.0,0.0,-0.387));
#469=DIRECTION('',(0.0,-0.0,-1.0));
#470=DIRECTION('',(0.0,1.0,0.0));
#471=CARTESIAN_POINT('',(0.0,0.0,-95.19));
#472=DIRECTION('',(0.0,0.0,-1.0));
#473=DIRECTION('',(0.0,1.0,0.0));
#474=SURFACE_STYLE_FILL_AREA(#580);
#475=ORIENTED_EDGE('',*,*,#142,.F.);
#476=ORIENTED_EDGE('',*,*,#106,.F.);
#477=ORIENTED_EDGE('',*,*,#168,.T.);
#478=ORIENTED_EDGE('',*,*,#152,.T.);
#479=CARTESIAN_POINT('',(0.0,8.7284,-53.89));
#480=DIRECTION('',(-0.0,0.0,1.0));
#481=DIRECTION('',(0.0,-1.0,0.0));
#482=CARTESIAN_POINT('',(0.0,0.0,-53.89));
#483=DIRECTION('',(0.0,0.0,-1.0));
#484=DIRECTION('',(0.0,1.0,0.0));
#485=SURFACE_STYLE_FILL_AREA(#581);
#486=ORIENTED_EDGE('',*,*,#112,.T.);
#487=ORIENTED_EDGE('',*,*,#114,.F.);
#488=ORIENTED_EDGE('',*,*,#136,.T.);
#489=ORIENTED_EDGE('',*,*,#120,.T.);
#490=CARTESIAN_POINT('',(0.0,0.0,-18.606));
#491=DIRECTION('',(-0.0,-0.0,1.0));
#492=DIRECTION('',(0.0,1.0,0.0));
#493=DIRECTION('',(0.0,0.0,-1.0));
#494=CARTESIAN_POINT('',(0.0,0.0,-53.89));
#495=DIRECTION('',(0.0,0.0,-1.0));
#496=DIRECTION('',(0.0,-1.0,0.0));
#497=SURFACE_STYLE_FILL_AREA(#582);
#498=ORIENTED_EDGE('',*,*,#166,.F.);
#499=ORIENTED_EDGE('',*,*,#92,.F.);
#500=ORIENTED_EDGE('',*,*,#152,.F.);
#501=CARTESIAN_POINT('',(0.0,0.0,-53.895));
#502=DIRECTION('',(-0.0,-0.0,1.0));
#503=DIRECTION('',(0.0,1.0,0.0));
#504=CARTESIAN_POINT('',(0.0,0.0,-0.783999999999999));
#505=DIRECTION('',(0.0,0.0,-1.0));
#506=DIRECTION('',(0.0,1.0,0.0));
#507=SURFACE_STYLE_FILL_AREA(#583);
#508=SURFACE_STYLE_FILL_AREA(#584);
#509=ORIENTED_EDGE('',*,*,#82,.F.);
#510=ORIENTED_EDGE('',*,*,#142,.T.);
#511=ORIENTED_EDGE('',*,*,#172,.F.);
#512=ORIENTED_EDGE('',*,*,#154,.F.);
#513=CARTESIAN_POINT('',(0.0,0.0,-74.54));
#514=DIRECTION('',(0.0,-0.0,-1.0));
#515=DIRECTION('',(0.0,1.0,0.0));
#516=SURFACE_STYLE_FILL_AREA(#585);
#517=SURFACE_STYLE_FILL_AREA(#586);
#518=ORIENTED_EDGE('',*,*,#112,.F.);
#519=ORIENTED_EDGE('',*,*,#132,.T.);
#520=ORIENTED_EDGE('',*,*,#136,.F.);
#521=ORIENTED_EDGE('',*,*,#94,.F.);
#522=CARTESIAN_POINT('',(0.0,0.0,-18.606));
#523=DIRECTION('',(-0.0,-0.0,1.0));
#524=DIRECTION('',(0.0,1.0,0.0));
#525=CARTESIAN_POINT('',(0.0,0.0,-0.783999999999999));
#526=DIRECTION('',(0.0,0.0,-1.0));
#527=DIRECTION('',(0.0,1.0,0.0));
#528=SURFACE_STYLE_FILL_AREA(#587);
#529=ORIENTED_EDGE('',*,*,#140,.F.);
#530=ORIENTED_EDGE('',*,*,#84,.T.);
#531=ORIENTED_EDGE('',*,*,#96,.F.);
#532=ORIENTED_EDGE('',*,*,#132,.F.);
#533=CARTESIAN_POINT('',(0.0,0.0,-0.387));
#534=DIRECTION('',(0.0,-0.0,-1.0));
#535=DIRECTION('',(0.0,1.0,0.0));
#536=DIRECTION('',(-0.0,-0.0,1.0));
#537=SURFACE_STYLE_FILL_AREA(#588);
#538=ORIENTED_EDGE('',*,*,#154,.T.);
#539=ORIENTED_EDGE('',*,*,#102,.T.);
#540=CARTESIAN_POINT('',(0.0,4.363,-95.19));
#541=DIRECTION('',(0.0,0.0,-1.0));
#542=DIRECTION('',(0.0,1.0,0.0));
#543=DIRECTION('',(-6.12303176911191E-017,0.500000000000002,-0.866025403784438));
#544=CARTESIAN_POINT('',(0.0,0.0,-53.89));
#545=DIRECTION('',(0.0,0.0,-1.0));
#546=DIRECTION('',(0.0,1.0,0.0));
#547=SURFACE_STYLE_FILL_AREA(#589);
#548=ORIENTED_EDGE('',*,*,#82,.T.);
#549=ORIENTED_EDGE('',*,*,#102,.F.);
#550=ORIENTED_EDGE('',*,*,#172,.T.);
#551=ORIENTED_EDGE('',*,*,#106,.T.);
#552=CARTESIAN_POINT('',(0.0,0.0,-74.54));
#553=DIRECTION('',(0.0,-0.0,-1.0));
#554=DIRECTION('',(0.0,1.0,0.0));
#555=CARTESIAN_POINT('',(0.0,0.0,-53.89));
#556=DIRECTION('',(0.0,0.0,-1.0));
#557=DIRECTION('',(0.0,1.0,0.0));
#558=CARTESIAN_POINT('',(0.0,0.0,-95.19));
#559=DIRECTION('',(0.0,0.0,-1.0));
#560=DIRECTION('',(0.0,1.0,0.0));
#561=SURFACE_STYLE_FILL_AREA(#590);
#562=ORIENTED_EDGE('',*,*,#84,.F.);
#563=ORIENTED_EDGE('',*,*,#98,.F.);
#564=CARTESIAN_POINT('',(0.0,3.73954194313172,0.00999999999999801));
#565=DIRECTION('',(-0.0,0.0,1.0));
#566=DIRECTION('',(0.0,-1.0,0.0));
#567=SURFACE_STYLE_FILL_AREA(#591);
#568=ORIENTED_EDGE('',*,*,#114,.T.);
#569=ORIENTED_EDGE('',*,*,#94,.T.);
#570=CARTESIAN_POINT('',(0.0,0.0,-53.89));
#571=DIRECTION('',(0.0,0.0,-1.0));
#572=DIRECTION('',(0.0,-1.0,0.0));
#573=DIRECTION('',(1.22460554965654E-016,-0.999999343327071,0.00114601283916462));
#574=CARTESIAN_POINT('',(0.0,0.0,-53.89));
#575=DIRECTION('',(0.0,0.0,-1.0));
#576=DIRECTION('',(0.0,1.0,0.0));
#577=DIRECTION('',(-2.96514855645505E-022,2.42130750604053E-006,0.999999999997069));
#578=FILL_AREA_STYLE('',(#592));
#579=FILL_AREA_STYLE('',(#593));
#580=FILL_AREA_STYLE('',(#594));
#581=FILL_AREA_STYLE('',(#595));
#582=FILL_AREA_STYLE('',(#596));
#583=FILL_AREA_STYLE('',(#597));
#584=FILL_AREA_STYLE('',(#598));
#585=FILL_AREA_STYLE('',(#599));
#586=FILL_AREA_STYLE('',(#600));
#587=FILL_AREA_STYLE('',(#601));
#588=FILL_AREA_STYLE('',(#602));
#589=FILL_AREA_STYLE('',(#603));
#590=FILL_AREA_STYLE('',(#604));
#591=FILL_AREA_STYLE('',(#605));
#592=FILL_AREA_STYLE_COLOUR('',#606);
#593=FILL_AREA_STYLE_COLOUR('',#607);
#594=FILL_AREA_STYLE_COLOUR('',#608);
#595=FILL_AREA_STYLE_COLOUR('',#609);
#596=FILL_AREA_STYLE_COLOUR('',#610);
#597=FILL_AREA_STYLE_COLOUR('',#611);
#598=FILL_AREA_STYLE_COLOUR('',#612);
#599=FILL_AREA_STYLE_COLOUR('',#613);
#600=FILL_AREA_STYLE_COLOUR('',#614);
#601=FILL_AREA_STYLE_COLOUR('',#615);
#602=FILL_AREA_STYLE_COLOUR('',#616);
#603=FILL_AREA_STYLE_COLOUR('',#617);
#604=FILL_AREA_STYLE_COLOUR('',#618);
#605=FILL_AREA_STYLE_COLOUR('',#619);
#606=COLOUR_RGB('',0.800000011920929,0.800000011920929,0.800000011920929);
#607=COLOUR_RGB('',0.498039215803146,0.498039215803146,0.498039215803146);
#608=COLOUR_RGB('',0.800000011920929,0.800000011920929,0.800000011920929);
#609=COLOUR_RGB('',0.498039215803146,0.498039215803146,0.498039215803146);
#610=COLOUR_RGB('',0.800000011920929,0.800000011920929,0.800000011920929);
#611=COLOUR_RGB('',0.800000011920929,0.800000011920929,0.800000011920929);
#612=COLOUR_RGB('',0.800000011920929,0.800000011920929,0.800000011920929);
#613=COLOUR_RGB('',0.800000011920929,0.800000011920929,0.800000011920929);
#614=COLOUR_RGB('',0.498039215803146,0.498039215803146,0.498039215803146);
#615=COLOUR_RGB('',0.498039215803146,0.498039215803146,0.498039215803146);
#616=COLOUR_RGB('',0.800000011920929,0.800000011920929,0.800000011920929);
#617=COLOUR_RGB('',0.800000011920929,0.800000011920929,0.800000011920929);
#618=COLOUR_RGB('',0.498039215803146,0.498039215803146,0.498039215803146);
#619=COLOUR_RGB('',0.498039215803146,0.498039215803146,0.498039215803146);
#620=AXIS2_PLACEMENT_3D('PCS',#621,#622,#623);
#621=CARTESIAN_POINT('',(0.0,0.0,0.0));
#622=DIRECTION('',(0.0,0.0,1.0));
#623=DIRECTION('',(1.0,0.0,0.0));
#624=AXIS2_PLACEMENT_3D('CIP',#625,#626,#627);
#625=CARTESIAN_POINT('',(0.0,0.0,-95.2));
#626=DIRECTION('',(0.0,0.0,1.0));
#627=DIRECTION('',(1.0,0.0,0.0));
#628=AXIS2_PLACEMENT_3D('CRP',#629,#630,#631);
#629=CARTESIAN_POINT('',(-8.731,0.0,-95.2));
#630=DIRECTION('',(0.0,0.0,1.0));
#631=DIRECTION('',(1.0,0.0,0.0));
#632=AXIS2_PLACEMENT_3D('MCS',#633,#634,#635);
#633=CARTESIAN_POINT('',(0.0,0.0,-36.438));
#634=DIRECTION('',(0.0,0.0,1.0));
#635=DIRECTION('',(1.0,0.0,0.0));
#636=CONSTRUCTIVE_GEOMETRY_REPRESENTATION_RELATIONSHIP('coordinate systems',$,#65,#637);
#637=CONSTRUCTIVE_GEOMETRY_REPRESENTATION('coordinate systems',(#620,#624,#628,#632),#10);
ENDSEC;
END-ISO-10303-21;
