ISO-10303-21;
HEADER;
FILE_DESCRIPTION(('no description'),'unknown implementation level');
FILE_NAME('solidgwhfDj8x_hKijD_2vUe38lEqJMk_1.STP','  ',('CIMSOURCE GmbH'),('CADClick - KiM GmbH - www.kimweb.de'),'unknown preprocess','ACIS','unknown authorization');
FILE_SCHEMA(('automotive_design'));
ENDSEC;
DATA;
#1=MECHANICAL_DESIGN_GEOMETRIC_PRESENTATION_REPRESENTATION(' ',(#14,#15,#16,#17,#18,#19,#20,#21,#22,#23,#24,#25,#26,#27,#28,#29,#30,#31,#32,#33,#34,#35,#36,#37,#38,#39,#40,#41,#42,#43,#44,#45,#46,#47,#48,#49,#50,#51,#52,#53,#54,#55,#56,#57,#58,#59,#60),#10);
#2=PRODUCT_DEFINITION_CONTEXT('',#61,'design');
#3=APPLICATION_PROTOCOL_DEFINITION('INTERNATIONAL STANDARD','automotive_design',1994,#61);
#4=PRODUCT_CATEGORY_RELATIONSHIP('NONE','NONE',#62,#63);
#5=SHAPE_DEFINITION_REPRESENTATION(#64,#65);
#6=PRODUCT_DEFINITION_CONTEXT('',#66,'design');
#7=APPLICATION_PROTOCOL_DEFINITION('INTERNATIONAL STANDARD','automotive_design',1994,#66);
#8=PRODUCT_CATEGORY_RELATIONSHIP('NONE','NONE',#67,#68);
#9=SHAPE_DEFINITION_REPRESENTATION(#69,#70);
#10= (GEOMETRIC_REPRESENTATION_CONTEXT(3)GLOBAL_UNCERTAINTY_ASSIGNED_CONTEXT((#73))GLOBAL_UNIT_ASSIGNED_CONTEXT((#75,#76,#77))REPRESENTATION_CONTEXT('NONE','WORKSPACE'));
#14=STYLED_ITEM('',(#79),#80);
#15=STYLED_ITEM('',(#81),#82);
#16=STYLED_ITEM('',(#83),#84);
#17=STYLED_ITEM('',(#85),#86);
#18=STYLED_ITEM('',(#87),#88);
#19=STYLED_ITEM('',(#89),#90);
#20=STYLED_ITEM('',(#91),#92);
#21=STYLED_ITEM('',(#93),#94);
#22=STYLED_ITEM('',(#95),#96);
#23=STYLED_ITEM('',(#97),#98);
#24=STYLED_ITEM('',(#99),#100);
#25=STYLED_ITEM('',(#101),#102);
#26=STYLED_ITEM('',(#103),#104);
#27=STYLED_ITEM('',(#105),#106);
#28=STYLED_ITEM('',(#107),#108);
#29=STYLED_ITEM('',(#109),#110);
#30=STYLED_ITEM('',(#111),#112);
#31=STYLED_ITEM('',(#113),#114);
#32=STYLED_ITEM('',(#115),#116);
#33=STYLED_ITEM('',(#117),#118);
#34=STYLED_ITEM('',(#119),#120);
#35=STYLED_ITEM('',(#121),#122);
#36=STYLED_ITEM('',(#123),#124);
#37=STYLED_ITEM('',(#125),#126);
#38=STYLED_ITEM('',(#127),#128);
#39=STYLED_ITEM('',(#129),#130);
#40=STYLED_ITEM('',(#131),#132);
#41=STYLED_ITEM('',(#133),#134);
#42=STYLED_ITEM('',(#135),#136);
#43=STYLED_ITEM('',(#137),#138);
#44=STYLED_ITEM('',(#139),#140);
#45=STYLED_ITEM('',(#141),#142);
#46=STYLED_ITEM('',(#143),#144);
#47=STYLED_ITEM('',(#145),#146);
#48=STYLED_ITEM('',(#147),#148);
#49=STYLED_ITEM('',(#149),#150);
#50=STYLED_ITEM('',(#151),#152);
#51=STYLED_ITEM('',(#153),#154);
#52=STYLED_ITEM('',(#155),#156);
#53=STYLED_ITEM('',(#157),#158);
#54=STYLED_ITEM('',(#159),#160);
#55=STYLED_ITEM('',(#161),#162);
#56=STYLED_ITEM('',(#163),#164);
#57=STYLED_ITEM('',(#165),#166);
#58=STYLED_ITEM('',(#167),#168);
#59=STYLED_ITEM('',(#169),#170);
#60=STYLED_ITEM('',(#171),#172);
#61=APPLICATION_CONTEXT(' ');
#62=PRODUCT_CATEGORY('part','NONE');
#63=PRODUCT_RELATED_PRODUCT_CATEGORY('detail',' ',(#173));
#64=PRODUCT_DEFINITION_SHAPE('NONE','NONE',#174);
#65=ADVANCED_BREP_SHAPE_REPRESENTATION('1',(#160,#175),#10);
#66=APPLICATION_CONTEXT(' ');
#67=PRODUCT_CATEGORY('part','NONE');
#68=PRODUCT_RELATED_PRODUCT_CATEGORY('detail',' ',(#176));
#69=PRODUCT_DEFINITION_SHAPE('NONE','NONE',#177);
#70=ADVANCED_BREP_SHAPE_REPRESENTATION('2',(#162,#178),#10);
#73=UNCERTAINTY_MEASURE_WITH_UNIT(LENGTH_MEASURE(1.0E-006),#75,'','');
#75= (CONVERSION_BASED_UNIT('MILLIMETRE',#181)LENGTH_UNIT()NAMED_UNIT(#184));
#76= (NAMED_UNIT(#186)PLANE_ANGLE_UNIT()SI_UNIT($,.RADIAN.));
#77= (NAMED_UNIT(#186)SOLID_ANGLE_UNIT()SI_UNIT($,.STERADIAN.));
#79=PRESENTATION_STYLE_ASSIGNMENT((#192));
#80=EDGE_CURVE('',#82,#84,#193,.T.);
#81=PRESENTATION_STYLE_ASSIGNMENT((#194));
#82=VERTEX_POINT('',#195);
#83=PRESENTATION_STYLE_ASSIGNMENT((#196));
#84=VERTEX_POINT('',#197);
#85=PRESENTATION_STYLE_ASSIGNMENT((#198));
#86=VERTEX_POINT('',#199);
#87=PRESENTATION_STYLE_ASSIGNMENT((#200));
#88=ADVANCED_FACE('',(#201),#202,.T.);
#89=PRESENTATION_STYLE_ASSIGNMENT((#203));
#90=ADVANCED_FACE('',(#204),#205,.T.);
#91=PRESENTATION_STYLE_ASSIGNMENT((#206));
#92=VERTEX_POINT('',#207);
#93=PRESENTATION_STYLE_ASSIGNMENT((#208));
#94=VERTEX_POINT('',#209);
#95=PRESENTATION_STYLE_ASSIGNMENT((#210));
#96=EDGE_CURVE('',#120,#158,#211,.T.);
#97=PRESENTATION_STYLE_ASSIGNMENT((#212));
#98=EDGE_CURVE('',#104,#116,#213,.T.);
#99=PRESENTATION_STYLE_ASSIGNMENT((#214));
#100=EDGE_CURVE('',#94,#150,#215,.T.);
#101=PRESENTATION_STYLE_ASSIGNMENT((#216));
#102=ADVANCED_FACE('',(#217),#218,.F.);
#103=PRESENTATION_STYLE_ASSIGNMENT((#219));
#104=VERTEX_POINT('',#220);
#105=PRESENTATION_STYLE_ASSIGNMENT((#221));
#106=EDGE_CURVE('',#120,#138,#222,.T.);
#107=PRESENTATION_STYLE_ASSIGNMENT((#223));
#108=VERTEX_POINT('',#224);
#109=PRESENTATION_STYLE_ASSIGNMENT((#225));
#110=EDGE_CURVE('',#150,#108,#226,.T.);
#111=PRESENTATION_STYLE_ASSIGNMENT((#227));
#112=EDGE_CURVE('',#150,#94,#228,.T.);
#113=PRESENTATION_STYLE_ASSIGNMENT((#229));
#114=EDGE_CURVE('',#92,#94,#230,.T.);
#115=PRESENTATION_STYLE_ASSIGNMENT((#231));
#116=VERTEX_POINT('',#232);
#117=PRESENTATION_STYLE_ASSIGNMENT((#233));
#118=EDGE_CURVE('',#94,#116,#234,.T.);
#119=PRESENTATION_STYLE_ASSIGNMENT((#235));
#120=VERTEX_POINT('',#236);
#121=PRESENTATION_STYLE_ASSIGNMENT((#237));
#122=EDGE_CURVE('',#136,#86,#238,.T.);
#123=PRESENTATION_STYLE_ASSIGNMENT((#239));
#124=ADVANCED_FACE('',(#240),#241,.T.);
#125=PRESENTATION_STYLE_ASSIGNMENT((#242));
#126=EDGE_CURVE('',#158,#138,#243,.T.);
#127=PRESENTATION_STYLE_ASSIGNMENT((#244));
#128=EDGE_CURVE('',#116,#104,#245,.T.);
#129=PRESENTATION_STYLE_ASSIGNMENT((#246));
#130=EDGE_CURVE('',#84,#86,#247,.T.);
#131=PRESENTATION_STYLE_ASSIGNMENT((#248));
#132=ADVANCED_FACE('',(#249),#250,.T.);
#133=PRESENTATION_STYLE_ASSIGNMENT((#251));
#134=ADVANCED_FACE('',(#252,#253),#254,.T.);
#135=PRESENTATION_STYLE_ASSIGNMENT((#255));
#136=VERTEX_POINT('',#256);
#137=PRESENTATION_STYLE_ASSIGNMENT((#257));
#138=VERTEX_POINT('',#258);
#139=PRESENTATION_STYLE_ASSIGNMENT((#259));
#140=ADVANCED_FACE('',(#260),#261,.T.);
#141=PRESENTATION_STYLE_ASSIGNMENT((#262));
#142=EDGE_CURVE('',#84,#82,#263,.T.);
#143=PRESENTATION_STYLE_ASSIGNMENT((#264));
#144=EDGE_CURVE('',#86,#136,#265,.T.);
#145=PRESENTATION_STYLE_ASSIGNMENT((#266));
#146=ADVANCED_FACE('',(#267),#268,.F.);
#147=PRESENTATION_STYLE_ASSIGNMENT((#269));
#148=ADVANCED_FACE('',(#270),#271,.T.);
#149=PRESENTATION_STYLE_ASSIGNMENT((#272));
#150=VERTEX_POINT('',#273);
#151=PRESENTATION_STYLE_ASSIGNMENT((#274));
#152=EDGE_CURVE('',#108,#92,#275,.T.);
#153=PRESENTATION_STYLE_ASSIGNMENT((#276));
#154=EDGE_CURVE('',#104,#150,#277,.T.);
#155=PRESENTATION_STYLE_ASSIGNMENT((#278));
#156=ADVANCED_FACE('',(#279),#280,.T.);
#157=PRESENTATION_STYLE_ASSIGNMENT((#281));
#158=VERTEX_POINT('',#282);
#159=PRESENTATION_STYLE_ASSIGNMENT((#283));
#160=MANIFOLD_SOLID_BREP('1',#284);
#161=PRESENTATION_STYLE_ASSIGNMENT((#285));
#162=MANIFOLD_SOLID_BREP('2',#286);
#163=PRESENTATION_STYLE_ASSIGNMENT((#287));
#164=EDGE_CURVE('',#138,#120,#288,.T.);
#165=PRESENTATION_STYLE_ASSIGNMENT((#289));
#166=EDGE_CURVE('',#92,#108,#290,.T.);
#167=PRESENTATION_STYLE_ASSIGNMENT((#291));
#168=ADVANCED_FACE('',(#292),#293,.T.);
#169=PRESENTATION_STYLE_ASSIGNMENT((#294));
#170=ADVANCED_FACE('',(#295),#296,.T.);
#171=PRESENTATION_STYLE_ASSIGNMENT((#297));
#172=EDGE_CURVE('',#136,#82,#298,.T.);
#173=PRODUCT('1','1','PART-1-DESC',(#299));
#174=PRODUCT_DEFINITION('NONE','NONE',#300,#2);
#175=AXIS2_PLACEMENT_3D('',#301,#302,#303);
#176=PRODUCT('2','2','PART-2-DESC',(#304));
#177=PRODUCT_DEFINITION('NONE','NONE',#305,#6);
#178=AXIS2_PLACEMENT_3D('',#306,#307,#308);
#181=LENGTH_MEASURE_WITH_UNIT(LENGTH_MEASURE(1.0),#309);
#184=DIMENSIONAL_EXPONENTS(1.0,0.0,0.0,0.0,0.0,0.0,0.0);
#186=DIMENSIONAL_EXPONENTS(0.0,0.0,0.0,0.0,0.0,0.0,0.0);
#192=CURVE_STYLE('',#310,POSITIVE_LENGTH_MEASURE(1.0E-006),#311);
#193=CIRCLE('',#312,9.9219);
#194=POINT_STYLE(' ',#313,POSITIVE_LENGTH_MEASURE(1.0E-006),#314);
#195=CARTESIAN_POINT('',(1.21504217819902E-015,-9.9219,-53.99));
#196=POINT_STYLE(' ',#315,POSITIVE_LENGTH_MEASURE(1.0E-006),#316);
#197=CARTESIAN_POINT('',(0.0,9.9219,-53.99));
#198=POINT_STYLE(' ',#317,POSITIVE_LENGTH_MEASURE(1.0E-006),#318);
#199=CARTESIAN_POINT('',(0.0,9.922,-101.59));
#200=SURFACE_STYLE_USAGE(.BOTH.,#319);
#201=FACE_OUTER_BOUND('',#320,.T.);
#202=CONICAL_SURFACE('',#321,9.92195,2.10084033612647E-006);
#203=SURFACE_STYLE_USAGE(.BOTH.,#322);
#204=FACE_OUTER_BOUND('',#323,.T.);
#205=PLANE('',#324);
#206=POINT_STYLE(' ',#325,POSITIVE_LENGTH_MEASURE(1.0E-006),#326);
#207=CARTESIAN_POINT('',(0.0,-7.9375,-53.99));
#208=POINT_STYLE(' ',#327,POSITIVE_LENGTH_MEASURE(1.0E-006),#328);
#209=CARTESIAN_POINT('',(9.72031293346512E-016,-7.9375,-0.783999999999992));
#210=CURVE_STYLE('',#329,POSITIVE_LENGTH_MEASURE(1.0E-006),#330);
#211=LINE('',#331,#332);
#212=CURVE_STYLE('',#333,POSITIVE_LENGTH_MEASURE(1.0E-006),#334);
#213=CIRCLE('',#335,7.47908388626344);
#214=CURVE_STYLE('',#336,POSITIVE_LENGTH_MEASURE(1.0E-006),#337);
#215=CIRCLE('',#338,7.9375);
#216=SURFACE_STYLE_USAGE(.BOTH.,#339);
#217=FACE_OUTER_BOUND('',#340,.T.);
#218=CONICAL_SURFACE('',#341,4.95845,1.56978794750192);
#219=POINT_STYLE(' ',#342,POSITIVE_LENGTH_MEASURE(1.0E-006),#343);
#220=CARTESIAN_POINT('',(0.0,7.47908388626344,0.0100000000000051));
#221=CURVE_STYLE('',#344,POSITIVE_LENGTH_MEASURE(1.0E-006),#345);
#222=CIRCLE('',#346,9.9169);
#223=POINT_STYLE(' ',#347,POSITIVE_LENGTH_MEASURE(1.0E-006),#348);
#224=CARTESIAN_POINT('',(-9.72031293346512E-016,7.9375,-53.99));
#225=CURVE_STYLE('',#349,POSITIVE_LENGTH_MEASURE(1.0E-006),#350);
#226=LINE('',#351,#352);
#227=CURVE_STYLE('',#353,POSITIVE_LENGTH_MEASURE(1.0E-006),#354);
#228=CIRCLE('',#355,7.9375);
#229=CURVE_STYLE('',#356,POSITIVE_LENGTH_MEASURE(1.0E-006),#357);
#230=LINE('',#358,#359);
#231=POINT_STYLE(' ',#360,POSITIVE_LENGTH_MEASURE(1.0E-006),#361);
#232=CARTESIAN_POINT('',(9.15893364788876E-016,-7.47908388626344,0.0100000000000051));
#233=CURVE_STYLE('',#362,POSITIVE_LENGTH_MEASURE(1.0E-006),#363);
#234=LINE('',#364,#365);
#235=POINT_STYLE(' ',#366,POSITIVE_LENGTH_MEASURE(1.0E-006),#367);
#236=CARTESIAN_POINT('',(0.0,9.9169,-53.99));
#237=CURVE_STYLE('',#368,POSITIVE_LENGTH_MEASURE(1.0E-006),#369);
#238=CIRCLE('',#370,9.922);
#239=SURFACE_STYLE_USAGE(.BOTH.,#371);
#240=FACE_OUTER_BOUND('',#372,.T.);
#241=CYLINDRICAL_SURFACE('',#373,7.9375);
#242=CURVE_STYLE('',#374,POSITIVE_LENGTH_MEASURE(1.0E-006),#375);
#243=LINE('',#376,#377);
#244=CURVE_STYLE('',#378,POSITIVE_LENGTH_MEASURE(1.0E-006),#379);
#245=CIRCLE('',#380,7.47908388626344);
#246=CURVE_STYLE('',#381,POSITIVE_LENGTH_MEASURE(1.0E-006),#382);
#247=LINE('',#383,#384);
#248=SURFACE_STYLE_USAGE(.BOTH.,#385);
#249=FACE_OUTER_BOUND('',#386,.T.);
#250=CONICAL_SURFACE('',#387,7.70829194313172,0.523598775598301);
#251=SURFACE_STYLE_USAGE(.BOTH.,#388);
#252=FACE_OUTER_BOUND('',#389,.T.);
#253=FACE_BOUND('',#390,.T.);
#254=PLANE('',#391);
#255=POINT_STYLE(' ',#392,POSITIVE_LENGTH_MEASURE(1.0E-006),#393);
#256=CARTESIAN_POINT('',(1.21505442426256E-015,-9.922,-101.59));
#257=POINT_STYLE(' ',#394,POSITIVE_LENGTH_MEASURE(1.0E-006),#395);
#258=CARTESIAN_POINT('',(1.21442987502211E-015,-9.9169,-53.99));
#259=SURFACE_STYLE_USAGE(.BOTH.,#396);
#260=FACE_OUTER_BOUND('',#397,.T.);
#261=CONICAL_SURFACE('',#398,7.70829194313172,0.523598775598301);
#262=CURVE_STYLE('',#399,POSITIVE_LENGTH_MEASURE(1.0E-006),#400);
#263=CIRCLE('',#401,9.9219);
#264=CURVE_STYLE('',#402,POSITIVE_LENGTH_MEASURE(1.0E-006),#403);
#265=CIRCLE('',#404,9.922);
#266=SURFACE_STYLE_USAGE(.BOTH.,#405);
#267=FACE_OUTER_BOUND('',#406,.T.);
#268=CONICAL_SURFACE('',#407,4.95845,1.56978794750192);
#269=SURFACE_STYLE_USAGE(.BOTH.,#408);
#270=FACE_OUTER_BOUND('',#409,.T.);
#271=PLANE('',#410);
#272=POINT_STYLE(' ',#411,POSITIVE_LENGTH_MEASURE(1.0E-006),#412);
#273=CARTESIAN_POINT('',(0.0,7.9375,-0.783999999999992));
#274=CURVE_STYLE('',#413,POSITIVE_LENGTH_MEASURE(1.0E-006),#414);
#275=CIRCLE('',#415,7.9375);
#276=CURVE_STYLE('',#416,POSITIVE_LENGTH_MEASURE(1.0E-006),#417);
#277=LINE('',#418,#419);
#278=SURFACE_STYLE_USAGE(.BOTH.,#420);
#279=FACE_OUTER_BOUND('',#421,.T.);
#280=CYLINDRICAL_SURFACE('',#422,7.9375);
#281=POINT_STYLE(' ',#423,POSITIVE_LENGTH_MEASURE(1.0E-006),#424);
#282=CARTESIAN_POINT('',(0.0,0.0,-54.0));
#283=SURFACE_STYLE_USAGE(.BOTH.,#425);
#284=CLOSED_SHELL('',(#88,#146,#102,#134,#168,#170));
#285=SURFACE_STYLE_USAGE(.BOTH.,#426);
#286=CLOSED_SHELL('',(#124,#132,#148,#90,#140,#156));
#287=CURVE_STYLE('',#427,POSITIVE_LENGTH_MEASURE(1.0E-006),#428);
#288=CIRCLE('',#429,9.9169);
#289=CURVE_STYLE('',#430,POSITIVE_LENGTH_MEASURE(1.0E-006),#431);
#290=CIRCLE('',#432,7.9375);
#291=SURFACE_STYLE_USAGE(.BOTH.,#433);
#292=FACE_OUTER_BOUND('',#434,.T.);
#293=CONICAL_SURFACE('',#435,9.92195,2.10084033612647E-006);
#294=SURFACE_STYLE_USAGE(.BOTH.,#436);
#295=FACE_OUTER_BOUND('',#437,.T.);
#296=PLANE('',#438);
#297=CURVE_STYLE('',#439,POSITIVE_LENGTH_MEASURE(1.0E-006),#440);
#298=LINE('',#441,#442);
#299=PRODUCT_CONTEXT('',#61,'mechanical');
#300=PRODUCT_DEFINITION_FORMATION_WITH_SPECIFIED_SOURCE(' ','NONE',#173,.NOT_KNOWN.);
#301=CARTESIAN_POINT('',(0.0,0.0,0.0));
#302=DIRECTION('',(0.0,0.0,1.0));
#303=DIRECTION('',(1.0,0.0,0.0));
#304=PRODUCT_CONTEXT('',#66,'mechanical');
#305=PRODUCT_DEFINITION_FORMATION_WITH_SPECIFIED_SOURCE(' ','NONE',#176,.NOT_KNOWN.);
#306=CARTESIAN_POINT('',(0.0,0.0,0.0));
#307=DIRECTION('',(0.0,0.0,1.0));
#308=DIRECTION('',(1.0,0.0,0.0));
#309= (NAMED_UNIT(#184)LENGTH_UNIT()SI_UNIT(.MILLI.,.METRE.));
#310=DRAUGHTING_PRE_DEFINED_CURVE_FONT('continuous');
#311=COLOUR_RGB('',0.800000011920929,0.800000011920929,0.800000011920929);
#312=AXIS2_PLACEMENT_3D('',#444,#445,#446);
#313=PRE_DEFINED_MARKER('');
#314=COLOUR_RGB('',0.800000011920929,0.800000011920929,0.800000011920929);
#315=PRE_DEFINED_MARKER('');
#316=COLOUR_RGB('',0.800000011920929,0.800000011920929,0.800000011920929);
#317=PRE_DEFINED_MARKER('');
#318=COLOUR_RGB('',0.800000011920929,0.800000011920929,0.800000011920929);
#319=SURFACE_SIDE_STYLE('',(#447));
#320=EDGE_LOOP('',(#448,#449,#450,#451));
#321=AXIS2_PLACEMENT_3D('',#452,#453,#454);
#322=SURFACE_SIDE_STYLE('',(#455));
#323=EDGE_LOOP('',(#456,#457));
#324=AXIS2_PLACEMENT_3D('',#458,#459,#460);
#325=PRE_DEFINED_MARKER('');
#326=COLOUR_RGB('',0.498039215803146,0.498039215803146,0.498039215803146);
#327=PRE_DEFINED_MARKER('');
#328=COLOUR_RGB('',0.498039215803146,0.498039215803146,0.498039215803146);
#329=DRAUGHTING_PRE_DEFINED_CURVE_FONT('continuous');
#330=COLOUR_RGB('',0.800000011920929,0.800000011920929,0.800000011920929);
#331=CARTESIAN_POINT('',(-6.07214937511057E-016,4.95845,-53.995));
#332=VECTOR('',#461,1.0);
#333=DRAUGHTING_PRE_DEFINED_CURVE_FONT('continuous');
#334=COLOUR_RGB('',0.498039215803146,0.498039215803146,0.498039215803146);
#335=AXIS2_PLACEMENT_3D('',#462,#463,#464);
#336=DRAUGHTING_PRE_DEFINED_CURVE_FONT('continuous');
#337=COLOUR_RGB('',0.498039215803146,0.498039215803146,0.498039215803146);
#338=AXIS2_PLACEMENT_3D('',#465,#466,#467);
#339=SURFACE_SIDE_STYLE('',(#468));
#340=EDGE_LOOP('',(#469,#470,#471));
#341=AXIS2_PLACEMENT_3D('',#472,#473,#474);
#342=PRE_DEFINED_MARKER('');
#343=COLOUR_RGB('',0.498039215803146,0.498039215803146,0.498039215803146);
#344=DRAUGHTING_PRE_DEFINED_CURVE_FONT('continuous');
#345=COLOUR_RGB('',0.800000011920929,0.800000011920929,0.800000011920929);
#346=AXIS2_PLACEMENT_3D('',#475,#476,#477);
#347=PRE_DEFINED_MARKER('');
#348=COLOUR_RGB('',0.498039215803146,0.498039215803146,0.498039215803146);
#349=DRAUGHTING_PRE_DEFINED_CURVE_FONT('continuous');
#350=COLOUR_RGB('',0.498039215803146,0.498039215803146,0.498039215803146);
#351=CARTESIAN_POINT('',(-9.72031293346512E-016,7.9375,-17.465));
#352=VECTOR('',#478,1.0);
#353=DRAUGHTING_PRE_DEFINED_CURVE_FONT('continuous');
#354=COLOUR_RGB('',0.498039215803146,0.498039215803146,0.498039215803146);
#355=AXIS2_PLACEMENT_3D('',#479,#480,#481);
#356=DRAUGHTING_PRE_DEFINED_CURVE_FONT('continuous');
#357=COLOUR_RGB('',0.498039215803146,0.498039215803146,0.498039215803146);
#358=CARTESIAN_POINT('',(9.72031293346512E-016,-7.9375,-17.465));
#359=VECTOR('',#482,1.0);
#360=PRE_DEFINED_MARKER('');
#361=COLOUR_RGB('',0.498039215803146,0.498039215803146,0.498039215803146);
#362=DRAUGHTING_PRE_DEFINED_CURVE_FONT('continuous');
#363=COLOUR_RGB('',0.498039215803146,0.498039215803146,0.498039215803146);
#364=CARTESIAN_POINT('',(9.43962329067694E-016,-7.70829194313172,-0.386999999999993));
#365=VECTOR('',#483,1.0);
#366=PRE_DEFINED_MARKER('');
#367=COLOUR_RGB('',0.800000011920929,0.800000011920929,0.800000011920929);
#368=DRAUGHTING_PRE_DEFINED_CURVE_FONT('continuous');
#369=COLOUR_RGB('',0.800000011920929,0.800000011920929,0.800000011920929);
#370=AXIS2_PLACEMENT_3D('',#484,#485,#486);
#371=SURFACE_SIDE_STYLE('',(#487));
#372=EDGE_LOOP('',(#488,#489,#490,#491));
#373=AXIS2_PLACEMENT_3D('',#492,#493,#494);
#374=DRAUGHTING_PRE_DEFINED_CURVE_FONT('continuous');
#375=COLOUR_RGB('',0.800000011920929,0.800000011920929,0.800000011920929);
#376=CARTESIAN_POINT('',(6.07214937511057E-016,-4.95845,-53.995));
#377=VECTOR('',#495,1.0);
#378=DRAUGHTING_PRE_DEFINED_CURVE_FONT('continuous');
#379=COLOUR_RGB('',0.498039215803146,0.498039215803146,0.498039215803146);
#380=AXIS2_PLACEMENT_3D('',#496,#497,#498);
#381=DRAUGHTING_PRE_DEFINED_CURVE_FONT('continuous');
#382=COLOUR_RGB('',0.800000011920929,0.800000011920929,0.800000011920929);
#383=CARTESIAN_POINT('',(-1.21504830123079E-015,9.92195,-77.79));
#384=VECTOR('',#499,1.0);
#385=SURFACE_SIDE_STYLE('',(#500));
#386=EDGE_LOOP('',(#501,#502,#503,#504));
#387=AXIS2_PLACEMENT_3D('',#505,#506,#507);
#388=SURFACE_SIDE_STYLE('',(#508));
#389=EDGE_LOOP('',(#509,#510));
#390=EDGE_LOOP('',(#511,#512));
#391=AXIS2_PLACEMENT_3D('',#513,#514,#515);
#392=PRE_DEFINED_MARKER('');
#393=COLOUR_RGB('',0.800000011920929,0.800000011920929,0.800000011920929);
#394=PRE_DEFINED_MARKER('');
#395=COLOUR_RGB('',0.800000011920929,0.800000011920929,0.800000011920929);
#396=SURFACE_SIDE_STYLE('',(#516));
#397=EDGE_LOOP('',(#517,#518,#519,#520));
#398=AXIS2_PLACEMENT_3D('',#521,#522,#523);
#399=DRAUGHTING_PRE_DEFINED_CURVE_FONT('continuous');
#400=COLOUR_RGB('',0.800000011920929,0.800000011920929,0.800000011920929);
#401=AXIS2_PLACEMENT_3D('',#524,#525,#526);
#402=DRAUGHTING_PRE_DEFINED_CURVE_FONT('continuous');
#403=COLOUR_RGB('',0.800000011920929,0.800000011920929,0.800000011920929);
#404=AXIS2_PLACEMENT_3D('',#527,#528,#529);
#405=SURFACE_SIDE_STYLE('',(#530));
#406=EDGE_LOOP('',(#531,#532,#533));
#407=AXIS2_PLACEMENT_3D('',#534,#535,#536);
#408=SURFACE_SIDE_STYLE('',(#537));
#409=EDGE_LOOP('',(#538,#539));
#410=AXIS2_PLACEMENT_3D('',#540,#541,#542);
#411=PRE_DEFINED_MARKER('');
#412=COLOUR_RGB('',0.498039215803146,0.498039215803146,0.498039215803146);
#413=DRAUGHTING_PRE_DEFINED_CURVE_FONT('continuous');
#414=COLOUR_RGB('',0.498039215803146,0.498039215803146,0.498039215803146);
#415=AXIS2_PLACEMENT_3D('',#543,#544,#545);
#416=DRAUGHTING_PRE_DEFINED_CURVE_FONT('continuous');
#417=COLOUR_RGB('',0.498039215803146,0.498039215803146,0.498039215803146);
#418=CARTESIAN_POINT('',(-9.43962329067694E-016,7.70829194313172,-0.386999999999993));
#419=VECTOR('',#546,1.0);
#420=SURFACE_SIDE_STYLE('',(#547));
#421=EDGE_LOOP('',(#548,#549,#550,#551));
#422=AXIS2_PLACEMENT_3D('',#552,#553,#554);
#423=PRE_DEFINED_MARKER('');
#424=COLOUR_RGB('',0.800000011920929,0.800000011920929,0.800000011920929);
#425=SURFACE_SIDE_STYLE('',(#555));
#426=SURFACE_SIDE_STYLE('',(#556));
#427=DRAUGHTING_PRE_DEFINED_CURVE_FONT('continuous');
#428=COLOUR_RGB('',0.800000011920929,0.800000011920929,0.800000011920929);
#429=AXIS2_PLACEMENT_3D('',#557,#558,#559);
#430=DRAUGHTING_PRE_DEFINED_CURVE_FONT('continuous');
#431=COLOUR_RGB('',0.498039215803146,0.498039215803146,0.498039215803146);
#432=AXIS2_PLACEMENT_3D('',#560,#561,#562);
#433=SURFACE_SIDE_STYLE('',(#563));
#434=EDGE_LOOP('',(#564,#565,#566,#567));
#435=AXIS2_PLACEMENT_3D('',#568,#569,#570);
#436=SURFACE_SIDE_STYLE('',(#571));
#437=EDGE_LOOP('',(#572,#573));
#438=AXIS2_PLACEMENT_3D('',#574,#575,#576);
#439=DRAUGHTING_PRE_DEFINED_CURVE_FONT('continuous');
#440=COLOUR_RGB('',0.800000011920929,0.800000011920929,0.800000011920929);
#441=CARTESIAN_POINT('',(1.21504830123079E-015,-9.92195,-77.79));
#442=VECTOR('',#577,1.0);
#444=CARTESIAN_POINT('',(0.0,0.0,-53.99));
#445=DIRECTION('',(0.0,0.0,-1.0));
#446=DIRECTION('',(0.0,1.0,0.0));
#447=SURFACE_STYLE_FILL_AREA(#578);
#448=ORIENTED_EDGE('',*,*,#130,.F.);
#449=ORIENTED_EDGE('',*,*,#142,.T.);
#450=ORIENTED_EDGE('',*,*,#172,.F.);
#451=ORIENTED_EDGE('',*,*,#144,.F.);
#452=CARTESIAN_POINT('',(0.0,0.0,-77.79));
#453=DIRECTION('',(0.0,-0.0,-1.0));
#454=DIRECTION('',(0.0,1.0,0.0));
#455=SURFACE_STYLE_FILL_AREA(#579);
#456=ORIENTED_EDGE('',*,*,#98,.F.);
#457=ORIENTED_EDGE('',*,*,#128,.F.);
#458=CARTESIAN_POINT('',(0.0,3.73954194313172,0.0100000000000051));
#459=DIRECTION('',(-0.0,0.0,1.0));
#460=DIRECTION('',(0.0,-1.0,0.0));
#461=DIRECTION('',(1.22460573121493E-016,-0.999999491585644,-0.00100837912209113));
#462=CARTESIAN_POINT('',(0.0,0.0,0.0100000000000051));
#463=DIRECTION('',(0.0,0.0,-1.0));
#464=DIRECTION('',(0.0,1.0,0.0));
#465=CARTESIAN_POINT('',(0.0,0.0,-0.783999999999992));
#466=DIRECTION('',(0.0,0.0,-1.0));
#467=DIRECTION('',(0.0,1.0,0.0));
#468=SURFACE_STYLE_FILL_AREA(#580);
#469=ORIENTED_EDGE('',*,*,#126,.T.);
#470=ORIENTED_EDGE('',*,*,#106,.F.);
#471=ORIENTED_EDGE('',*,*,#96,.T.);
#472=CARTESIAN_POINT('',(0.0,0.0,-53.995));
#473=DIRECTION('',(-0.0,-0.0,1.0));
#474=DIRECTION('',(0.0,1.0,0.0));
#475=CARTESIAN_POINT('',(0.0,0.0,-53.99));
#476=DIRECTION('',(0.0,0.0,-1.0));
#477=DIRECTION('',(0.0,1.0,0.0));
#478=DIRECTION('',(0.0,0.0,-1.0));
#479=CARTESIAN_POINT('',(0.0,0.0,-0.783999999999992));
#480=DIRECTION('',(0.0,0.0,-1.0));
#481=DIRECTION('',(0.0,1.0,0.0));
#482=DIRECTION('',(-0.0,-0.0,1.0));
#483=DIRECTION('',(-6.12303176911191E-017,0.500000000000002,0.866025403784438));
#484=CARTESIAN_POINT('',(0.0,0.0,-101.59));
#485=DIRECTION('',(0.0,0.0,-1.0));
#486=DIRECTION('',(0.0,1.0,0.0));
#487=SURFACE_STYLE_FILL_AREA(#581);
#488=ORIENTED_EDGE('',*,*,#110,.F.);
#489=ORIENTED_EDGE('',*,*,#112,.T.);
#490=ORIENTED_EDGE('',*,*,#114,.F.);
#491=ORIENTED_EDGE('',*,*,#152,.F.);
#492=CARTESIAN_POINT('',(0.0,0.0,-17.465));
#493=DIRECTION('',(-0.0,-0.0,1.0));
#494=DIRECTION('',(0.0,1.0,0.0));
#495=DIRECTION('',(1.22460573121493E-016,-0.999999491585644,0.00100837912209113));
#496=CARTESIAN_POINT('',(0.0,0.0,0.0100000000000051));
#497=DIRECTION('',(0.0,0.0,-1.0));
#498=DIRECTION('',(0.0,1.0,0.0));
#499=DIRECTION('',(-2.57270242398492E-022,2.10084033612492E-006,-0.999999999997793));
#500=SURFACE_STYLE_FILL_AREA(#582);
#501=ORIENTED_EDGE('',*,*,#154,.F.);
#502=ORIENTED_EDGE('',*,*,#98,.T.);
#503=ORIENTED_EDGE('',*,*,#118,.F.);
#504=ORIENTED_EDGE('',*,*,#112,.F.);
#505=CARTESIAN_POINT('',(0.0,0.0,-0.386999999999993));
#506=DIRECTION('',(0.0,-0.0,-1.0));
#507=DIRECTION('',(0.0,1.0,0.0));
#508=SURFACE_STYLE_FILL_AREA(#583);
#509=ORIENTED_EDGE('',*,*,#142,.F.);
#510=ORIENTED_EDGE('',*,*,#80,.F.);
#511=ORIENTED_EDGE('',*,*,#106,.T.);
#512=ORIENTED_EDGE('',*,*,#164,.T.);
#513=CARTESIAN_POINT('',(0.0,9.9194,-53.99));
#514=DIRECTION('',(-0.0,0.0,1.0));
#515=DIRECTION('',(0.0,-1.0,0.0));
#516=SURFACE_STYLE_FILL_AREA(#584);
#517=ORIENTED_EDGE('',*,*,#154,.T.);
#518=ORIENTED_EDGE('',*,*,#100,.F.);
#519=ORIENTED_EDGE('',*,*,#118,.T.);
#520=ORIENTED_EDGE('',*,*,#128,.T.);
#521=CARTESIAN_POINT('',(0.0,0.0,-0.386999999999993));
#522=DIRECTION('',(0.0,-0.0,-1.0));
#523=DIRECTION('',(0.0,1.0,0.0));
#524=CARTESIAN_POINT('',(0.0,0.0,-53.99));
#525=DIRECTION('',(0.0,0.0,-1.0));
#526=DIRECTION('',(0.0,1.0,0.0));
#527=CARTESIAN_POINT('',(0.0,0.0,-101.59));
#528=DIRECTION('',(0.0,0.0,-1.0));
#529=DIRECTION('',(0.0,1.0,0.0));
#530=SURFACE_STYLE_FILL_AREA(#585);
#531=ORIENTED_EDGE('',*,*,#126,.F.);
#532=ORIENTED_EDGE('',*,*,#96,.F.);
#533=ORIENTED_EDGE('',*,*,#164,.F.);
#534=CARTESIAN_POINT('',(0.0,0.0,-53.995));
#535=DIRECTION('',(-0.0,-0.0,1.0));
#536=DIRECTION('',(0.0,1.0,0.0));
#537=SURFACE_STYLE_FILL_AREA(#586);
#538=ORIENTED_EDGE('',*,*,#166,.T.);
#539=ORIENTED_EDGE('',*,*,#152,.T.);
#540=CARTESIAN_POINT('',(0.0,0.0,-53.99));
#541=DIRECTION('',(0.0,0.0,-1.0));
#542=DIRECTION('',(0.0,-1.0,0.0));
#543=CARTESIAN_POINT('',(0.0,0.0,-53.99));
#544=DIRECTION('',(0.0,0.0,-1.0));
#545=DIRECTION('',(0.0,-1.0,0.0));
#546=DIRECTION('',(-6.12303176911191E-017,0.500000000000002,-0.866025403784438));
#547=SURFACE_STYLE_FILL_AREA(#587);
#548=ORIENTED_EDGE('',*,*,#110,.T.);
#549=ORIENTED_EDGE('',*,*,#166,.F.);
#550=ORIENTED_EDGE('',*,*,#114,.T.);
#551=ORIENTED_EDGE('',*,*,#100,.T.);
#552=CARTESIAN_POINT('',(0.0,0.0,-17.465));
#553=DIRECTION('',(-0.0,-0.0,1.0));
#554=DIRECTION('',(0.0,1.0,0.0));
#555=SURFACE_STYLE_FILL_AREA(#588);
#556=SURFACE_STYLE_FILL_AREA(#589);
#557=CARTESIAN_POINT('',(0.0,0.0,-53.99));
#558=DIRECTION('',(0.0,0.0,-1.0));
#559=DIRECTION('',(0.0,1.0,0.0));
#560=CARTESIAN_POINT('',(0.0,0.0,-53.99));
#561=DIRECTION('',(0.0,0.0,-1.0));
#562=DIRECTION('',(0.0,-1.0,0.0));
#563=SURFACE_STYLE_FILL_AREA(#590);
#564=ORIENTED_EDGE('',*,*,#130,.T.);
#565=ORIENTED_EDGE('',*,*,#122,.F.);
#566=ORIENTED_EDGE('',*,*,#172,.T.);
#567=ORIENTED_EDGE('',*,*,#80,.T.);
#568=CARTESIAN_POINT('',(0.0,0.0,-77.79));
#569=DIRECTION('',(0.0,-0.0,-1.0));
#570=DIRECTION('',(0.0,1.0,0.0));
#571=SURFACE_STYLE_FILL_AREA(#591);
#572=ORIENTED_EDGE('',*,*,#144,.T.);
#573=ORIENTED_EDGE('',*,*,#122,.T.);
#574=CARTESIAN_POINT('',(0.0,4.9585,-101.59));
#575=DIRECTION('',(0.0,0.0,-1.0));
#576=DIRECTION('',(0.0,1.0,0.0));
#577=DIRECTION('',(-2.57270242398492E-022,2.10084033612492E-006,0.999999999997793));
#578=FILL_AREA_STYLE('',(#592));
#579=FILL_AREA_STYLE('',(#593));
#580=FILL_AREA_STYLE('',(#594));
#581=FILL_AREA_STYLE('',(#595));
#582=FILL_AREA_STYLE('',(#596));
#583=FILL_AREA_STYLE('',(#597));
#584=FILL_AREA_STYLE('',(#598));
#585=FILL_AREA_STYLE('',(#599));
#586=FILL_AREA_STYLE('',(#600));
#587=FILL_AREA_STYLE('',(#601));
#588=FILL_AREA_STYLE('',(#602));
#589=FILL_AREA_STYLE('',(#603));
#590=FILL_AREA_STYLE('',(#604));
#591=FILL_AREA_STYLE('',(#605));
#592=FILL_AREA_STYLE_COLOUR('',#606);
#593=FILL_AREA_STYLE_COLOUR('',#607);
#594=FILL_AREA_STYLE_COLOUR('',#608);
#595=FILL_AREA_STYLE_COLOUR('',#609);
#596=FILL_AREA_STYLE_COLOUR('',#610);
#597=FILL_AREA_STYLE_COLOUR('',#611);
#598=FILL_AREA_STYLE_COLOUR('',#612);
#599=FILL_AREA_STYLE_COLOUR('',#613);
#600=FILL_AREA_STYLE_COLOUR('',#614);
#601=FILL_AREA_STYLE_COLOUR('',#615);
#602=FILL_AREA_STYLE_COLOUR('',#616);
#603=FILL_AREA_STYLE_COLOUR('',#617);
#604=FILL_AREA_STYLE_COLOUR('',#618);
#605=FILL_AREA_STYLE_COLOUR('',#619);
#606=COLOUR_RGB('',0.800000011920929,0.800000011920929,0.800000011920929);
#607=COLOUR_RGB('',0.498039215803146,0.498039215803146,0.498039215803146);
#608=COLOUR_RGB('',0.800000011920929,0.800000011920929,0.800000011920929);
#609=COLOUR_RGB('',0.498039215803146,0.498039215803146,0.498039215803146);
#610=COLOUR_RGB('',0.498039215803146,0.498039215803146,0.498039215803146);
#611=COLOUR_RGB('',0.800000011920929,0.800000011920929,0.800000011920929);
#612=COLOUR_RGB('',0.498039215803146,0.498039215803146,0.498039215803146);
#613=COLOUR_RGB('',0.800000011920929,0.800000011920929,0.800000011920929);
#614=COLOUR_RGB('',0.498039215803146,0.498039215803146,0.498039215803146);
#615=COLOUR_RGB('',0.498039215803146,0.498039215803146,0.498039215803146);
#616=COLOUR_RGB('',0.800000011920929,0.800000011920929,0.800000011920929);
#617=COLOUR_RGB('',0.800000011920929,0.800000011920929,0.800000011920929);
#618=COLOUR_RGB('',0.800000011920929,0.800000011920929,0.800000011920929);
#619=COLOUR_RGB('',0.800000011920929,0.800000011920929,0.800000011920929);
#620=AXIS2_PLACEMENT_3D('PCS',#621,#622,#623);
#621=CARTESIAN_POINT('',(0.0,0.0,0.0));
#622=DIRECTION('',(0.0,0.0,1.0));
#623=DIRECTION('',(1.0,0.0,0.0));
#624=AXIS2_PLACEMENT_3D('CIP',#625,#626,#627);
#625=CARTESIAN_POINT('',(0.0,0.0,-101.6));
#626=DIRECTION('',(0.0,0.0,1.0));
#627=DIRECTION('',(1.0,0.0,0.0));
#628=AXIS2_PLACEMENT_3D('CRP',#629,#630,#631);
#629=CARTESIAN_POINT('',(-9.922,0.0,-101.6));
#630=DIRECTION('',(0.0,0.0,1.0));
#631=DIRECTION('',(1.0,0.0,0.0));
#632=AXIS2_PLACEMENT_3D('MCS',#633,#634,#635);
#633=CARTESIAN_POINT('',(0.0,0.0,-34.156));
#634=DIRECTION('',(0.0,0.0,1.0));
#635=DIRECTION('',(1.0,0.0,0.0));
#636=CONSTRUCTIVE_GEOMETRY_REPRESENTATION_RELATIONSHIP('coordinate systems',$,#65,#637);
#637=CONSTRUCTIVE_GEOMETRY_REPRESENTATION('coordinate systems',(#620,#624,#628,#632),#10);
ENDSEC;
END-ISO-10303-21;
