ISO-10303-21;
HEADER;
FILE_DESCRIPTION(('no description'),'unknown implementation level');
FILE_NAME('solid7nbPJCUL8EQBQK_m4Wi9IWlqfyo_1.STP','  ',('CIMSOURCE GmbH'),('CADClick - KiM GmbH - www.kimweb.de'),'unknown preprocess','ACIS','unknown authorization');
FILE_SCHEMA(('automotive_design'));
ENDSEC;
DATA;
#1=MECHANICAL_DESIGN_GEOMETRIC_PRESENTATION_REPRESENTATION(' ',(#14,#15,#16,#17,#18,#19,#20,#21,#22,#23,#24,#25,#26,#27,#28,#29,#30,#31,#32,#33,#34,#35,#36,#37,#38,#39,#40,#41,#42,#43,#44,#45,#46,#47,#48,#49,#50,#51,#52,#53,#54,#55,#56,#57,#58,#59,#60),#10);
#2=PRODUCT_DEFINITION_CONTEXT('',#61,'design');
#3=APPLICATION_PROTOCOL_DEFINITION('INTERNATIONAL STANDARD','automotive_design',1994,#61);
#4=PRODUCT_CATEGORY_RELATIONSHIP('NONE','NONE',#62,#63);
#5=SHAPE_DEFINITION_REPRESENTATION(#64,#65);
#6=PRODUCT_DEFINITION_CONTEXT('',#66,'design');
#7=APPLICATION_PROTOCOL_DEFINITION('INTERNATIONAL STANDARD','automotive_design',1994,#66);
#8=PRODUCT_CATEGORY_RELATIONSHIP('NONE','NONE',#67,#68);
#9=SHAPE_DEFINITION_REPRESENTATION(#69,#70);
#10= (GEOMETRIC_REPRESENTATION_CONTEXT(3)GLOBAL_UNCERTAINTY_ASSIGNED_CONTEXT((#73))GLOBAL_UNIT_ASSIGNED_CONTEXT((#75,#76,#77))REPRESENTATION_CONTEXT('NONE','WORKSPACE'));
#14=STYLED_ITEM('',(#79),#80);
#15=STYLED_ITEM('',(#81),#82);
#16=STYLED_ITEM('',(#83),#84);
#17=STYLED_ITEM('',(#85),#86);
#18=STYLED_ITEM('',(#87),#88);
#19=STYLED_ITEM('',(#89),#90);
#20=STYLED_ITEM('',(#91),#92);
#21=STYLED_ITEM('',(#93),#94);
#22=STYLED_ITEM('',(#95),#96);
#23=STYLED_ITEM('',(#97),#98);
#24=STYLED_ITEM('',(#99),#100);
#25=STYLED_ITEM('',(#101),#102);
#26=STYLED_ITEM('',(#103),#104);
#27=STYLED_ITEM('',(#105),#106);
#28=STYLED_ITEM('',(#107),#108);
#29=STYLED_ITEM('',(#109),#110);
#30=STYLED_ITEM('',(#111),#112);
#31=STYLED_ITEM('',(#113),#114);
#32=STYLED_ITEM('',(#115),#116);
#33=STYLED_ITEM('',(#117),#118);
#34=STYLED_ITEM('',(#119),#120);
#35=STYLED_ITEM('',(#121),#122);
#36=STYLED_ITEM('',(#123),#124);
#37=STYLED_ITEM('',(#125),#126);
#38=STYLED_ITEM('',(#127),#128);
#39=STYLED_ITEM('',(#129),#130);
#40=STYLED_ITEM('',(#131),#132);
#41=STYLED_ITEM('',(#133),#134);
#42=STYLED_ITEM('',(#135),#136);
#43=STYLED_ITEM('',(#137),#138);
#44=STYLED_ITEM('',(#139),#140);
#45=STYLED_ITEM('',(#141),#142);
#46=STYLED_ITEM('',(#143),#144);
#47=STYLED_ITEM('',(#145),#146);
#48=STYLED_ITEM('',(#147),#148);
#49=STYLED_ITEM('',(#149),#150);
#50=STYLED_ITEM('',(#151),#152);
#51=STYLED_ITEM('',(#153),#154);
#52=STYLED_ITEM('',(#155),#156);
#53=STYLED_ITEM('',(#157),#158);
#54=STYLED_ITEM('',(#159),#160);
#55=STYLED_ITEM('',(#161),#162);
#56=STYLED_ITEM('',(#163),#164);
#57=STYLED_ITEM('',(#165),#166);
#58=STYLED_ITEM('',(#167),#168);
#59=STYLED_ITEM('',(#169),#170);
#60=STYLED_ITEM('',(#171),#172);
#61=APPLICATION_CONTEXT(' ');
#62=PRODUCT_CATEGORY('part','NONE');
#63=PRODUCT_RELATED_PRODUCT_CATEGORY('detail',' ',(#173));
#64=PRODUCT_DEFINITION_SHAPE('NONE','NONE',#174);
#65=ADVANCED_BREP_SHAPE_REPRESENTATION('1',(#140,#175),#10);
#66=APPLICATION_CONTEXT(' ');
#67=PRODUCT_CATEGORY('part','NONE');
#68=PRODUCT_RELATED_PRODUCT_CATEGORY('detail',' ',(#176));
#69=PRODUCT_DEFINITION_SHAPE('NONE','NONE',#177);
#70=ADVANCED_BREP_SHAPE_REPRESENTATION('2',(#96,#178),#10);
#73=UNCERTAINTY_MEASURE_WITH_UNIT(LENGTH_MEASURE(1.0E-006),#75,'','');
#75= (CONVERSION_BASED_UNIT('MILLIMETRE',#181)LENGTH_UNIT()NAMED_UNIT(#184));
#76= (NAMED_UNIT(#186)PLANE_ANGLE_UNIT()SI_UNIT($,.RADIAN.));
#77= (NAMED_UNIT(#186)SOLID_ANGLE_UNIT()SI_UNIT($,.STERADIAN.));
#79=PRESENTATION_STYLE_ASSIGNMENT((#192));
#80=ADVANCED_FACE('',(#193,#194),#195,.T.);
#81=PRESENTATION_STYLE_ASSIGNMENT((#196));
#82=EDGE_CURVE('',#86,#166,#197,.T.);
#83=PRESENTATION_STYLE_ASSIGNMENT((#198));
#84=VERTEX_POINT('',#199);
#85=PRESENTATION_STYLE_ASSIGNMENT((#200));
#86=VERTEX_POINT('',#201);
#87=PRESENTATION_STYLE_ASSIGNMENT((#202));
#88=EDGE_CURVE('',#84,#138,#203,.T.);
#89=PRESENTATION_STYLE_ASSIGNMENT((#204));
#90=EDGE_CURVE('',#102,#148,#205,.T.);
#91=PRESENTATION_STYLE_ASSIGNMENT((#206));
#92=VERTEX_POINT('',#207);
#93=PRESENTATION_STYLE_ASSIGNMENT((#208));
#94=EDGE_CURVE('',#126,#148,#209,.T.);
#95=PRESENTATION_STYLE_ASSIGNMENT((#210));
#96=MANIFOLD_SOLID_BREP('2',#211);
#97=PRESENTATION_STYLE_ASSIGNMENT((#212));
#98=VERTEX_POINT('',#213);
#99=PRESENTATION_STYLE_ASSIGNMENT((#214));
#100=ADVANCED_FACE('',(#215),#216,.T.);
#101=PRESENTATION_STYLE_ASSIGNMENT((#217));
#102=VERTEX_POINT('',#218);
#103=PRESENTATION_STYLE_ASSIGNMENT((#219));
#104=ADVANCED_FACE('',(#220),#221,.T.);
#105=PRESENTATION_STYLE_ASSIGNMENT((#222));
#106=EDGE_CURVE('',#92,#128,#223,.T.);
#107=PRESENTATION_STYLE_ASSIGNMENT((#224));
#108=EDGE_CURVE('',#98,#84,#225,.T.);
#109=PRESENTATION_STYLE_ASSIGNMENT((#226));
#110=ADVANCED_FACE('',(#227),#228,.T.);
#111=PRESENTATION_STYLE_ASSIGNMENT((#229));
#112=VERTEX_POINT('',#230);
#113=PRESENTATION_STYLE_ASSIGNMENT((#231));
#114=ADVANCED_FACE('',(#232),#233,.T.);
#115=PRESENTATION_STYLE_ASSIGNMENT((#234));
#116=ADVANCED_FACE('',(#235),#236,.T.);
#117=PRESENTATION_STYLE_ASSIGNMENT((#237));
#118=ADVANCED_FACE('',(#238),#239,.T.);
#119=PRESENTATION_STYLE_ASSIGNMENT((#240));
#120=ADVANCED_FACE('',(#241),#242,.F.);
#121=PRESENTATION_STYLE_ASSIGNMENT((#243));
#122=EDGE_CURVE('',#84,#98,#244,.T.);
#123=PRESENTATION_STYLE_ASSIGNMENT((#245));
#124=EDGE_CURVE('',#112,#98,#246,.T.);
#125=PRESENTATION_STYLE_ASSIGNMENT((#247));
#126=VERTEX_POINT('',#248);
#127=PRESENTATION_STYLE_ASSIGNMENT((#249));
#128=VERTEX_POINT('',#250);
#129=PRESENTATION_STYLE_ASSIGNMENT((#251));
#130=ADVANCED_FACE('',(#252),#253,.T.);
#131=PRESENTATION_STYLE_ASSIGNMENT((#254));
#132=EDGE_CURVE('',#138,#112,#255,.T.);
#133=PRESENTATION_STYLE_ASSIGNMENT((#256));
#134=EDGE_CURVE('',#166,#86,#257,.T.);
#135=PRESENTATION_STYLE_ASSIGNMENT((#258));
#136=ADVANCED_FACE('',(#259),#260,.T.);
#137=PRESENTATION_STYLE_ASSIGNMENT((#261));
#138=VERTEX_POINT('',#262);
#139=PRESENTATION_STYLE_ASSIGNMENT((#263));
#140=MANIFOLD_SOLID_BREP('1',#264);
#141=PRESENTATION_STYLE_ASSIGNMENT((#265));
#142=EDGE_CURVE('',#148,#126,#266,.T.);
#143=PRESENTATION_STYLE_ASSIGNMENT((#267));
#144=VERTEX_POINT('',#268);
#145=PRESENTATION_STYLE_ASSIGNMENT((#269));
#146=EDGE_CURVE('',#170,#144,#270,.T.);
#147=PRESENTATION_STYLE_ASSIGNMENT((#271));
#148=VERTEX_POINT('',#272);
#149=PRESENTATION_STYLE_ASSIGNMENT((#273));
#150=EDGE_CURVE('',#86,#170,#274,.T.);
#151=PRESENTATION_STYLE_ASSIGNMENT((#275));
#152=EDGE_CURVE('',#126,#102,#276,.T.);
#153=PRESENTATION_STYLE_ASSIGNMENT((#277));
#154=EDGE_CURVE('',#144,#166,#278,.T.);
#155=PRESENTATION_STYLE_ASSIGNMENT((#279));
#156=EDGE_CURVE('',#138,#128,#280,.T.);
#157=PRESENTATION_STYLE_ASSIGNMENT((#281));
#158=EDGE_CURVE('',#128,#92,#282,.T.);
#159=PRESENTATION_STYLE_ASSIGNMENT((#283));
#160=EDGE_CURVE('',#92,#112,#284,.T.);
#161=PRESENTATION_STYLE_ASSIGNMENT((#285));
#162=EDGE_CURVE('',#112,#138,#286,.T.);
#163=PRESENTATION_STYLE_ASSIGNMENT((#287));
#164=ADVANCED_FACE('',(#288),#289,.F.);
#165=PRESENTATION_STYLE_ASSIGNMENT((#290));
#166=VERTEX_POINT('',#291);
#167=PRESENTATION_STYLE_ASSIGNMENT((#292));
#168=EDGE_CURVE('',#144,#170,#293,.T.);
#169=PRESENTATION_STYLE_ASSIGNMENT((#294));
#170=VERTEX_POINT('',#295);
#171=PRESENTATION_STYLE_ASSIGNMENT((#296));
#172=ADVANCED_FACE('',(#297),#298,.T.);
#173=PRODUCT('1','1','PART-1-DESC',(#299));
#174=PRODUCT_DEFINITION('NONE','NONE',#300,#2);
#175=AXIS2_PLACEMENT_3D('',#301,#302,#303);
#176=PRODUCT('2','2','PART-2-DESC',(#304));
#177=PRODUCT_DEFINITION('NONE','NONE',#305,#6);
#178=AXIS2_PLACEMENT_3D('',#306,#307,#308);
#181=LENGTH_MEASURE_WITH_UNIT(LENGTH_MEASURE(1.0),#309);
#184=DIMENSIONAL_EXPONENTS(1.0,0.0,0.0,0.0,0.0,0.0,0.0);
#186=DIMENSIONAL_EXPONENTS(0.0,0.0,0.0,0.0,0.0,0.0,0.0);
#192=SURFACE_STYLE_USAGE(.BOTH.,#310);
#193=FACE_OUTER_BOUND('',#311,.T.);
#194=FACE_BOUND('',#312,.T.);
#195=PLANE('',#313);
#196=CURVE_STYLE('',#314,POSITIVE_LENGTH_MEASURE(1.0E-006),#315);
#197=CIRCLE('',#316,9.922);
#198=POINT_STYLE(' ',#317,POSITIVE_LENGTH_MEASURE(1.0E-006),#318);
#199=CARTESIAN_POINT('',(0.0,7.47908388626344,0.0100000000000051));
#200=POINT_STYLE(' ',#319,POSITIVE_LENGTH_MEASURE(1.0E-006),#320);
#201=CARTESIAN_POINT('',(1.21505442426256E-015,-9.922,-101.59));
#202=CURVE_STYLE('',#321,POSITIVE_LENGTH_MEASURE(1.0E-006),#322);
#203=LINE('',#323,#324);
#204=CURVE_STYLE('',#325,POSITIVE_LENGTH_MEASURE(1.0E-006),#326);
#205=LINE('',#327,#328);
#206=POINT_STYLE(' ',#329,POSITIVE_LENGTH_MEASURE(1.0E-006),#330);
#207=CARTESIAN_POINT('',(0.0,-7.9375,-53.99));
#208=CURVE_STYLE('',#331,POSITIVE_LENGTH_MEASURE(1.0E-006),#332);
#209=CIRCLE('',#333,9.9169);
#210=SURFACE_STYLE_USAGE(.BOTH.,#334);
#211=CLOSED_SHELL('',(#114,#104,#118,#136,#110,#116));
#212=POINT_STYLE(' ',#335,POSITIVE_LENGTH_MEASURE(1.0E-006),#336);
#213=CARTESIAN_POINT('',(9.15893364788876E-016,-7.47908388626344,0.0100000000000051));
#214=SURFACE_STYLE_USAGE(.BOTH.,#337);
#215=FACE_OUTER_BOUND('',#338,.T.);
#216=PLANE('',#339);
#217=POINT_STYLE(' ',#340,POSITIVE_LENGTH_MEASURE(1.0E-006),#341);
#218=CARTESIAN_POINT('',(0.0,0.0,-54.0));
#219=SURFACE_STYLE_USAGE(.BOTH.,#342);
#220=FACE_OUTER_BOUND('',#343,.T.);
#221=CONICAL_SURFACE('',#344,7.70829194313172,0.523598775598301);
#222=CURVE_STYLE('',#345,POSITIVE_LENGTH_MEASURE(1.0E-006),#346);
#223=CIRCLE('',#347,7.9375);
#224=CURVE_STYLE('',#348,POSITIVE_LENGTH_MEASURE(1.0E-006),#349);
#225=CIRCLE('',#350,7.47908388626344);
#226=SURFACE_STYLE_USAGE(.BOTH.,#351);
#227=FACE_OUTER_BOUND('',#352,.T.);
#228=CONICAL_SURFACE('',#353,7.70829194313172,0.523598775598301);
#229=POINT_STYLE(' ',#354,POSITIVE_LENGTH_MEASURE(1.0E-006),#355);
#230=CARTESIAN_POINT('',(9.72031293346512E-016,-7.9375,-0.783999999999992));
#231=SURFACE_STYLE_USAGE(.BOTH.,#356);
#232=FACE_OUTER_BOUND('',#357,.T.);
#233=CYLINDRICAL_SURFACE('',#358,7.9375);
#234=SURFACE_STYLE_USAGE(.BOTH.,#359);
#235=FACE_OUTER_BOUND('',#360,.T.);
#236=CYLINDRICAL_SURFACE('',#361,7.9375);
#237=SURFACE_STYLE_USAGE(.BOTH.,#362);
#238=FACE_OUTER_BOUND('',#363,.T.);
#239=PLANE('',#364);
#240=SURFACE_STYLE_USAGE(.BOTH.,#365);
#241=FACE_OUTER_BOUND('',#366,.T.);
#242=CONICAL_SURFACE('',#367,4.95845,1.56978794750192);
#243=CURVE_STYLE('',#368,POSITIVE_LENGTH_MEASURE(1.0E-006),#369);
#244=CIRCLE('',#370,7.47908388626344);
#245=CURVE_STYLE('',#371,POSITIVE_LENGTH_MEASURE(1.0E-006),#372);
#246=LINE('',#373,#374);
#247=POINT_STYLE(' ',#375,POSITIVE_LENGTH_MEASURE(1.0E-006),#376);
#248=CARTESIAN_POINT('',(0.0,9.9169,-53.99));
#249=POINT_STYLE(' ',#377,POSITIVE_LENGTH_MEASURE(1.0E-006),#378);
#250=CARTESIAN_POINT('',(-9.72031293346512E-016,7.9375,-53.99));
#251=SURFACE_STYLE_USAGE(.BOTH.,#379);
#252=FACE_OUTER_BOUND('',#380,.T.);
#253=CONICAL_SURFACE('',#381,9.92195,2.10084033612647E-006);
#254=CURVE_STYLE('',#382,POSITIVE_LENGTH_MEASURE(1.0E-006),#383);
#255=CIRCLE('',#384,7.9375);
#256=CURVE_STYLE('',#385,POSITIVE_LENGTH_MEASURE(1.0E-006),#386);
#257=CIRCLE('',#387,9.922);
#258=SURFACE_STYLE_USAGE(.BOTH.,#388);
#259=FACE_OUTER_BOUND('',#389,.T.);
#260=PLANE('',#390);
#261=POINT_STYLE(' ',#391,POSITIVE_LENGTH_MEASURE(1.0E-006),#392);
#262=CARTESIAN_POINT('',(0.0,7.9375,-0.783999999999992));
#263=SURFACE_STYLE_USAGE(.BOTH.,#393);
#264=CLOSED_SHELL('',(#172,#164,#120,#80,#130,#100));
#265=CURVE_STYLE('',#394,POSITIVE_LENGTH_MEASURE(1.0E-006),#395);
#266=CIRCLE('',#396,9.9169);
#267=POINT_STYLE(' ',#397,POSITIVE_LENGTH_MEASURE(1.0E-006),#398);
#268=CARTESIAN_POINT('',(0.0,9.9219,-53.99));
#269=CURVE_STYLE('',#399,POSITIVE_LENGTH_MEASURE(1.0E-006),#400);
#270=CIRCLE('',#401,9.9219);
#271=POINT_STYLE(' ',#402,POSITIVE_LENGTH_MEASURE(1.0E-006),#403);
#272=CARTESIAN_POINT('',(1.21442987502211E-015,-9.9169,-53.99));
#273=CURVE_STYLE('',#404,POSITIVE_LENGTH_MEASURE(1.0E-006),#405);
#274=LINE('',#406,#407);
#275=CURVE_STYLE('',#408,POSITIVE_LENGTH_MEASURE(1.0E-006),#409);
#276=LINE('',#410,#411);
#277=CURVE_STYLE('',#412,POSITIVE_LENGTH_MEASURE(1.0E-006),#413);
#278=LINE('',#414,#415);
#279=CURVE_STYLE('',#416,POSITIVE_LENGTH_MEASURE(1.0E-006),#417);
#280=LINE('',#418,#419);
#281=CURVE_STYLE('',#420,POSITIVE_LENGTH_MEASURE(1.0E-006),#421);
#282=CIRCLE('',#422,7.9375);
#283=CURVE_STYLE('',#423,POSITIVE_LENGTH_MEASURE(1.0E-006),#424);
#284=LINE('',#425,#426);
#285=CURVE_STYLE('',#427,POSITIVE_LENGTH_MEASURE(1.0E-006),#428);
#286=CIRCLE('',#429,7.9375);
#287=SURFACE_STYLE_USAGE(.BOTH.,#430);
#288=FACE_OUTER_BOUND('',#431,.T.);
#289=CONICAL_SURFACE('',#432,4.95845,1.56978794750192);
#290=POINT_STYLE(' ',#433,POSITIVE_LENGTH_MEASURE(1.0E-006),#434);
#291=CARTESIAN_POINT('',(0.0,9.922,-101.59));
#292=CURVE_STYLE('',#435,POSITIVE_LENGTH_MEASURE(1.0E-006),#436);
#293=CIRCLE('',#437,9.9219);
#294=POINT_STYLE(' ',#438,POSITIVE_LENGTH_MEASURE(1.0E-006),#439);
#295=CARTESIAN_POINT('',(1.21504217819902E-015,-9.9219,-53.99));
#296=SURFACE_STYLE_USAGE(.BOTH.,#440);
#297=FACE_OUTER_BOUND('',#441,.T.);
#298=CONICAL_SURFACE('',#442,9.92195,2.10084033612647E-006);
#299=PRODUCT_CONTEXT('',#61,'mechanical');
#300=PRODUCT_DEFINITION_FORMATION_WITH_SPECIFIED_SOURCE(' ','NONE',#173,.NOT_KNOWN.);
#301=CARTESIAN_POINT('',(0.0,0.0,0.0));
#302=DIRECTION('',(0.0,0.0,1.0));
#303=DIRECTION('',(1.0,0.0,0.0));
#304=PRODUCT_CONTEXT('',#66,'mechanical');
#305=PRODUCT_DEFINITION_FORMATION_WITH_SPECIFIED_SOURCE(' ','NONE',#176,.NOT_KNOWN.);
#306=CARTESIAN_POINT('',(0.0,0.0,0.0));
#307=DIRECTION('',(0.0,0.0,1.0));
#308=DIRECTION('',(1.0,0.0,0.0));
#309= (NAMED_UNIT(#184)LENGTH_UNIT()SI_UNIT(.MILLI.,.METRE.));
#310=SURFACE_SIDE_STYLE('',(#444));
#311=EDGE_LOOP('',(#445,#446));
#312=EDGE_LOOP('',(#447,#448));
#313=AXIS2_PLACEMENT_3D('',#449,#450,#451);
#314=DRAUGHTING_PRE_DEFINED_CURVE_FONT('continuous');
#315=COLOUR_RGB('',0.800000011920929,0.800000011920929,0.800000011920929);
#316=AXIS2_PLACEMENT_3D('',#452,#453,#454);
#317=PRE_DEFINED_MARKER('');
#318=COLOUR_RGB('',0.498039215803146,0.498039215803146,0.498039215803146);
#319=PRE_DEFINED_MARKER('');
#320=COLOUR_RGB('',0.800000011920929,0.800000011920929,0.800000011920929);
#321=DRAUGHTING_PRE_DEFINED_CURVE_FONT('continuous');
#322=COLOUR_RGB('',0.498039215803146,0.498039215803146,0.498039215803146);
#323=CARTESIAN_POINT('',(-9.43962329067694E-016,7.70829194313172,-0.386999999999993));
#324=VECTOR('',#455,1.0);
#325=DRAUGHTING_PRE_DEFINED_CURVE_FONT('continuous');
#326=COLOUR_RGB('',0.800000011920929,0.800000011920929,0.800000011920929);
#327=CARTESIAN_POINT('',(6.07214937511057E-016,-4.95845,-53.995));
#328=VECTOR('',#456,1.0);
#329=PRE_DEFINED_MARKER('');
#330=COLOUR_RGB('',0.498039215803146,0.498039215803146,0.498039215803146);
#331=DRAUGHTING_PRE_DEFINED_CURVE_FONT('continuous');
#332=COLOUR_RGB('',0.800000011920929,0.800000011920929,0.800000011920929);
#333=AXIS2_PLACEMENT_3D('',#457,#458,#459);
#334=SURFACE_SIDE_STYLE('',(#460));
#335=PRE_DEFINED_MARKER('');
#336=COLOUR_RGB('',0.498039215803146,0.498039215803146,0.498039215803146);
#337=SURFACE_SIDE_STYLE('',(#461));
#338=EDGE_LOOP('',(#462,#463));
#339=AXIS2_PLACEMENT_3D('',#464,#465,#466);
#340=PRE_DEFINED_MARKER('');
#341=COLOUR_RGB('',0.800000011920929,0.800000011920929,0.800000011920929);
#342=SURFACE_SIDE_STYLE('',(#467));
#343=EDGE_LOOP('',(#468,#469,#470,#471));
#344=AXIS2_PLACEMENT_3D('',#472,#473,#474);
#345=DRAUGHTING_PRE_DEFINED_CURVE_FONT('continuous');
#346=COLOUR_RGB('',0.498039215803146,0.498039215803146,0.498039215803146);
#347=AXIS2_PLACEMENT_3D('',#475,#476,#477);
#348=DRAUGHTING_PRE_DEFINED_CURVE_FONT('continuous');
#349=COLOUR_RGB('',0.498039215803146,0.498039215803146,0.498039215803146);
#350=AXIS2_PLACEMENT_3D('',#478,#479,#480);
#351=SURFACE_SIDE_STYLE('',(#481));
#352=EDGE_LOOP('',(#482,#483,#484,#485));
#353=AXIS2_PLACEMENT_3D('',#486,#487,#488);
#354=PRE_DEFINED_MARKER('');
#355=COLOUR_RGB('',0.498039215803146,0.498039215803146,0.498039215803146);
#356=SURFACE_SIDE_STYLE('',(#489));
#357=EDGE_LOOP('',(#490,#491,#492,#493));
#358=AXIS2_PLACEMENT_3D('',#494,#495,#496);
#359=SURFACE_SIDE_STYLE('',(#497));
#360=EDGE_LOOP('',(#498,#499,#500,#501));
#361=AXIS2_PLACEMENT_3D('',#502,#503,#504);
#362=SURFACE_SIDE_STYLE('',(#505));
#363=EDGE_LOOP('',(#506,#507));
#364=AXIS2_PLACEMENT_3D('',#508,#509,#510);
#365=SURFACE_SIDE_STYLE('',(#511));
#366=EDGE_LOOP('',(#512,#513,#514));
#367=AXIS2_PLACEMENT_3D('',#515,#516,#517);
#368=DRAUGHTING_PRE_DEFINED_CURVE_FONT('continuous');
#369=COLOUR_RGB('',0.498039215803146,0.498039215803146,0.498039215803146);
#370=AXIS2_PLACEMENT_3D('',#518,#519,#520);
#371=DRAUGHTING_PRE_DEFINED_CURVE_FONT('continuous');
#372=COLOUR_RGB('',0.498039215803146,0.498039215803146,0.498039215803146);
#373=CARTESIAN_POINT('',(9.43962329067694E-016,-7.70829194313172,-0.386999999999993));
#374=VECTOR('',#521,1.0);
#375=PRE_DEFINED_MARKER('');
#376=COLOUR_RGB('',0.800000011920929,0.800000011920929,0.800000011920929);
#377=PRE_DEFINED_MARKER('');
#378=COLOUR_RGB('',0.498039215803146,0.498039215803146,0.498039215803146);
#379=SURFACE_SIDE_STYLE('',(#522));
#380=EDGE_LOOP('',(#523,#524,#525,#526));
#381=AXIS2_PLACEMENT_3D('',#527,#528,#529);
#382=DRAUGHTING_PRE_DEFINED_CURVE_FONT('continuous');
#383=COLOUR_RGB('',0.498039215803146,0.498039215803146,0.498039215803146);
#384=AXIS2_PLACEMENT_3D('',#530,#531,#532);
#385=DRAUGHTING_PRE_DEFINED_CURVE_FONT('continuous');
#386=COLOUR_RGB('',0.800000011920929,0.800000011920929,0.800000011920929);
#387=AXIS2_PLACEMENT_3D('',#533,#534,#535);
#388=SURFACE_SIDE_STYLE('',(#536));
#389=EDGE_LOOP('',(#537,#538));
#390=AXIS2_PLACEMENT_3D('',#539,#540,#541);
#391=PRE_DEFINED_MARKER('');
#392=COLOUR_RGB('',0.498039215803146,0.498039215803146,0.498039215803146);
#393=SURFACE_SIDE_STYLE('',(#542));
#394=DRAUGHTING_PRE_DEFINED_CURVE_FONT('continuous');
#395=COLOUR_RGB('',0.800000011920929,0.800000011920929,0.800000011920929);
#396=AXIS2_PLACEMENT_3D('',#543,#544,#545);
#397=PRE_DEFINED_MARKER('');
#398=COLOUR_RGB('',0.800000011920929,0.800000011920929,0.800000011920929);
#399=DRAUGHTING_PRE_DEFINED_CURVE_FONT('continuous');
#400=COLOUR_RGB('',0.800000011920929,0.800000011920929,0.800000011920929);
#401=AXIS2_PLACEMENT_3D('',#546,#547,#548);
#402=PRE_DEFINED_MARKER('');
#403=COLOUR_RGB('',0.800000011920929,0.800000011920929,0.800000011920929);
#404=DRAUGHTING_PRE_DEFINED_CURVE_FONT('continuous');
#405=COLOUR_RGB('',0.800000011920929,0.800000011920929,0.800000011920929);
#406=CARTESIAN_POINT('',(1.21504830123079E-015,-9.92195,-77.79));
#407=VECTOR('',#549,1.0);
#408=DRAUGHTING_PRE_DEFINED_CURVE_FONT('continuous');
#409=COLOUR_RGB('',0.800000011920929,0.800000011920929,0.800000011920929);
#410=CARTESIAN_POINT('',(-6.07214937511057E-016,4.95845,-53.995));
#411=VECTOR('',#550,1.0);
#412=DRAUGHTING_PRE_DEFINED_CURVE_FONT('continuous');
#413=COLOUR_RGB('',0.800000011920929,0.800000011920929,0.800000011920929);
#414=CARTESIAN_POINT('',(-1.21504830123079E-015,9.92195,-77.79));
#415=VECTOR('',#551,1.0);
#416=DRAUGHTING_PRE_DEFINED_CURVE_FONT('continuous');
#417=COLOUR_RGB('',0.498039215803146,0.498039215803146,0.498039215803146);
#418=CARTESIAN_POINT('',(-9.72031293346512E-016,7.9375,-17.465));
#419=VECTOR('',#552,1.0);
#420=DRAUGHTING_PRE_DEFINED_CURVE_FONT('continuous');
#421=COLOUR_RGB('',0.498039215803146,0.498039215803146,0.498039215803146);
#422=AXIS2_PLACEMENT_3D('',#553,#554,#555);
#423=DRAUGHTING_PRE_DEFINED_CURVE_FONT('continuous');
#424=COLOUR_RGB('',0.498039215803146,0.498039215803146,0.498039215803146);
#425=CARTESIAN_POINT('',(9.72031293346512E-016,-7.9375,-17.465));
#426=VECTOR('',#556,1.0);
#427=DRAUGHTING_PRE_DEFINED_CURVE_FONT('continuous');
#428=COLOUR_RGB('',0.498039215803146,0.498039215803146,0.498039215803146);
#429=AXIS2_PLACEMENT_3D('',#557,#558,#559);
#430=SURFACE_SIDE_STYLE('',(#560));
#431=EDGE_LOOP('',(#561,#562,#563));
#432=AXIS2_PLACEMENT_3D('',#564,#565,#566);
#433=PRE_DEFINED_MARKER('');
#434=COLOUR_RGB('',0.800000011920929,0.800000011920929,0.800000011920929);
#435=DRAUGHTING_PRE_DEFINED_CURVE_FONT('continuous');
#436=COLOUR_RGB('',0.800000011920929,0.800000011920929,0.800000011920929);
#437=AXIS2_PLACEMENT_3D('',#567,#568,#569);
#438=PRE_DEFINED_MARKER('');
#439=COLOUR_RGB('',0.800000011920929,0.800000011920929,0.800000011920929);
#440=SURFACE_SIDE_STYLE('',(#570));
#441=EDGE_LOOP('',(#571,#572,#573,#574));
#442=AXIS2_PLACEMENT_3D('',#575,#576,#577);
#444=SURFACE_STYLE_FILL_AREA(#578);
#445=ORIENTED_EDGE('',*,*,#168,.F.);
#446=ORIENTED_EDGE('',*,*,#146,.F.);
#447=ORIENTED_EDGE('',*,*,#94,.T.);
#448=ORIENTED_EDGE('',*,*,#142,.T.);
#449=CARTESIAN_POINT('',(0.0,9.9194,-53.99));
#450=DIRECTION('',(-0.0,0.0,1.0));
#451=DIRECTION('',(0.0,-1.0,0.0));
#452=CARTESIAN_POINT('',(0.0,0.0,-101.59));
#453=DIRECTION('',(0.0,0.0,-1.0));
#454=DIRECTION('',(0.0,1.0,0.0));
#455=DIRECTION('',(-6.12303176911191E-017,0.500000000000002,-0.866025403784438));
#456=DIRECTION('',(1.22460573121493E-016,-0.999999491585644,0.00100837912209113));
#457=CARTESIAN_POINT('',(0.0,0.0,-53.99));
#458=DIRECTION('',(0.0,0.0,-1.0));
#459=DIRECTION('',(0.0,1.0,0.0));
#460=SURFACE_STYLE_FILL_AREA(#579);
#461=SURFACE_STYLE_FILL_AREA(#580);
#462=ORIENTED_EDGE('',*,*,#134,.T.);
#463=ORIENTED_EDGE('',*,*,#82,.T.);
#464=CARTESIAN_POINT('',(0.0,4.9585,-101.59));
#465=DIRECTION('',(0.0,0.0,-1.0));
#466=DIRECTION('',(0.0,1.0,0.0));
#467=SURFACE_STYLE_FILL_AREA(#581);
#468=ORIENTED_EDGE('',*,*,#88,.F.);
#469=ORIENTED_EDGE('',*,*,#122,.T.);
#470=ORIENTED_EDGE('',*,*,#124,.F.);
#471=ORIENTED_EDGE('',*,*,#132,.F.);
#472=CARTESIAN_POINT('',(0.0,0.0,-0.386999999999993));
#473=DIRECTION('',(0.0,-0.0,-1.0));
#474=DIRECTION('',(0.0,1.0,0.0));
#475=CARTESIAN_POINT('',(0.0,0.0,-53.99));
#476=DIRECTION('',(0.0,0.0,-1.0));
#477=DIRECTION('',(0.0,-1.0,0.0));
#478=CARTESIAN_POINT('',(0.0,0.0,0.0100000000000051));
#479=DIRECTION('',(0.0,0.0,-1.0));
#480=DIRECTION('',(0.0,1.0,0.0));
#481=SURFACE_STYLE_FILL_AREA(#582);
#482=ORIENTED_EDGE('',*,*,#88,.T.);
#483=ORIENTED_EDGE('',*,*,#162,.F.);
#484=ORIENTED_EDGE('',*,*,#124,.T.);
#485=ORIENTED_EDGE('',*,*,#108,.T.);
#486=CARTESIAN_POINT('',(0.0,0.0,-0.386999999999993));
#487=DIRECTION('',(0.0,-0.0,-1.0));
#488=DIRECTION('',(0.0,1.0,0.0));
#489=SURFACE_STYLE_FILL_AREA(#583);
#490=ORIENTED_EDGE('',*,*,#156,.F.);
#491=ORIENTED_EDGE('',*,*,#132,.T.);
#492=ORIENTED_EDGE('',*,*,#160,.F.);
#493=ORIENTED_EDGE('',*,*,#158,.F.);
#494=CARTESIAN_POINT('',(0.0,0.0,-17.465));
#495=DIRECTION('',(-0.0,-0.0,1.0));
#496=DIRECTION('',(0.0,1.0,0.0));
#497=SURFACE_STYLE_FILL_AREA(#584);
#498=ORIENTED_EDGE('',*,*,#156,.T.);
#499=ORIENTED_EDGE('',*,*,#106,.F.);
#500=ORIENTED_EDGE('',*,*,#160,.T.);
#501=ORIENTED_EDGE('',*,*,#162,.T.);
#502=CARTESIAN_POINT('',(0.0,0.0,-17.465));
#503=DIRECTION('',(-0.0,-0.0,1.0));
#504=DIRECTION('',(0.0,1.0,0.0));
#505=SURFACE_STYLE_FILL_AREA(#585);
#506=ORIENTED_EDGE('',*,*,#106,.T.);
#507=ORIENTED_EDGE('',*,*,#158,.T.);
#508=CARTESIAN_POINT('',(0.0,0.0,-53.99));
#509=DIRECTION('',(0.0,0.0,-1.0));
#510=DIRECTION('',(0.0,-1.0,0.0));
#511=SURFACE_STYLE_FILL_AREA(#586);
#512=ORIENTED_EDGE('',*,*,#90,.T.);
#513=ORIENTED_EDGE('',*,*,#94,.F.);
#514=ORIENTED_EDGE('',*,*,#152,.T.);
#515=CARTESIAN_POINT('',(0.0,0.0,-53.995));
#516=DIRECTION('',(-0.0,-0.0,1.0));
#517=DIRECTION('',(0.0,1.0,0.0));
#518=CARTESIAN_POINT('',(0.0,0.0,0.0100000000000051));
#519=DIRECTION('',(0.0,0.0,-1.0));
#520=DIRECTION('',(0.0,1.0,0.0));
#521=DIRECTION('',(-6.12303176911191E-017,0.500000000000002,0.866025403784438));
#522=SURFACE_STYLE_FILL_AREA(#587);
#523=ORIENTED_EDGE('',*,*,#154,.T.);
#524=ORIENTED_EDGE('',*,*,#82,.F.);
#525=ORIENTED_EDGE('',*,*,#150,.T.);
#526=ORIENTED_EDGE('',*,*,#146,.T.);
#527=CARTESIAN_POINT('',(0.0,0.0,-77.79));
#528=DIRECTION('',(0.0,-0.0,-1.0));
#529=DIRECTION('',(0.0,1.0,0.0));
#530=CARTESIAN_POINT('',(0.0,0.0,-0.783999999999992));
#531=DIRECTION('',(0.0,0.0,-1.0));
#532=DIRECTION('',(0.0,1.0,0.0));
#533=CARTESIAN_POINT('',(0.0,0.0,-101.59));
#534=DIRECTION('',(0.0,0.0,-1.0));
#535=DIRECTION('',(0.0,1.0,0.0));
#536=SURFACE_STYLE_FILL_AREA(#588);
#537=ORIENTED_EDGE('',*,*,#122,.F.);
#538=ORIENTED_EDGE('',*,*,#108,.F.);
#539=CARTESIAN_POINT('',(0.0,3.73954194313172,0.0100000000000051));
#540=DIRECTION('',(-0.0,0.0,1.0));
#541=DIRECTION('',(0.0,-1.0,0.0));
#542=SURFACE_STYLE_FILL_AREA(#589);
#543=CARTESIAN_POINT('',(0.0,0.0,-53.99));
#544=DIRECTION('',(0.0,0.0,-1.0));
#545=DIRECTION('',(0.0,1.0,0.0));
#546=CARTESIAN_POINT('',(0.0,0.0,-53.99));
#547=DIRECTION('',(0.0,0.0,-1.0));
#548=DIRECTION('',(0.0,1.0,0.0));
#549=DIRECTION('',(-2.57270242398492E-022,2.10084033612492E-006,0.999999999997793));
#550=DIRECTION('',(1.22460573121493E-016,-0.999999491585644,-0.00100837912209113));
#551=DIRECTION('',(-2.57270242398492E-022,2.10084033612492E-006,-0.999999999997793));
#552=DIRECTION('',(0.0,0.0,-1.0));
#553=CARTESIAN_POINT('',(0.0,0.0,-53.99));
#554=DIRECTION('',(0.0,0.0,-1.0));
#555=DIRECTION('',(0.0,-1.0,0.0));
#556=DIRECTION('',(-0.0,-0.0,1.0));
#557=CARTESIAN_POINT('',(0.0,0.0,-0.783999999999992));
#558=DIRECTION('',(0.0,0.0,-1.0));
#559=DIRECTION('',(0.0,1.0,0.0));
#560=SURFACE_STYLE_FILL_AREA(#590);
#561=ORIENTED_EDGE('',*,*,#90,.F.);
#562=ORIENTED_EDGE('',*,*,#152,.F.);
#563=ORIENTED_EDGE('',*,*,#142,.F.);
#564=CARTESIAN_POINT('',(0.0,0.0,-53.995));
#565=DIRECTION('',(-0.0,-0.0,1.0));
#566=DIRECTION('',(0.0,1.0,0.0));
#567=CARTESIAN_POINT('',(0.0,0.0,-53.99));
#568=DIRECTION('',(0.0,0.0,-1.0));
#569=DIRECTION('',(0.0,1.0,0.0));
#570=SURFACE_STYLE_FILL_AREA(#591);
#571=ORIENTED_EDGE('',*,*,#154,.F.);
#572=ORIENTED_EDGE('',*,*,#168,.T.);
#573=ORIENTED_EDGE('',*,*,#150,.F.);
#574=ORIENTED_EDGE('',*,*,#134,.F.);
#575=CARTESIAN_POINT('',(0.0,0.0,-77.79));
#576=DIRECTION('',(0.0,-0.0,-1.0));
#577=DIRECTION('',(0.0,1.0,0.0));
#578=FILL_AREA_STYLE('',(#592));
#579=FILL_AREA_STYLE('',(#593));
#580=FILL_AREA_STYLE('',(#594));
#581=FILL_AREA_STYLE('',(#595));
#582=FILL_AREA_STYLE('',(#596));
#583=FILL_AREA_STYLE('',(#597));
#584=FILL_AREA_STYLE('',(#598));
#585=FILL_AREA_STYLE('',(#599));
#586=FILL_AREA_STYLE('',(#600));
#587=FILL_AREA_STYLE('',(#601));
#588=FILL_AREA_STYLE('',(#602));
#589=FILL_AREA_STYLE('',(#603));
#590=FILL_AREA_STYLE('',(#604));
#591=FILL_AREA_STYLE('',(#605));
#592=FILL_AREA_STYLE_COLOUR('',#606);
#593=FILL_AREA_STYLE_COLOUR('',#607);
#594=FILL_AREA_STYLE_COLOUR('',#608);
#595=FILL_AREA_STYLE_COLOUR('',#609);
#596=FILL_AREA_STYLE_COLOUR('',#610);
#597=FILL_AREA_STYLE_COLOUR('',#611);
#598=FILL_AREA_STYLE_COLOUR('',#612);
#599=FILL_AREA_STYLE_COLOUR('',#613);
#600=FILL_AREA_STYLE_COLOUR('',#614);
#601=FILL_AREA_STYLE_COLOUR('',#615);
#602=FILL_AREA_STYLE_COLOUR('',#616);
#603=FILL_AREA_STYLE_COLOUR('',#617);
#604=FILL_AREA_STYLE_COLOUR('',#618);
#605=FILL_AREA_STYLE_COLOUR('',#619);
#606=COLOUR_RGB('',0.800000011920929,0.800000011920929,0.800000011920929);
#607=COLOUR_RGB('',0.800000011920929,0.800000011920929,0.800000011920929);
#608=COLOUR_RGB('',0.800000011920929,0.800000011920929,0.800000011920929);
#609=COLOUR_RGB('',0.498039215803146,0.498039215803146,0.498039215803146);
#610=COLOUR_RGB('',0.498039215803146,0.498039215803146,0.498039215803146);
#611=COLOUR_RGB('',0.498039215803146,0.498039215803146,0.498039215803146);
#612=COLOUR_RGB('',0.498039215803146,0.498039215803146,0.498039215803146);
#613=COLOUR_RGB('',0.498039215803146,0.498039215803146,0.498039215803146);
#614=COLOUR_RGB('',0.800000011920929,0.800000011920929,0.800000011920929);
#615=COLOUR_RGB('',0.800000011920929,0.800000011920929,0.800000011920929);
#616=COLOUR_RGB('',0.498039215803146,0.498039215803146,0.498039215803146);
#617=COLOUR_RGB('',0.800000011920929,0.800000011920929,0.800000011920929);
#618=COLOUR_RGB('',0.800000011920929,0.800000011920929,0.800000011920929);
#619=COLOUR_RGB('',0.800000011920929,0.800000011920929,0.800000011920929);
#620=AXIS2_PLACEMENT_3D('PCS',#621,#622,#623);
#621=CARTESIAN_POINT('',(0.0,0.0,0.0));
#622=DIRECTION('',(0.0,0.0,1.0));
#623=DIRECTION('',(1.0,0.0,0.0));
#624=AXIS2_PLACEMENT_3D('CIP',#625,#626,#627);
#625=CARTESIAN_POINT('',(0.0,0.0,-101.6));
#626=DIRECTION('',(0.0,0.0,1.0));
#627=DIRECTION('',(1.0,0.0,0.0));
#628=AXIS2_PLACEMENT_3D('CRP',#629,#630,#631);
#629=CARTESIAN_POINT('',(-9.922,0.0,-101.6));
#630=DIRECTION('',(0.0,0.0,1.0));
#631=DIRECTION('',(1.0,0.0,0.0));
#632=AXIS2_PLACEMENT_3D('MCS',#633,#634,#635);
#633=CARTESIAN_POINT('',(0.0,0.0,-34.156));
#634=DIRECTION('',(0.0,0.0,1.0));
#635=DIRECTION('',(1.0,0.0,0.0));
#636=CONSTRUCTIVE_GEOMETRY_REPRESENTATION_RELATIONSHIP('coordinate systems',$,#65,#637);
#637=CONSTRUCTIVE_GEOMETRY_REPRESENTATION('coordinate systems',(#620,#624,#628,#632),#10);
ENDSEC;
END-ISO-10303-21;
