ISO-10303-21;
HEADER;
FILE_DESCRIPTION(('no description'),'unknown implementation level');
FILE_NAME('solid_oo5VyqDvk3rSL59_PzNmSUivws_1.STP','  ',('CIMSOURCE GmbH'),('CADClick - KiM GmbH - www.kimweb.de'),'unknown preprocess','ACIS','unknown authorization');
FILE_SCHEMA(('automotive_design'));
ENDSEC;
DATA;
#1=MECHANICAL_DESIGN_GEOMETRIC_PRESENTATION_REPRESENTATION(' ',(#14,#15,#16,#17,#18,#19,#20,#21,#22,#23,#24,#25,#26,#27,#28,#29,#30,#31,#32,#33,#34,#35,#36,#37,#38,#39,#40,#41,#42,#43,#44,#45,#46,#47,#48,#49,#50,#51,#52,#53,#54,#55,#56,#57,#58,#59,#60),#10);
#2=PRODUCT_DEFINITION_CONTEXT('',#61,'design');
#3=APPLICATION_PROTOCOL_DEFINITION('INTERNATIONAL STANDARD','automotive_design',1994,#61);
#4=PRODUCT_CATEGORY_RELATIONSHIP('NONE','NONE',#62,#63);
#5=SHAPE_DEFINITION_REPRESENTATION(#64,#65);
#6=PRODUCT_DEFINITION_CONTEXT('',#66,'design');
#7=APPLICATION_PROTOCOL_DEFINITION('INTERNATIONAL STANDARD','automotive_design',1994,#66);
#8=PRODUCT_CATEGORY_RELATIONSHIP('NONE','NONE',#67,#68);
#9=SHAPE_DEFINITION_REPRESENTATION(#69,#70);
#10= (GEOMETRIC_REPRESENTATION_CONTEXT(3)GLOBAL_UNCERTAINTY_ASSIGNED_CONTEXT((#73))GLOBAL_UNIT_ASSIGNED_CONTEXT((#75,#76,#77))REPRESENTATION_CONTEXT('NONE','WORKSPACE'));
#14=STYLED_ITEM('',(#79),#80);
#15=STYLED_ITEM('',(#81),#82);
#16=STYLED_ITEM('',(#83),#84);
#17=STYLED_ITEM('',(#85),#86);
#18=STYLED_ITEM('',(#87),#88);
#19=STYLED_ITEM('',(#89),#90);
#20=STYLED_ITEM('',(#91),#92);
#21=STYLED_ITEM('',(#93),#94);
#22=STYLED_ITEM('',(#95),#96);
#23=STYLED_ITEM('',(#97),#98);
#24=STYLED_ITEM('',(#99),#100);
#25=STYLED_ITEM('',(#101),#102);
#26=STYLED_ITEM('',(#103),#104);
#27=STYLED_ITEM('',(#105),#106);
#28=STYLED_ITEM('',(#107),#108);
#29=STYLED_ITEM('',(#109),#110);
#30=STYLED_ITEM('',(#111),#112);
#31=STYLED_ITEM('',(#113),#114);
#32=STYLED_ITEM('',(#115),#116);
#33=STYLED_ITEM('',(#117),#118);
#34=STYLED_ITEM('',(#119),#120);
#35=STYLED_ITEM('',(#121),#122);
#36=STYLED_ITEM('',(#123),#124);
#37=STYLED_ITEM('',(#125),#126);
#38=STYLED_ITEM('',(#127),#128);
#39=STYLED_ITEM('',(#129),#130);
#40=STYLED_ITEM('',(#131),#132);
#41=STYLED_ITEM('',(#133),#134);
#42=STYLED_ITEM('',(#135),#136);
#43=STYLED_ITEM('',(#137),#138);
#44=STYLED_ITEM('',(#139),#140);
#45=STYLED_ITEM('',(#141),#142);
#46=STYLED_ITEM('',(#143),#144);
#47=STYLED_ITEM('',(#145),#146);
#48=STYLED_ITEM('',(#147),#148);
#49=STYLED_ITEM('',(#149),#150);
#50=STYLED_ITEM('',(#151),#152);
#51=STYLED_ITEM('',(#153),#154);
#52=STYLED_ITEM('',(#155),#156);
#53=STYLED_ITEM('',(#157),#158);
#54=STYLED_ITEM('',(#159),#160);
#55=STYLED_ITEM('',(#161),#162);
#56=STYLED_ITEM('',(#163),#164);
#57=STYLED_ITEM('',(#165),#166);
#58=STYLED_ITEM('',(#167),#168);
#59=STYLED_ITEM('',(#169),#170);
#60=STYLED_ITEM('',(#171),#172);
#61=APPLICATION_CONTEXT(' ');
#62=PRODUCT_CATEGORY('part','NONE');
#63=PRODUCT_RELATED_PRODUCT_CATEGORY('detail',' ',(#173));
#64=PRODUCT_DEFINITION_SHAPE('NONE','NONE',#174);
#65=ADVANCED_BREP_SHAPE_REPRESENTATION('1',(#164,#175),#10);
#66=APPLICATION_CONTEXT(' ');
#67=PRODUCT_CATEGORY('part','NONE');
#68=PRODUCT_RELATED_PRODUCT_CATEGORY('detail',' ',(#176));
#69=PRODUCT_DEFINITION_SHAPE('NONE','NONE',#177);
#70=ADVANCED_BREP_SHAPE_REPRESENTATION('2',(#126,#178),#10);
#73=UNCERTAINTY_MEASURE_WITH_UNIT(LENGTH_MEASURE(1.0E-006),#75,'','');
#75= (CONVERSION_BASED_UNIT('MILLIMETRE',#181)LENGTH_UNIT()NAMED_UNIT(#184));
#76= (NAMED_UNIT(#186)PLANE_ANGLE_UNIT()SI_UNIT($,.RADIAN.));
#77= (NAMED_UNIT(#186)SOLID_ANGLE_UNIT()SI_UNIT($,.STERADIAN.));
#79=PRESENTATION_STYLE_ASSIGNMENT((#192));
#80=EDGE_CURVE('',#128,#156,#193,.T.);
#81=PRESENTATION_STYLE_ASSIGNMENT((#194));
#82=ADVANCED_FACE('',(#195),#196,.T.);
#83=PRESENTATION_STYLE_ASSIGNMENT((#197));
#84=EDGE_CURVE('',#148,#102,#198,.T.);
#85=PRESENTATION_STYLE_ASSIGNMENT((#199));
#86=VERTEX_POINT('',#200);
#87=PRESENTATION_STYLE_ASSIGNMENT((#201));
#88=ADVANCED_FACE('',(#202),#203,.T.);
#89=PRESENTATION_STYLE_ASSIGNMENT((#204));
#90=VERTEX_POINT('',#205);
#91=PRESENTATION_STYLE_ASSIGNMENT((#206));
#92=VERTEX_POINT('',#207);
#93=PRESENTATION_STYLE_ASSIGNMENT((#208));
#94=ADVANCED_FACE('',(#209),#210,.T.);
#95=PRESENTATION_STYLE_ASSIGNMENT((#211));
#96=ADVANCED_FACE('',(#212),#213,.T.);
#97=PRESENTATION_STYLE_ASSIGNMENT((#214));
#98=ADVANCED_FACE('',(#215),#216,.T.);
#99=PRESENTATION_STYLE_ASSIGNMENT((#217));
#100=EDGE_CURVE('',#122,#128,#218,.T.);
#101=PRESENTATION_STYLE_ASSIGNMENT((#219));
#102=VERTEX_POINT('',#220);
#103=PRESENTATION_STYLE_ASSIGNMENT((#221));
#104=VERTEX_POINT('',#222);
#105=PRESENTATION_STYLE_ASSIGNMENT((#223));
#106=ADVANCED_FACE('',(#224),#225,.F.);
#107=PRESENTATION_STYLE_ASSIGNMENT((#226));
#108=EDGE_CURVE('',#144,#168,#227,.T.);
#109=PRESENTATION_STYLE_ASSIGNMENT((#228));
#110=EDGE_CURVE('',#86,#138,#229,.T.);
#111=PRESENTATION_STYLE_ASSIGNMENT((#230));
#112=EDGE_CURVE('',#168,#128,#231,.T.);
#113=PRESENTATION_STYLE_ASSIGNMENT((#232));
#114=EDGE_CURVE('',#122,#142,#233,.T.);
#115=PRESENTATION_STYLE_ASSIGNMENT((#234));
#116=ADVANCED_FACE('',(#235),#236,.T.);
#117=PRESENTATION_STYLE_ASSIGNMENT((#237));
#118=ADVANCED_FACE('',(#238),#239,.T.);
#119=PRESENTATION_STYLE_ASSIGNMENT((#240));
#120=EDGE_CURVE('',#156,#144,#241,.T.);
#121=PRESENTATION_STYLE_ASSIGNMENT((#242));
#122=VERTEX_POINT('',#243);
#123=PRESENTATION_STYLE_ASSIGNMENT((#244));
#124=EDGE_CURVE('',#142,#122,#245,.T.);
#125=PRESENTATION_STYLE_ASSIGNMENT((#246));
#126=MANIFOLD_SOLID_BREP('2',#247);
#127=PRESENTATION_STYLE_ASSIGNMENT((#248));
#128=VERTEX_POINT('',#249);
#129=PRESENTATION_STYLE_ASSIGNMENT((#250));
#130=ADVANCED_FACE('',(#251),#252,.F.);
#131=PRESENTATION_STYLE_ASSIGNMENT((#253));
#132=EDGE_CURVE('',#138,#104,#254,.T.);
#133=PRESENTATION_STYLE_ASSIGNMENT((#255));
#134=ADVANCED_FACE('',(#256,#257),#258,.T.);
#135=PRESENTATION_STYLE_ASSIGNMENT((#259));
#136=EDGE_CURVE('',#102,#148,#260,.T.);
#137=PRESENTATION_STYLE_ASSIGNMENT((#261));
#138=VERTEX_POINT('',#262);
#139=PRESENTATION_STYLE_ASSIGNMENT((#263));
#140=EDGE_CURVE('',#92,#102,#264,.T.);
#141=PRESENTATION_STYLE_ASSIGNMENT((#265));
#142=VERTEX_POINT('',#266);
#143=PRESENTATION_STYLE_ASSIGNMENT((#267));
#144=VERTEX_POINT('',#268);
#145=PRESENTATION_STYLE_ASSIGNMENT((#269));
#146=EDGE_CURVE('',#128,#168,#270,.T.);
#147=PRESENTATION_STYLE_ASSIGNMENT((#271));
#148=VERTEX_POINT('',#272);
#149=PRESENTATION_STYLE_ASSIGNMENT((#273));
#150=EDGE_CURVE('',#104,#90,#274,.T.);
#151=PRESENTATION_STYLE_ASSIGNMENT((#275));
#152=EDGE_CURVE('',#90,#86,#276,.T.);
#153=PRESENTATION_STYLE_ASSIGNMENT((#277));
#154=ADVANCED_FACE('',(#278),#279,.T.);
#155=PRESENTATION_STYLE_ASSIGNMENT((#280));
#156=VERTEX_POINT('',#281);
#157=PRESENTATION_STYLE_ASSIGNMENT((#282));
#158=EDGE_CURVE('',#148,#92,#283,.T.);
#159=PRESENTATION_STYLE_ASSIGNMENT((#284));
#160=EDGE_CURVE('',#90,#104,#285,.T.);
#161=PRESENTATION_STYLE_ASSIGNMENT((#286));
#162=EDGE_CURVE('',#144,#156,#287,.T.);
#163=PRESENTATION_STYLE_ASSIGNMENT((#288));
#164=MANIFOLD_SOLID_BREP('1',#289);
#165=PRESENTATION_STYLE_ASSIGNMENT((#290));
#166=ADVANCED_FACE('',(#291),#292,.T.);
#167=PRESENTATION_STYLE_ASSIGNMENT((#293));
#168=VERTEX_POINT('',#294);
#169=PRESENTATION_STYLE_ASSIGNMENT((#295));
#170=EDGE_CURVE('',#138,#86,#296,.T.);
#171=PRESENTATION_STYLE_ASSIGNMENT((#297));
#172=EDGE_CURVE('',#168,#142,#298,.T.);
#173=PRODUCT('1','1','PART-1-DESC',(#299));
#174=PRODUCT_DEFINITION('NONE','NONE',#300,#2);
#175=AXIS2_PLACEMENT_3D('',#301,#302,#303);
#176=PRODUCT('2','2','PART-2-DESC',(#304));
#177=PRODUCT_DEFINITION('NONE','NONE',#305,#6);
#178=AXIS2_PLACEMENT_3D('',#306,#307,#308);
#181=LENGTH_MEASURE_WITH_UNIT(LENGTH_MEASURE(1.0),#309);
#184=DIMENSIONAL_EXPONENTS(1.0,0.0,0.0,0.0,0.0,0.0,0.0);
#186=DIMENSIONAL_EXPONENTS(0.0,0.0,0.0,0.0,0.0,0.0,0.0);
#192=CURVE_STYLE('',#310,POSITIVE_LENGTH_MEASURE(1.0E-006),#311);
#193=LINE('',#312,#313);
#194=SURFACE_STYLE_USAGE(.BOTH.,#314);
#195=FACE_OUTER_BOUND('',#315,.T.);
#196=CYLINDRICAL_SURFACE('',#316,7.9375);
#197=CURVE_STYLE('',#317,POSITIVE_LENGTH_MEASURE(1.0E-006),#318);
#198=CIRCLE('',#319,10.3139);
#199=POINT_STYLE(' ',#320,POSITIVE_LENGTH_MEASURE(1.0E-006),#321);
#200=CARTESIAN_POINT('',(1.26365905044577E-015,-10.3189,-53.99));
#201=SURFACE_STYLE_USAGE(.BOTH.,#322);
#202=FACE_OUTER_BOUND('',#323,.T.);
#203=CYLINDRICAL_SURFACE('',#324,7.9375);
#204=POINT_STYLE(' ',#325,POSITIVE_LENGTH_MEASURE(1.0E-006),#326);
#205=CARTESIAN_POINT('',(1.26367129650931E-015,-10.319,-101.59));
#206=POINT_STYLE(' ',#327,POSITIVE_LENGTH_MEASURE(1.0E-006),#328);
#207=CARTESIAN_POINT('',(0.0,0.0,-54.0));
#208=SURFACE_STYLE_USAGE(.BOTH.,#329);
#209=FACE_OUTER_BOUND('',#330,.T.);
#210=PLANE('',#331);
#211=SURFACE_STYLE_USAGE(.BOTH.,#332);
#212=FACE_OUTER_BOUND('',#333,.T.);
#213=CONICAL_SURFACE('',#334,10.31895,2.10084033612647E-006);
#214=SURFACE_STYLE_USAGE(.BOTH.,#335);
#215=FACE_OUTER_BOUND('',#336,.T.);
#216=CONICAL_SURFACE('',#337,10.31895,2.10084033612647E-006);
#217=CURVE_STYLE('',#338,POSITIVE_LENGTH_MEASURE(1.0E-006),#339);
#218=LINE('',#340,#341);
#219=POINT_STYLE(' ',#342,POSITIVE_LENGTH_MEASURE(1.0E-006),#343);
#220=CARTESIAN_POINT('',(1.26304674726886E-015,-10.3139,-53.99));
#221=POINT_STYLE(' ',#344,POSITIVE_LENGTH_MEASURE(1.0E-006),#345);
#222=CARTESIAN_POINT('',(0.0,10.319,-101.59));
#223=SURFACE_STYLE_USAGE(.BOTH.,#346);
#224=FACE_OUTER_BOUND('',#347,.T.);
#225=CONICAL_SURFACE('',#348,5.15695,1.56982676175486);
#226=CURVE_STYLE('',#349,POSITIVE_LENGTH_MEASURE(1.0E-006),#350);
#227=LINE('',#351,#352);
#228=CURVE_STYLE('',#353,POSITIVE_LENGTH_MEASURE(1.0E-006),#354);
#229=CIRCLE('',#355,10.3189);
#230=CURVE_STYLE('',#356,POSITIVE_LENGTH_MEASURE(1.0E-006),#357);
#231=CIRCLE('',#358,7.9375);
#232=CURVE_STYLE('',#359,POSITIVE_LENGTH_MEASURE(1.0E-006),#360);
#233=CIRCLE('',#361,7.9375);
#234=SURFACE_STYLE_USAGE(.BOTH.,#362);
#235=FACE_OUTER_BOUND('',#363,.T.);
#236=CONICAL_SURFACE('',#364,7.70829194313172,0.523598775598301);
#237=SURFACE_STYLE_USAGE(.BOTH.,#365);
#238=FACE_OUTER_BOUND('',#366,.T.);
#239=CONICAL_SURFACE('',#367,7.70829194313172,0.523598775598301);
#240=CURVE_STYLE('',#368,POSITIVE_LENGTH_MEASURE(1.0E-006),#369);
#241=CIRCLE('',#370,7.47908388626344);
#242=POINT_STYLE(' ',#371,POSITIVE_LENGTH_MEASURE(1.0E-006),#372);
#243=CARTESIAN_POINT('',(0.0,-7.9375,-53.99));
#244=CURVE_STYLE('',#373,POSITIVE_LENGTH_MEASURE(1.0E-006),#374);
#245=CIRCLE('',#375,7.9375);
#246=SURFACE_STYLE_USAGE(.BOTH.,#376);
#247=CLOSED_SHELL('',(#82,#116,#166,#94,#118,#88));
#248=POINT_STYLE(' ',#377,POSITIVE_LENGTH_MEASURE(1.0E-006),#378);
#249=CARTESIAN_POINT('',(9.72031293346512E-016,-7.9375,-0.783999999999992));
#250=SURFACE_STYLE_USAGE(.BOTH.,#379);
#251=FACE_OUTER_BOUND('',#380,.T.);
#252=CONICAL_SURFACE('',#381,5.15695,1.56982676175486);
#253=CURVE_STYLE('',#382,POSITIVE_LENGTH_MEASURE(1.0E-006),#383);
#254=LINE('',#384,#385);
#255=SURFACE_STYLE_USAGE(.BOTH.,#386);
#256=FACE_OUTER_BOUND('',#387,.T.);
#257=FACE_BOUND('',#388,.T.);
#258=PLANE('',#389);
#259=CURVE_STYLE('',#390,POSITIVE_LENGTH_MEASURE(1.0E-006),#391);
#260=CIRCLE('',#392,10.3139);
#261=POINT_STYLE(' ',#393,POSITIVE_LENGTH_MEASURE(1.0E-006),#394);
#262=CARTESIAN_POINT('',(0.0,10.3189,-53.99));
#263=CURVE_STYLE('',#395,POSITIVE_LENGTH_MEASURE(1.0E-006),#396);
#264=LINE('',#397,#398);
#265=POINT_STYLE(' ',#399,POSITIVE_LENGTH_MEASURE(1.0E-006),#400);
#266=CARTESIAN_POINT('',(-9.72031293346512E-016,7.9375,-53.99));
#267=POINT_STYLE(' ',#401,POSITIVE_LENGTH_MEASURE(1.0E-006),#402);
#268=CARTESIAN_POINT('',(0.0,7.47908388626344,0.0100000000000051));
#269=CURVE_STYLE('',#403,POSITIVE_LENGTH_MEASURE(1.0E-006),#404);
#270=CIRCLE('',#405,7.9375);
#271=POINT_STYLE(' ',#406,POSITIVE_LENGTH_MEASURE(1.0E-006),#407);
#272=CARTESIAN_POINT('',(0.0,10.3139,-53.99));
#273=CURVE_STYLE('',#408,POSITIVE_LENGTH_MEASURE(1.0E-006),#409);
#274=CIRCLE('',#410,10.319);
#275=CURVE_STYLE('',#411,POSITIVE_LENGTH_MEASURE(1.0E-006),#412);
#276=LINE('',#413,#414);
#277=SURFACE_STYLE_USAGE(.BOTH.,#415);
#278=FACE_OUTER_BOUND('',#416,.T.);
#279=PLANE('',#417);
#280=POINT_STYLE(' ',#418,POSITIVE_LENGTH_MEASURE(1.0E-006),#419);
#281=CARTESIAN_POINT('',(9.15893364788876E-016,-7.47908388626344,0.0100000000000051));
#282=CURVE_STYLE('',#420,POSITIVE_LENGTH_MEASURE(1.0E-006),#421);
#283=LINE('',#422,#423);
#284=CURVE_STYLE('',#424,POSITIVE_LENGTH_MEASURE(1.0E-006),#425);
#285=CIRCLE('',#426,10.319);
#286=CURVE_STYLE('',#427,POSITIVE_LENGTH_MEASURE(1.0E-006),#428);
#287=CIRCLE('',#429,7.47908388626344);
#288=SURFACE_STYLE_USAGE(.BOTH.,#430);
#289=CLOSED_SHELL('',(#98,#106,#130,#134,#96,#154));
#290=SURFACE_STYLE_USAGE(.BOTH.,#431);
#291=FACE_OUTER_BOUND('',#432,.T.);
#292=PLANE('',#433);
#293=POINT_STYLE(' ',#434,POSITIVE_LENGTH_MEASURE(1.0E-006),#435);
#294=CARTESIAN_POINT('',(0.0,7.9375,-0.783999999999992));
#295=CURVE_STYLE('',#436,POSITIVE_LENGTH_MEASURE(1.0E-006),#437);
#296=CIRCLE('',#438,10.3189);
#297=CURVE_STYLE('',#439,POSITIVE_LENGTH_MEASURE(1.0E-006),#440);
#298=LINE('',#441,#442);
#299=PRODUCT_CONTEXT('',#61,'mechanical');
#300=PRODUCT_DEFINITION_FORMATION_WITH_SPECIFIED_SOURCE(' ','NONE',#173,.NOT_KNOWN.);
#301=CARTESIAN_POINT('',(0.0,0.0,0.0));
#302=DIRECTION('',(0.0,0.0,1.0));
#303=DIRECTION('',(1.0,0.0,0.0));
#304=PRODUCT_CONTEXT('',#66,'mechanical');
#305=PRODUCT_DEFINITION_FORMATION_WITH_SPECIFIED_SOURCE(' ','NONE',#176,.NOT_KNOWN.);
#306=CARTESIAN_POINT('',(0.0,0.0,0.0));
#307=DIRECTION('',(0.0,0.0,1.0));
#308=DIRECTION('',(1.0,0.0,0.0));
#309= (NAMED_UNIT(#184)LENGTH_UNIT()SI_UNIT(.MILLI.,.METRE.));
#310=DRAUGHTING_PRE_DEFINED_CURVE_FONT('continuous');
#311=COLOUR_RGB('',0.498039215803146,0.498039215803146,0.498039215803146);
#312=CARTESIAN_POINT('',(9.43962329067694E-016,-7.70829194313172,-0.386999999999993));
#313=VECTOR('',#444,1.0);
#314=SURFACE_SIDE_STYLE('',(#445));
#315=EDGE_LOOP('',(#446,#447,#448,#449));
#316=AXIS2_PLACEMENT_3D('',#450,#451,#452);
#317=DRAUGHTING_PRE_DEFINED_CURVE_FONT('continuous');
#318=COLOUR_RGB('',0.800000011920929,0.800000011920929,0.800000011920929);
#319=AXIS2_PLACEMENT_3D('',#453,#454,#455);
#320=PRE_DEFINED_MARKER('');
#321=COLOUR_RGB('',0.800000011920929,0.800000011920929,0.800000011920929);
#322=SURFACE_SIDE_STYLE('',(#456));
#323=EDGE_LOOP('',(#457,#458,#459,#460));
#324=AXIS2_PLACEMENT_3D('',#461,#462,#463);
#325=PRE_DEFINED_MARKER('');
#326=COLOUR_RGB('',0.800000011920929,0.800000011920929,0.800000011920929);
#327=PRE_DEFINED_MARKER('');
#328=COLOUR_RGB('',0.800000011920929,0.800000011920929,0.800000011920929);
#329=SURFACE_SIDE_STYLE('',(#464));
#330=EDGE_LOOP('',(#465,#466));
#331=AXIS2_PLACEMENT_3D('',#467,#468,#469);
#332=SURFACE_SIDE_STYLE('',(#470));
#333=EDGE_LOOP('',(#471,#472,#473,#474));
#334=AXIS2_PLACEMENT_3D('',#475,#476,#477);
#335=SURFACE_SIDE_STYLE('',(#478));
#336=EDGE_LOOP('',(#479,#480,#481,#482));
#337=AXIS2_PLACEMENT_3D('',#483,#484,#485);
#338=DRAUGHTING_PRE_DEFINED_CURVE_FONT('continuous');
#339=COLOUR_RGB('',0.498039215803146,0.498039215803146,0.498039215803146);
#340=CARTESIAN_POINT('',(9.72031293346512E-016,-7.9375,-17.068));
#341=VECTOR('',#486,1.0);
#342=PRE_DEFINED_MARKER('');
#343=COLOUR_RGB('',0.800000011920929,0.800000011920929,0.800000011920929);
#344=PRE_DEFINED_MARKER('');
#345=COLOUR_RGB('',0.800000011920929,0.800000011920929,0.800000011920929);
#346=SURFACE_SIDE_STYLE('',(#487));
#347=EDGE_LOOP('',(#488,#489,#490));
#348=AXIS2_PLACEMENT_3D('',#491,#492,#493);
#349=DRAUGHTING_PRE_DEFINED_CURVE_FONT('continuous');
#350=COLOUR_RGB('',0.498039215803146,0.498039215803146,0.498039215803146);
#351=CARTESIAN_POINT('',(-9.43962329067694E-016,7.70829194313172,-0.386999999999993));
#352=VECTOR('',#494,1.0);
#353=DRAUGHTING_PRE_DEFINED_CURVE_FONT('continuous');
#354=COLOUR_RGB('',0.800000011920929,0.800000011920929,0.800000011920929);
#355=AXIS2_PLACEMENT_3D('',#495,#496,#497);
#356=DRAUGHTING_PRE_DEFINED_CURVE_FONT('continuous');
#357=COLOUR_RGB('',0.498039215803146,0.498039215803146,0.498039215803146);
#358=AXIS2_PLACEMENT_3D('',#498,#499,#500);
#359=DRAUGHTING_PRE_DEFINED_CURVE_FONT('continuous');
#360=COLOUR_RGB('',0.498039215803146,0.498039215803146,0.498039215803146);
#361=AXIS2_PLACEMENT_3D('',#501,#502,#503);
#362=SURFACE_SIDE_STYLE('',(#504));
#363=EDGE_LOOP('',(#505,#506,#507,#508));
#364=AXIS2_PLACEMENT_3D('',#509,#510,#511);
#365=SURFACE_SIDE_STYLE('',(#512));
#366=EDGE_LOOP('',(#513,#514,#515,#516));
#367=AXIS2_PLACEMENT_3D('',#517,#518,#519);
#368=DRAUGHTING_PRE_DEFINED_CURVE_FONT('continuous');
#369=COLOUR_RGB('',0.498039215803146,0.498039215803146,0.498039215803146);
#370=AXIS2_PLACEMENT_3D('',#520,#521,#522);
#371=PRE_DEFINED_MARKER('');
#372=COLOUR_RGB('',0.498039215803146,0.498039215803146,0.498039215803146);
#373=DRAUGHTING_PRE_DEFINED_CURVE_FONT('continuous');
#374=COLOUR_RGB('',0.498039215803146,0.498039215803146,0.498039215803146);
#375=AXIS2_PLACEMENT_3D('',#523,#524,#525);
#376=SURFACE_SIDE_STYLE('',(#526));
#377=PRE_DEFINED_MARKER('');
#378=COLOUR_RGB('',0.498039215803146,0.498039215803146,0.498039215803146);
#379=SURFACE_SIDE_STYLE('',(#527));
#380=EDGE_LOOP('',(#528,#529,#530));
#381=AXIS2_PLACEMENT_3D('',#531,#532,#533);
#382=DRAUGHTING_PRE_DEFINED_CURVE_FONT('continuous');
#383=COLOUR_RGB('',0.800000011920929,0.800000011920929,0.800000011920929);
#384=CARTESIAN_POINT('',(-1.26366517347754E-015,10.31895,-77.79));
#385=VECTOR('',#534,1.0);
#386=SURFACE_SIDE_STYLE('',(#535));
#387=EDGE_LOOP('',(#536,#537));
#388=EDGE_LOOP('',(#538,#539));
#389=AXIS2_PLACEMENT_3D('',#540,#541,#542);
#390=DRAUGHTING_PRE_DEFINED_CURVE_FONT('continuous');
#391=COLOUR_RGB('',0.800000011920929,0.800000011920929,0.800000011920929);
#392=AXIS2_PLACEMENT_3D('',#543,#544,#545);
#393=PRE_DEFINED_MARKER('');
#394=COLOUR_RGB('',0.800000011920929,0.800000011920929,0.800000011920929);
#395=DRAUGHTING_PRE_DEFINED_CURVE_FONT('continuous');
#396=COLOUR_RGB('',0.800000011920929,0.800000011920929,0.800000011920929);
#397=CARTESIAN_POINT('',(6.31523373634431E-016,-5.15695,-53.995));
#398=VECTOR('',#546,1.0);
#399=PRE_DEFINED_MARKER('');
#400=COLOUR_RGB('',0.498039215803146,0.498039215803146,0.498039215803146);
#401=PRE_DEFINED_MARKER('');
#402=COLOUR_RGB('',0.498039215803146,0.498039215803146,0.498039215803146);
#403=DRAUGHTING_PRE_DEFINED_CURVE_FONT('continuous');
#404=COLOUR_RGB('',0.498039215803146,0.498039215803146,0.498039215803146);
#405=AXIS2_PLACEMENT_3D('',#547,#548,#549);
#406=PRE_DEFINED_MARKER('');
#407=COLOUR_RGB('',0.800000011920929,0.800000011920929,0.800000011920929);
#408=DRAUGHTING_PRE_DEFINED_CURVE_FONT('continuous');
#409=COLOUR_RGB('',0.800000011920929,0.800000011920929,0.800000011920929);
#410=AXIS2_PLACEMENT_3D('',#550,#551,#552);
#411=DRAUGHTING_PRE_DEFINED_CURVE_FONT('continuous');
#412=COLOUR_RGB('',0.800000011920929,0.800000011920929,0.800000011920929);
#413=CARTESIAN_POINT('',(1.26366517347754E-015,-10.31895,-77.79));
#414=VECTOR('',#553,1.0);
#415=SURFACE_SIDE_STYLE('',(#554));
#416=EDGE_LOOP('',(#555,#556));
#417=AXIS2_PLACEMENT_3D('',#557,#558,#559);
#418=PRE_DEFINED_MARKER('');
#419=COLOUR_RGB('',0.498039215803146,0.498039215803146,0.498039215803146);
#420=DRAUGHTING_PRE_DEFINED_CURVE_FONT('continuous');
#421=COLOUR_RGB('',0.800000011920929,0.800000011920929,0.800000011920929);
#422=CARTESIAN_POINT('',(-6.31523373634431E-016,5.15695,-53.995));
#423=VECTOR('',#560,1.0);
#424=DRAUGHTING_PRE_DEFINED_CURVE_FONT('continuous');
#425=COLOUR_RGB('',0.800000011920929,0.800000011920929,0.800000011920929);
#426=AXIS2_PLACEMENT_3D('',#561,#562,#563);
#427=DRAUGHTING_PRE_DEFINED_CURVE_FONT('continuous');
#428=COLOUR_RGB('',0.498039215803146,0.498039215803146,0.498039215803146);
#429=AXIS2_PLACEMENT_3D('',#564,#565,#566);
#430=SURFACE_SIDE_STYLE('',(#567));
#431=SURFACE_SIDE_STYLE('',(#568));
#432=EDGE_LOOP('',(#569,#570));
#433=AXIS2_PLACEMENT_3D('',#571,#572,#573);
#434=PRE_DEFINED_MARKER('');
#435=COLOUR_RGB('',0.498039215803146,0.498039215803146,0.498039215803146);
#436=DRAUGHTING_PRE_DEFINED_CURVE_FONT('continuous');
#437=COLOUR_RGB('',0.800000011920929,0.800000011920929,0.800000011920929);
#438=AXIS2_PLACEMENT_3D('',#574,#575,#576);
#439=DRAUGHTING_PRE_DEFINED_CURVE_FONT('continuous');
#440=COLOUR_RGB('',0.498039215803146,0.498039215803146,0.498039215803146);
#441=CARTESIAN_POINT('',(-9.72031293346512E-016,7.9375,-17.068));
#442=VECTOR('',#577,1.0);
#444=DIRECTION('',(-6.12303176911191E-017,0.500000000000002,0.866025403784438));
#445=SURFACE_STYLE_FILL_AREA(#578);
#446=ORIENTED_EDGE('',*,*,#172,.F.);
#447=ORIENTED_EDGE('',*,*,#112,.T.);
#448=ORIENTED_EDGE('',*,*,#100,.F.);
#449=ORIENTED_EDGE('',*,*,#124,.F.);
#450=CARTESIAN_POINT('',(0.0,0.0,-17.068));
#451=DIRECTION('',(-0.0,-0.0,1.0));
#452=DIRECTION('',(0.0,1.0,0.0));
#453=CARTESIAN_POINT('',(0.0,0.0,-53.99));
#454=DIRECTION('',(0.0,0.0,-1.0));
#455=DIRECTION('',(0.0,1.0,0.0));
#456=SURFACE_STYLE_FILL_AREA(#579);
#457=ORIENTED_EDGE('',*,*,#172,.T.);
#458=ORIENTED_EDGE('',*,*,#114,.F.);
#459=ORIENTED_EDGE('',*,*,#100,.T.);
#460=ORIENTED_EDGE('',*,*,#146,.T.);
#461=CARTESIAN_POINT('',(0.0,0.0,-17.068));
#462=DIRECTION('',(-0.0,-0.0,1.0));
#463=DIRECTION('',(0.0,1.0,0.0));
#464=SURFACE_STYLE_FILL_AREA(#580);
#465=ORIENTED_EDGE('',*,*,#162,.F.);
#466=ORIENTED_EDGE('',*,*,#120,.F.);
#467=CARTESIAN_POINT('',(0.0,3.73954194313172,0.0100000000000051));
#468=DIRECTION('',(-0.0,0.0,1.0));
#469=DIRECTION('',(0.0,-1.0,0.0));
#470=SURFACE_STYLE_FILL_AREA(#581);
#471=ORIENTED_EDGE('',*,*,#132,.T.);
#472=ORIENTED_EDGE('',*,*,#160,.F.);
#473=ORIENTED_EDGE('',*,*,#152,.T.);
#474=ORIENTED_EDGE('',*,*,#110,.T.);
#475=CARTESIAN_POINT('',(0.0,0.0,-77.79));
#476=DIRECTION('',(0.0,-0.0,-1.0));
#477=DIRECTION('',(0.0,1.0,0.0));
#478=SURFACE_STYLE_FILL_AREA(#582);
#479=ORIENTED_EDGE('',*,*,#132,.F.);
#480=ORIENTED_EDGE('',*,*,#170,.T.);
#481=ORIENTED_EDGE('',*,*,#152,.F.);
#482=ORIENTED_EDGE('',*,*,#150,.F.);
#483=CARTESIAN_POINT('',(0.0,0.0,-77.79));
#484=DIRECTION('',(0.0,-0.0,-1.0));
#485=DIRECTION('',(0.0,1.0,0.0));
#486=DIRECTION('',(-0.0,-0.0,1.0));
#487=SURFACE_STYLE_FILL_AREA(#583);
#488=ORIENTED_EDGE('',*,*,#140,.F.);
#489=ORIENTED_EDGE('',*,*,#158,.F.);
#490=ORIENTED_EDGE('',*,*,#136,.F.);
#491=CARTESIAN_POINT('',(0.0,0.0,-53.995));
#492=DIRECTION('',(-0.0,-0.0,1.0));
#493=DIRECTION('',(0.0,1.0,0.0));
#494=DIRECTION('',(-6.12303176911191E-017,0.500000000000002,-0.866025403784438));
#495=CARTESIAN_POINT('',(0.0,0.0,-53.99));
#496=DIRECTION('',(0.0,0.0,-1.0));
#497=DIRECTION('',(0.0,1.0,0.0));
#498=CARTESIAN_POINT('',(0.0,0.0,-0.783999999999992));
#499=DIRECTION('',(0.0,0.0,-1.0));
#500=DIRECTION('',(0.0,1.0,0.0));
#501=CARTESIAN_POINT('',(0.0,0.0,-53.99));
#502=DIRECTION('',(0.0,0.0,-1.0));
#503=DIRECTION('',(0.0,-1.0,0.0));
#504=SURFACE_STYLE_FILL_AREA(#584);
#505=ORIENTED_EDGE('',*,*,#108,.F.);
#506=ORIENTED_EDGE('',*,*,#162,.T.);
#507=ORIENTED_EDGE('',*,*,#80,.F.);
#508=ORIENTED_EDGE('',*,*,#112,.F.);
#509=CARTESIAN_POINT('',(0.0,0.0,-0.386999999999993));
#510=DIRECTION('',(0.0,-0.0,-1.0));
#511=DIRECTION('',(0.0,1.0,0.0));
#512=SURFACE_STYLE_FILL_AREA(#585);
#513=ORIENTED_EDGE('',*,*,#108,.T.);
#514=ORIENTED_EDGE('',*,*,#146,.F.);
#515=ORIENTED_EDGE('',*,*,#80,.T.);
#516=ORIENTED_EDGE('',*,*,#120,.T.);
#517=CARTESIAN_POINT('',(0.0,0.0,-0.386999999999993));
#518=DIRECTION('',(0.0,-0.0,-1.0));
#519=DIRECTION('',(0.0,1.0,0.0));
#520=CARTESIAN_POINT('',(0.0,0.0,0.0100000000000051));
#521=DIRECTION('',(0.0,0.0,-1.0));
#522=DIRECTION('',(0.0,1.0,0.0));
#523=CARTESIAN_POINT('',(0.0,0.0,-53.99));
#524=DIRECTION('',(0.0,0.0,-1.0));
#525=DIRECTION('',(0.0,-1.0,0.0));
#526=SURFACE_STYLE_FILL_AREA(#586);
#527=SURFACE_STYLE_FILL_AREA(#587);
#528=ORIENTED_EDGE('',*,*,#140,.T.);
#529=ORIENTED_EDGE('',*,*,#84,.F.);
#530=ORIENTED_EDGE('',*,*,#158,.T.);
#531=CARTESIAN_POINT('',(0.0,0.0,-53.995));
#532=DIRECTION('',(-0.0,-0.0,1.0));
#533=DIRECTION('',(0.0,1.0,0.0));
#534=DIRECTION('',(-2.57270242398492E-022,2.10084033612492E-006,-0.999999999997793));
#535=SURFACE_STYLE_FILL_AREA(#588);
#536=ORIENTED_EDGE('',*,*,#170,.F.);
#537=ORIENTED_EDGE('',*,*,#110,.F.);
#538=ORIENTED_EDGE('',*,*,#84,.T.);
#539=ORIENTED_EDGE('',*,*,#136,.T.);
#540=CARTESIAN_POINT('',(0.0,10.3164,-53.99));
#541=DIRECTION('',(-0.0,0.0,1.0));
#542=DIRECTION('',(0.0,-1.0,0.0));
#543=CARTESIAN_POINT('',(0.0,0.0,-53.99));
#544=DIRECTION('',(0.0,0.0,-1.0));
#545=DIRECTION('',(0.0,1.0,0.0));
#546=DIRECTION('',(1.22460577822292E-016,-0.999999529971853,0.000969564888134347));
#547=CARTESIAN_POINT('',(0.0,0.0,-0.783999999999992));
#548=DIRECTION('',(0.0,0.0,-1.0));
#549=DIRECTION('',(0.0,1.0,0.0));
#550=CARTESIAN_POINT('',(0.0,0.0,-101.59));
#551=DIRECTION('',(0.0,0.0,-1.0));
#552=DIRECTION('',(0.0,1.0,0.0));
#553=DIRECTION('',(-2.57270242398492E-022,2.10084033612492E-006,0.999999999997793));
#554=SURFACE_STYLE_FILL_AREA(#589);
#555=ORIENTED_EDGE('',*,*,#150,.T.);
#556=ORIENTED_EDGE('',*,*,#160,.T.);
#557=CARTESIAN_POINT('',(0.0,5.157,-101.59));
#558=DIRECTION('',(0.0,0.0,-1.0));
#559=DIRECTION('',(0.0,1.0,0.0));
#560=DIRECTION('',(1.22460577822292E-016,-0.999999529971853,-0.000969564888134347));
#561=CARTESIAN_POINT('',(0.0,0.0,-101.59));
#562=DIRECTION('',(0.0,0.0,-1.0));
#563=DIRECTION('',(0.0,1.0,0.0));
#564=CARTESIAN_POINT('',(0.0,0.0,0.0100000000000051));
#565=DIRECTION('',(0.0,0.0,-1.0));
#566=DIRECTION('',(0.0,1.0,0.0));
#567=SURFACE_STYLE_FILL_AREA(#590);
#568=SURFACE_STYLE_FILL_AREA(#591);
#569=ORIENTED_EDGE('',*,*,#114,.T.);
#570=ORIENTED_EDGE('',*,*,#124,.T.);
#571=CARTESIAN_POINT('',(0.0,0.0,-53.99));
#572=DIRECTION('',(0.0,0.0,-1.0));
#573=DIRECTION('',(0.0,-1.0,0.0));
#574=CARTESIAN_POINT('',(0.0,0.0,-53.99));
#575=DIRECTION('',(0.0,0.0,-1.0));
#576=DIRECTION('',(0.0,1.0,0.0));
#577=DIRECTION('',(0.0,0.0,-1.0));
#578=FILL_AREA_STYLE('',(#592));
#579=FILL_AREA_STYLE('',(#593));
#580=FILL_AREA_STYLE('',(#594));
#581=FILL_AREA_STYLE('',(#595));
#582=FILL_AREA_STYLE('',(#596));
#583=FILL_AREA_STYLE('',(#597));
#584=FILL_AREA_STYLE('',(#598));
#585=FILL_AREA_STYLE('',(#599));
#586=FILL_AREA_STYLE('',(#600));
#587=FILL_AREA_STYLE('',(#601));
#588=FILL_AREA_STYLE('',(#602));
#589=FILL_AREA_STYLE('',(#603));
#590=FILL_AREA_STYLE('',(#604));
#591=FILL_AREA_STYLE('',(#605));
#592=FILL_AREA_STYLE_COLOUR('',#606);
#593=FILL_AREA_STYLE_COLOUR('',#607);
#594=FILL_AREA_STYLE_COLOUR('',#608);
#595=FILL_AREA_STYLE_COLOUR('',#609);
#596=FILL_AREA_STYLE_COLOUR('',#610);
#597=FILL_AREA_STYLE_COLOUR('',#611);
#598=FILL_AREA_STYLE_COLOUR('',#612);
#599=FILL_AREA_STYLE_COLOUR('',#613);
#600=FILL_AREA_STYLE_COLOUR('',#614);
#601=FILL_AREA_STYLE_COLOUR('',#615);
#602=FILL_AREA_STYLE_COLOUR('',#616);
#603=FILL_AREA_STYLE_COLOUR('',#617);
#604=FILL_AREA_STYLE_COLOUR('',#618);
#605=FILL_AREA_STYLE_COLOUR('',#619);
#606=COLOUR_RGB('',0.498039215803146,0.498039215803146,0.498039215803146);
#607=COLOUR_RGB('',0.498039215803146,0.498039215803146,0.498039215803146);
#608=COLOUR_RGB('',0.498039215803146,0.498039215803146,0.498039215803146);
#609=COLOUR_RGB('',0.800000011920929,0.800000011920929,0.800000011920929);
#610=COLOUR_RGB('',0.800000011920929,0.800000011920929,0.800000011920929);
#611=COLOUR_RGB('',0.800000011920929,0.800000011920929,0.800000011920929);
#612=COLOUR_RGB('',0.498039215803146,0.498039215803146,0.498039215803146);
#613=COLOUR_RGB('',0.498039215803146,0.498039215803146,0.498039215803146);
#614=COLOUR_RGB('',0.800000011920929,0.800000011920929,0.800000011920929);
#615=COLOUR_RGB('',0.800000011920929,0.800000011920929,0.800000011920929);
#616=COLOUR_RGB('',0.800000011920929,0.800000011920929,0.800000011920929);
#617=COLOUR_RGB('',0.800000011920929,0.800000011920929,0.800000011920929);
#618=COLOUR_RGB('',0.800000011920929,0.800000011920929,0.800000011920929);
#619=COLOUR_RGB('',0.498039215803146,0.498039215803146,0.498039215803146);
#620=AXIS2_PLACEMENT_3D('PCS',#621,#622,#623);
#621=CARTESIAN_POINT('',(0.0,0.0,0.0));
#622=DIRECTION('',(0.0,0.0,1.0));
#623=DIRECTION('',(1.0,0.0,0.0));
#624=AXIS2_PLACEMENT_3D('CIP',#625,#626,#627);
#625=CARTESIAN_POINT('',(0.0,0.0,-101.6));
#626=DIRECTION('',(0.0,0.0,1.0));
#627=DIRECTION('',(1.0,0.0,0.0));
#628=AXIS2_PLACEMENT_3D('CRP',#629,#630,#631);
#629=CARTESIAN_POINT('',(-10.319,0.0,-101.6));
#630=DIRECTION('',(0.0,0.0,1.0));
#631=DIRECTION('',(1.0,0.0,0.0));
#632=AXIS2_PLACEMENT_3D('MCS',#633,#634,#635);
#633=CARTESIAN_POINT('',(0.0,0.0,-33.362));
#634=DIRECTION('',(0.0,0.0,1.0));
#635=DIRECTION('',(1.0,0.0,0.0));
#636=CONSTRUCTIVE_GEOMETRY_REPRESENTATION_RELATIONSHIP('coordinate systems',$,#65,#637);
#637=CONSTRUCTIVE_GEOMETRY_REPRESENTATION('coordinate systems',(#620,#624,#628,#632),#10);
ENDSEC;
END-ISO-10303-21;
