ISO-10303-21;
HEADER;
FILE_DESCRIPTION(('no description'),'unknown implementation level');
FILE_NAME('solidveb51Hgau54_bQ28x_5IF4QgP3M_1.STP','  ',('CIMSOURCE GmbH'),('CADClick - KiM GmbH - www.kimweb.de'),'unknown preprocess','ACIS','unknown authorization');
FILE_SCHEMA(('automotive_design'));
ENDSEC;
DATA;
#1=MECHANICAL_DESIGN_GEOMETRIC_PRESENTATION_REPRESENTATION(' ',(#14,#15,#16,#17,#18,#19,#20,#21,#22,#23,#24,#25,#26,#27,#28,#29,#30,#31,#32,#33,#34,#35,#36,#37,#38,#39,#40,#41,#42,#43,#44,#45,#46,#47,#48,#49,#50,#51,#52,#53,#54,#55,#56,#57,#58,#59,#60),#10);
#2=PRODUCT_DEFINITION_CONTEXT('',#61,'design');
#3=APPLICATION_PROTOCOL_DEFINITION('INTERNATIONAL STANDARD','automotive_design',1994,#61);
#4=PRODUCT_CATEGORY_RELATIONSHIP('NONE','NONE',#62,#63);
#5=SHAPE_DEFINITION_REPRESENTATION(#64,#65);
#6=PRODUCT_DEFINITION_CONTEXT('',#66,'design');
#7=APPLICATION_PROTOCOL_DEFINITION('INTERNATIONAL STANDARD','automotive_design',1994,#66);
#8=PRODUCT_CATEGORY_RELATIONSHIP('NONE','NONE',#67,#68);
#9=SHAPE_DEFINITION_REPRESENTATION(#69,#70);
#10= (GEOMETRIC_REPRESENTATION_CONTEXT(3)GLOBAL_UNCERTAINTY_ASSIGNED_CONTEXT((#73))GLOBAL_UNIT_ASSIGNED_CONTEXT((#75,#76,#77))REPRESENTATION_CONTEXT('NONE','WORKSPACE'));
#14=STYLED_ITEM('',(#79),#80);
#15=STYLED_ITEM('',(#81),#82);
#16=STYLED_ITEM('',(#83),#84);
#17=STYLED_ITEM('',(#85),#86);
#18=STYLED_ITEM('',(#87),#88);
#19=STYLED_ITEM('',(#89),#90);
#20=STYLED_ITEM('',(#91),#92);
#21=STYLED_ITEM('',(#93),#94);
#22=STYLED_ITEM('',(#95),#96);
#23=STYLED_ITEM('',(#97),#98);
#24=STYLED_ITEM('',(#99),#100);
#25=STYLED_ITEM('',(#101),#102);
#26=STYLED_ITEM('',(#103),#104);
#27=STYLED_ITEM('',(#105),#106);
#28=STYLED_ITEM('',(#107),#108);
#29=STYLED_ITEM('',(#109),#110);
#30=STYLED_ITEM('',(#111),#112);
#31=STYLED_ITEM('',(#113),#114);
#32=STYLED_ITEM('',(#115),#116);
#33=STYLED_ITEM('',(#117),#118);
#34=STYLED_ITEM('',(#119),#120);
#35=STYLED_ITEM('',(#121),#122);
#36=STYLED_ITEM('',(#123),#124);
#37=STYLED_ITEM('',(#125),#126);
#38=STYLED_ITEM('',(#127),#128);
#39=STYLED_ITEM('',(#129),#130);
#40=STYLED_ITEM('',(#131),#132);
#41=STYLED_ITEM('',(#133),#134);
#42=STYLED_ITEM('',(#135),#136);
#43=STYLED_ITEM('',(#137),#138);
#44=STYLED_ITEM('',(#139),#140);
#45=STYLED_ITEM('',(#141),#142);
#46=STYLED_ITEM('',(#143),#144);
#47=STYLED_ITEM('',(#145),#146);
#48=STYLED_ITEM('',(#147),#148);
#49=STYLED_ITEM('',(#149),#150);
#50=STYLED_ITEM('',(#151),#152);
#51=STYLED_ITEM('',(#153),#154);
#52=STYLED_ITEM('',(#155),#156);
#53=STYLED_ITEM('',(#157),#158);
#54=STYLED_ITEM('',(#159),#160);
#55=STYLED_ITEM('',(#161),#162);
#56=STYLED_ITEM('',(#163),#164);
#57=STYLED_ITEM('',(#165),#166);
#58=STYLED_ITEM('',(#167),#168);
#59=STYLED_ITEM('',(#169),#170);
#60=STYLED_ITEM('',(#171),#172);
#61=APPLICATION_CONTEXT(' ');
#62=PRODUCT_CATEGORY('part','NONE');
#63=PRODUCT_RELATED_PRODUCT_CATEGORY('detail',' ',(#173));
#64=PRODUCT_DEFINITION_SHAPE('NONE','NONE',#174);
#65=ADVANCED_BREP_SHAPE_REPRESENTATION('1',(#122,#175),#10);
#66=APPLICATION_CONTEXT(' ');
#67=PRODUCT_CATEGORY('part','NONE');
#68=PRODUCT_RELATED_PRODUCT_CATEGORY('detail',' ',(#176));
#69=PRODUCT_DEFINITION_SHAPE('NONE','NONE',#177);
#70=ADVANCED_BREP_SHAPE_REPRESENTATION('2',(#98,#178),#10);
#73=UNCERTAINTY_MEASURE_WITH_UNIT(LENGTH_MEASURE(1.0E-006),#75,'','');
#75= (CONVERSION_BASED_UNIT('MILLIMETRE',#181)LENGTH_UNIT()NAMED_UNIT(#184));
#76= (NAMED_UNIT(#186)PLANE_ANGLE_UNIT()SI_UNIT($,.RADIAN.));
#77= (NAMED_UNIT(#186)SOLID_ANGLE_UNIT()SI_UNIT($,.STERADIAN.));
#79=PRESENTATION_STYLE_ASSIGNMENT((#192));
#80=ADVANCED_FACE('',(#193),#194,.F.);
#81=PRESENTATION_STYLE_ASSIGNMENT((#195));
#82=EDGE_CURVE('',#138,#116,#196,.T.);
#83=PRESENTATION_STYLE_ASSIGNMENT((#197));
#84=EDGE_CURVE('',#106,#132,#198,.T.);
#85=PRESENTATION_STYLE_ASSIGNMENT((#199));
#86=ADVANCED_FACE('',(#200),#201,.T.);
#87=PRESENTATION_STYLE_ASSIGNMENT((#202));
#88=VERTEX_POINT('',#203);
#89=PRESENTATION_STYLE_ASSIGNMENT((#204));
#90=EDGE_CURVE('',#132,#120,#205,.T.);
#91=PRESENTATION_STYLE_ASSIGNMENT((#206));
#92=ADVANCED_FACE('',(#207),#208,.T.);
#93=PRESENTATION_STYLE_ASSIGNMENT((#209));
#94=ADVANCED_FACE('',(#210),#211,.T.);
#95=PRESENTATION_STYLE_ASSIGNMENT((#212));
#96=VERTEX_POINT('',#213);
#97=PRESENTATION_STYLE_ASSIGNMENT((#214));
#98=MANIFOLD_SOLID_BREP('2',#215);
#99=PRESENTATION_STYLE_ASSIGNMENT((#216));
#100=ADVANCED_FACE('',(#217,#218),#219,.T.);
#101=PRESENTATION_STYLE_ASSIGNMENT((#220));
#102=EDGE_CURVE('',#146,#120,#221,.T.);
#103=PRESENTATION_STYLE_ASSIGNMENT((#222));
#104=ADVANCED_FACE('',(#223),#224,.T.);
#105=PRESENTATION_STYLE_ASSIGNMENT((#225));
#106=VERTEX_POINT('',#226);
#107=PRESENTATION_STYLE_ASSIGNMENT((#227));
#108=EDGE_CURVE('',#166,#158,#228,.T.);
#109=PRESENTATION_STYLE_ASSIGNMENT((#229));
#110=EDGE_CURVE('',#134,#166,#230,.T.);
#111=PRESENTATION_STYLE_ASSIGNMENT((#231));
#112=EDGE_CURVE('',#134,#144,#232,.T.);
#113=PRESENTATION_STYLE_ASSIGNMENT((#233));
#114=EDGE_CURVE('',#146,#106,#234,.T.);
#115=PRESENTATION_STYLE_ASSIGNMENT((#235));
#116=VERTEX_POINT('',#236);
#117=PRESENTATION_STYLE_ASSIGNMENT((#237));
#118=EDGE_CURVE('',#132,#106,#238,.T.);
#119=PRESENTATION_STYLE_ASSIGNMENT((#239));
#120=VERTEX_POINT('',#240);
#121=PRESENTATION_STYLE_ASSIGNMENT((#241));
#122=MANIFOLD_SOLID_BREP('1',#242);
#123=PRESENTATION_STYLE_ASSIGNMENT((#243));
#124=EDGE_CURVE('',#158,#144,#244,.T.);
#125=PRESENTATION_STYLE_ASSIGNMENT((#245));
#126=EDGE_CURVE('',#96,#88,#246,.T.);
#127=PRESENTATION_STYLE_ASSIGNMENT((#247));
#128=EDGE_CURVE('',#144,#134,#248,.T.);
#129=PRESENTATION_STYLE_ASSIGNMENT((#249));
#130=ADVANCED_FACE('',(#250),#251,.T.);
#131=PRESENTATION_STYLE_ASSIGNMENT((#252));
#132=VERTEX_POINT('',#253);
#133=PRESENTATION_STYLE_ASSIGNMENT((#254));
#134=VERTEX_POINT('',#255);
#135=PRESENTATION_STYLE_ASSIGNMENT((#256));
#136=EDGE_CURVE('',#120,#146,#257,.T.);
#137=PRESENTATION_STYLE_ASSIGNMENT((#258));
#138=VERTEX_POINT('',#259);
#139=PRESENTATION_STYLE_ASSIGNMENT((#260));
#140=ADVANCED_FACE('',(#261),#262,.F.);
#141=PRESENTATION_STYLE_ASSIGNMENT((#263));
#142=ADVANCED_FACE('',(#264),#265,.T.);
#143=PRESENTATION_STYLE_ASSIGNMENT((#266));
#144=VERTEX_POINT('',#267);
#145=PRESENTATION_STYLE_ASSIGNMENT((#268));
#146=VERTEX_POINT('',#269);
#147=PRESENTATION_STYLE_ASSIGNMENT((#270));
#148=ADVANCED_FACE('',(#271),#272,.T.);
#149=PRESENTATION_STYLE_ASSIGNMENT((#273));
#150=EDGE_CURVE('',#116,#138,#274,.T.);
#151=PRESENTATION_STYLE_ASSIGNMENT((#275));
#152=VERTEX_POINT('',#276);
#153=PRESENTATION_STYLE_ASSIGNMENT((#277));
#154=EDGE_CURVE('',#106,#138,#278,.T.);
#155=PRESENTATION_STYLE_ASSIGNMENT((#279));
#156=ADVANCED_FACE('',(#280),#281,.T.);
#157=PRESENTATION_STYLE_ASSIGNMENT((#282));
#158=VERTEX_POINT('',#283);
#159=PRESENTATION_STYLE_ASSIGNMENT((#284));
#160=EDGE_CURVE('',#158,#166,#285,.T.);
#161=PRESENTATION_STYLE_ASSIGNMENT((#286));
#162=EDGE_CURVE('',#152,#88,#287,.T.);
#163=PRESENTATION_STYLE_ASSIGNMENT((#288));
#164=EDGE_CURVE('',#116,#132,#289,.T.);
#165=PRESENTATION_STYLE_ASSIGNMENT((#290));
#166=VERTEX_POINT('',#291);
#167=PRESENTATION_STYLE_ASSIGNMENT((#292));
#168=ADVANCED_FACE('',(#293),#294,.T.);
#169=PRESENTATION_STYLE_ASSIGNMENT((#295));
#170=EDGE_CURVE('',#96,#152,#296,.T.);
#171=PRESENTATION_STYLE_ASSIGNMENT((#297));
#172=EDGE_CURVE('',#88,#96,#298,.T.);
#173=PRODUCT('1','1','PART-1-DESC',(#299));
#174=PRODUCT_DEFINITION('NONE','NONE',#300,#2);
#175=AXIS2_PLACEMENT_3D('',#301,#302,#303);
#176=PRODUCT('2','2','PART-2-DESC',(#304));
#177=PRODUCT_DEFINITION('NONE','NONE',#305,#6);
#178=AXIS2_PLACEMENT_3D('',#306,#307,#308);
#181=LENGTH_MEASURE_WITH_UNIT(LENGTH_MEASURE(1.0),#309);
#184=DIMENSIONAL_EXPONENTS(1.0,0.0,0.0,0.0,0.0,0.0,0.0);
#186=DIMENSIONAL_EXPONENTS(0.0,0.0,0.0,0.0,0.0,0.0,0.0);
#192=SURFACE_STYLE_USAGE(.BOTH.,#310);
#193=FACE_OUTER_BOUND('',#311,.T.);
#194=CONICAL_SURFACE('',#312,5.95045,1.56995605440823);
#195=CURVE_STYLE('',#313,POSITIVE_LENGTH_MEASURE(1.0E-006),#314);
#196=CIRCLE('',#315,7.47908388626344);
#197=CURVE_STYLE('',#316,POSITIVE_LENGTH_MEASURE(1.0E-006),#317);
#198=CIRCLE('',#318,7.9375);
#199=SURFACE_STYLE_USAGE(.BOTH.,#319);
#200=FACE_OUTER_BOUND('',#320,.T.);
#201=CONICAL_SURFACE('',#321,7.70829194313172,0.523598775598299);
#202=POINT_STYLE(' ',#322,POSITIVE_LENGTH_MEASURE(1.0E-006),#323);
#203=CARTESIAN_POINT('',(1.45739177562047E-015,-11.9009,-53.99));
#204=CURVE_STYLE('',#324,POSITIVE_LENGTH_MEASURE(1.0E-006),#325);
#205=LINE('',#326,#327);
#206=SURFACE_STYLE_USAGE(.BOTH.,#328);
#207=FACE_OUTER_BOUND('',#329,.T.);
#208=CONICAL_SURFACE('',#330,7.70829194313172,0.523598775598299);
#209=SURFACE_STYLE_USAGE(.BOTH.,#331);
#210=FACE_OUTER_BOUND('',#332,.T.);
#211=CYLINDRICAL_SURFACE('',#333,7.9375);
#212=POINT_STYLE(' ',#334,POSITIVE_LENGTH_MEASURE(1.0E-006),#335);
#213=CARTESIAN_POINT('',(0.0,11.9009,-53.99));
#214=SURFACE_STYLE_USAGE(.BOTH.,#336);
#215=CLOSED_SHELL('',(#130,#86,#104,#168,#92,#94));
#216=SURFACE_STYLE_USAGE(.BOTH.,#337);
#217=FACE_OUTER_BOUND('',#338,.T.);
#218=FACE_BOUND('',#339,.T.);
#219=PLANE('',#340);
#220=CURVE_STYLE('',#341,POSITIVE_LENGTH_MEASURE(1.0E-006),#342);
#221=CIRCLE('',#343,7.9375);
#222=SURFACE_STYLE_USAGE(.BOTH.,#344);
#223=FACE_OUTER_BOUND('',#345,.T.);
#224=PLANE('',#346);
#225=POINT_STYLE(' ',#347,POSITIVE_LENGTH_MEASURE(1.0E-006),#348);
#226=CARTESIAN_POINT('',(9.72031293346512E-016,-7.9375,-0.783999999999988));
#227=CURVE_STYLE('',#349,POSITIVE_LENGTH_MEASURE(1.0E-006),#350);
#228=CIRCLE('',#351,11.906);
#229=CURVE_STYLE('',#352,POSITIVE_LENGTH_MEASURE(1.0E-006),#353);
#230=LINE('',#354,#355);
#231=CURVE_STYLE('',#356,POSITIVE_LENGTH_MEASURE(1.0E-006),#357);
#232=CIRCLE('',#358,11.9059);
#233=CURVE_STYLE('',#359,POSITIVE_LENGTH_MEASURE(1.0E-006),#360);
#234=LINE('',#361,#362);
#235=POINT_STYLE(' ',#363,POSITIVE_LENGTH_MEASURE(1.0E-006),#364);
#236=CARTESIAN_POINT('',(0.0,7.47908388626344,0.0100000000000122));
#237=CURVE_STYLE('',#365,POSITIVE_LENGTH_MEASURE(1.0E-006),#366);
#238=CIRCLE('',#367,7.9375);
#239=POINT_STYLE(' ',#368,POSITIVE_LENGTH_MEASURE(1.0E-006),#369);
#240=CARTESIAN_POINT('',(-9.72031293346512E-016,7.9375,-53.99));
#241=SURFACE_STYLE_USAGE(.BOTH.,#370);
#242=CLOSED_SHELL('',(#156,#140,#80,#100,#142,#148));
#243=CURVE_STYLE('',#371,POSITIVE_LENGTH_MEASURE(1.0E-006),#372);
#244=LINE('',#373,#374);
#245=CURVE_STYLE('',#375,POSITIVE_LENGTH_MEASURE(1.0E-006),#376);
#246=CIRCLE('',#377,11.9009);
#247=CURVE_STYLE('',#378,POSITIVE_LENGTH_MEASURE(1.0E-006),#379);
#248=CIRCLE('',#380,11.9059);
#249=SURFACE_STYLE_USAGE(.BOTH.,#381);
#250=FACE_OUTER_BOUND('',#382,.T.);
#251=CYLINDRICAL_SURFACE('',#383,7.9375);
#252=POINT_STYLE(' ',#384,POSITIVE_LENGTH_MEASURE(1.0E-006),#385);
#253=CARTESIAN_POINT('',(0.0,7.9375,-0.783999999999988));
#254=POINT_STYLE(' ',#386,POSITIVE_LENGTH_MEASURE(1.0E-006),#387);
#255=CARTESIAN_POINT('',(0.0,11.9059,-53.99));
#256=CURVE_STYLE('',#388,POSITIVE_LENGTH_MEASURE(1.0E-006),#389);
#257=CIRCLE('',#390,7.9375);
#258=POINT_STYLE(' ',#391,POSITIVE_LENGTH_MEASURE(1.0E-006),#392);
#259=CARTESIAN_POINT('',(9.15893364788876E-016,-7.47908388626344,0.0100000000000122));
#260=SURFACE_STYLE_USAGE(.BOTH.,#393);
#261=FACE_OUTER_BOUND('',#394,.T.);
#262=CONICAL_SURFACE('',#395,5.95045,1.56995605440823);
#263=SURFACE_STYLE_USAGE(.BOTH.,#396);
#264=FACE_OUTER_BOUND('',#397,.T.);
#265=CONICAL_SURFACE('',#398,11.90595,2.10084033612647E-006);
#266=POINT_STYLE(' ',#399,POSITIVE_LENGTH_MEASURE(1.0E-006),#400);
#267=CARTESIAN_POINT('',(1.45800407879738E-015,-11.9059,-53.99));
#268=POINT_STYLE(' ',#401,POSITIVE_LENGTH_MEASURE(1.0E-006),#402);
#269=CARTESIAN_POINT('',(0.0,-7.9375,-53.99));
#270=SURFACE_STYLE_USAGE(.BOTH.,#403);
#271=FACE_OUTER_BOUND('',#404,.T.);
#272=PLANE('',#405);
#273=CURVE_STYLE('',#406,POSITIVE_LENGTH_MEASURE(1.0E-006),#407);
#274=CIRCLE('',#408,7.47908388626344);
#275=POINT_STYLE(' ',#409,POSITIVE_LENGTH_MEASURE(1.0E-006),#410);
#276=CARTESIAN_POINT('',(0.0,0.0,-54.0));
#277=CURVE_STYLE('',#411,POSITIVE_LENGTH_MEASURE(1.0E-006),#412);
#278=LINE('',#413,#414);
#279=SURFACE_STYLE_USAGE(.BOTH.,#415);
#280=FACE_OUTER_BOUND('',#416,.T.);
#281=CONICAL_SURFACE('',#417,11.90595,2.10084033612647E-006);
#282=POINT_STYLE(' ',#418,POSITIVE_LENGTH_MEASURE(1.0E-006),#419);
#283=CARTESIAN_POINT('',(1.45801632486092E-015,-11.906,-101.59));
#284=CURVE_STYLE('',#420,POSITIVE_LENGTH_MEASURE(1.0E-006),#421);
#285=CIRCLE('',#422,11.906);
#286=CURVE_STYLE('',#423,POSITIVE_LENGTH_MEASURE(1.0E-006),#424);
#287=LINE('',#425,#426);
#288=CURVE_STYLE('',#427,POSITIVE_LENGTH_MEASURE(1.0E-006),#428);
#289=LINE('',#429,#430);
#290=POINT_STYLE(' ',#431,POSITIVE_LENGTH_MEASURE(1.0E-006),#432);
#291=CARTESIAN_POINT('',(0.0,11.906,-101.59));
#292=SURFACE_STYLE_USAGE(.BOTH.,#433);
#293=FACE_OUTER_BOUND('',#434,.T.);
#294=PLANE('',#435);
#295=CURVE_STYLE('',#436,POSITIVE_LENGTH_MEASURE(1.0E-006),#437);
#296=LINE('',#438,#439);
#297=CURVE_STYLE('',#440,POSITIVE_LENGTH_MEASURE(1.0E-006),#441);
#298=CIRCLE('',#442,11.9009);
#299=PRODUCT_CONTEXT('',#61,'mechanical');
#300=PRODUCT_DEFINITION_FORMATION_WITH_SPECIFIED_SOURCE(' ','NONE',#173,.NOT_KNOWN.);
#301=CARTESIAN_POINT('',(0.0,0.0,0.0));
#302=DIRECTION('',(0.0,0.0,1.0));
#303=DIRECTION('',(1.0,0.0,0.0));
#304=PRODUCT_CONTEXT('',#66,'mechanical');
#305=PRODUCT_DEFINITION_FORMATION_WITH_SPECIFIED_SOURCE(' ','NONE',#176,.NOT_KNOWN.);
#306=CARTESIAN_POINT('',(0.0,0.0,0.0));
#307=DIRECTION('',(0.0,0.0,1.0));
#308=DIRECTION('',(1.0,0.0,0.0));
#309= (NAMED_UNIT(#184)LENGTH_UNIT()SI_UNIT(.MILLI.,.METRE.));
#310=SURFACE_SIDE_STYLE('',(#444));
#311=EDGE_LOOP('',(#445,#446,#447));
#312=AXIS2_PLACEMENT_3D('',#448,#449,#450);
#313=DRAUGHTING_PRE_DEFINED_CURVE_FONT('continuous');
#314=COLOUR_RGB('',0.498039215803146,0.498039215803146,0.498039215803146);
#315=AXIS2_PLACEMENT_3D('',#451,#452,#453);
#316=DRAUGHTING_PRE_DEFINED_CURVE_FONT('continuous');
#317=COLOUR_RGB('',0.498039215803146,0.498039215803146,0.498039215803146);
#318=AXIS2_PLACEMENT_3D('',#454,#455,#456);
#319=SURFACE_SIDE_STYLE('',(#457));
#320=EDGE_LOOP('',(#458,#459,#460,#461));
#321=AXIS2_PLACEMENT_3D('',#462,#463,#464);
#322=PRE_DEFINED_MARKER('');
#323=COLOUR_RGB('',0.800000011920929,0.800000011920929,0.800000011920929);
#324=DRAUGHTING_PRE_DEFINED_CURVE_FONT('continuous');
#325=COLOUR_RGB('',0.498039215803146,0.498039215803146,0.498039215803146);
#326=CARTESIAN_POINT('',(-9.72031293346512E-016,7.9375,-15.481));
#327=VECTOR('',#465,1.0);
#328=SURFACE_SIDE_STYLE('',(#466));
#329=EDGE_LOOP('',(#467,#468,#469,#470));
#330=AXIS2_PLACEMENT_3D('',#471,#472,#473);
#331=SURFACE_SIDE_STYLE('',(#474));
#332=EDGE_LOOP('',(#475,#476,#477,#478));
#333=AXIS2_PLACEMENT_3D('',#479,#480,#481);
#334=PRE_DEFINED_MARKER('');
#335=COLOUR_RGB('',0.800000011920929,0.800000011920929,0.800000011920929);
#336=SURFACE_SIDE_STYLE('',(#482));
#337=SURFACE_SIDE_STYLE('',(#483));
#338=EDGE_LOOP('',(#484,#485));
#339=EDGE_LOOP('',(#486,#487));
#340=AXIS2_PLACEMENT_3D('',#488,#489,#490);
#341=DRAUGHTING_PRE_DEFINED_CURVE_FONT('continuous');
#342=COLOUR_RGB('',0.498039215803146,0.498039215803146,0.498039215803146);
#343=AXIS2_PLACEMENT_3D('',#491,#492,#493);
#344=SURFACE_SIDE_STYLE('',(#494));
#345=EDGE_LOOP('',(#495,#496));
#346=AXIS2_PLACEMENT_3D('',#497,#498,#499);
#347=PRE_DEFINED_MARKER('');
#348=COLOUR_RGB('',0.498039215803146,0.498039215803146,0.498039215803146);
#349=DRAUGHTING_PRE_DEFINED_CURVE_FONT('continuous');
#350=COLOUR_RGB('',0.800000011920929,0.800000011920929,0.800000011920929);
#351=AXIS2_PLACEMENT_3D('',#500,#501,#502);
#352=DRAUGHTING_PRE_DEFINED_CURVE_FONT('continuous');
#353=COLOUR_RGB('',0.800000011920929,0.800000011920929,0.800000011920929);
#354=CARTESIAN_POINT('',(-1.45801020182915E-015,11.90595,-77.79));
#355=VECTOR('',#503,1.0);
#356=DRAUGHTING_PRE_DEFINED_CURVE_FONT('continuous');
#357=COLOUR_RGB('',0.800000011920929,0.800000011920929,0.800000011920929);
#358=AXIS2_PLACEMENT_3D('',#504,#505,#506);
#359=DRAUGHTING_PRE_DEFINED_CURVE_FONT('continuous');
#360=COLOUR_RGB('',0.498039215803146,0.498039215803146,0.498039215803146);
#361=CARTESIAN_POINT('',(9.72031293346512E-016,-7.9375,-15.481));
#362=VECTOR('',#507,1.0);
#363=PRE_DEFINED_MARKER('');
#364=COLOUR_RGB('',0.498039215803146,0.498039215803146,0.498039215803146);
#365=DRAUGHTING_PRE_DEFINED_CURVE_FONT('continuous');
#366=COLOUR_RGB('',0.498039215803146,0.498039215803146,0.498039215803146);
#367=AXIS2_PLACEMENT_3D('',#508,#509,#510);
#368=PRE_DEFINED_MARKER('');
#369=COLOUR_RGB('',0.498039215803146,0.498039215803146,0.498039215803146);
#370=SURFACE_SIDE_STYLE('',(#511));
#371=DRAUGHTING_PRE_DEFINED_CURVE_FONT('continuous');
#372=COLOUR_RGB('',0.800000011920929,0.800000011920929,0.800000011920929);
#373=CARTESIAN_POINT('',(1.45801020182915E-015,-11.90595,-77.79));
#374=VECTOR('',#512,1.0);
#375=DRAUGHTING_PRE_DEFINED_CURVE_FONT('continuous');
#376=COLOUR_RGB('',0.800000011920929,0.800000011920929,0.800000011920929);
#377=AXIS2_PLACEMENT_3D('',#513,#514,#515);
#378=DRAUGHTING_PRE_DEFINED_CURVE_FONT('continuous');
#379=COLOUR_RGB('',0.800000011920929,0.800000011920929,0.800000011920929);
#380=AXIS2_PLACEMENT_3D('',#516,#517,#518);
#381=SURFACE_SIDE_STYLE('',(#519));
#382=EDGE_LOOP('',(#520,#521,#522,#523));
#383=AXIS2_PLACEMENT_3D('',#524,#525,#526);
#384=PRE_DEFINED_MARKER('');
#385=COLOUR_RGB('',0.498039215803146,0.498039215803146,0.498039215803146);
#386=PRE_DEFINED_MARKER('');
#387=COLOUR_RGB('',0.800000011920929,0.800000011920929,0.800000011920929);
#388=DRAUGHTING_PRE_DEFINED_CURVE_FONT('continuous');
#389=COLOUR_RGB('',0.498039215803146,0.498039215803146,0.498039215803146);
#390=AXIS2_PLACEMENT_3D('',#527,#528,#529);
#391=PRE_DEFINED_MARKER('');
#392=COLOUR_RGB('',0.498039215803146,0.498039215803146,0.498039215803146);
#393=SURFACE_SIDE_STYLE('',(#530));
#394=EDGE_LOOP('',(#531,#532,#533));
#395=AXIS2_PLACEMENT_3D('',#534,#535,#536);
#396=SURFACE_SIDE_STYLE('',(#537));
#397=EDGE_LOOP('',(#538,#539,#540,#541));
#398=AXIS2_PLACEMENT_3D('',#542,#543,#544);
#399=PRE_DEFINED_MARKER('');
#400=COLOUR_RGB('',0.800000011920929,0.800000011920929,0.800000011920929);
#401=PRE_DEFINED_MARKER('');
#402=COLOUR_RGB('',0.498039215803146,0.498039215803146,0.498039215803146);
#403=SURFACE_SIDE_STYLE('',(#545));
#404=EDGE_LOOP('',(#546,#547));
#405=AXIS2_PLACEMENT_3D('',#548,#549,#550);
#406=DRAUGHTING_PRE_DEFINED_CURVE_FONT('continuous');
#407=COLOUR_RGB('',0.498039215803146,0.498039215803146,0.498039215803146);
#408=AXIS2_PLACEMENT_3D('',#551,#552,#553);
#409=PRE_DEFINED_MARKER('');
#410=COLOUR_RGB('',0.800000011920929,0.800000011920929,0.800000011920929);
#411=DRAUGHTING_PRE_DEFINED_CURVE_FONT('continuous');
#412=COLOUR_RGB('',0.498039215803146,0.498039215803146,0.498039215803146);
#413=CARTESIAN_POINT('',(9.43962329067694E-016,-7.70829194313172,-0.386999999999986));
#414=VECTOR('',#554,1.0);
#415=SURFACE_SIDE_STYLE('',(#555));
#416=EDGE_LOOP('',(#556,#557,#558,#559));
#417=AXIS2_PLACEMENT_3D('',#560,#561,#562);
#418=PRE_DEFINED_MARKER('');
#419=COLOUR_RGB('',0.800000011920929,0.800000011920929,0.800000011920929);
#420=DRAUGHTING_PRE_DEFINED_CURVE_FONT('continuous');
#421=COLOUR_RGB('',0.800000011920929,0.800000011920929,0.800000011920929);
#422=AXIS2_PLACEMENT_3D('',#563,#564,#565);
#423=DRAUGHTING_PRE_DEFINED_CURVE_FONT('continuous');
#424=COLOUR_RGB('',0.800000011920929,0.800000011920929,0.800000011920929);
#425=CARTESIAN_POINT('',(7.28695887810236E-016,-5.95045,-53.995));
#426=VECTOR('',#566,1.0);
#427=DRAUGHTING_PRE_DEFINED_CURVE_FONT('continuous');
#428=COLOUR_RGB('',0.498039215803146,0.498039215803146,0.498039215803146);
#429=CARTESIAN_POINT('',(-9.43962329067694E-016,7.70829194313172,-0.386999999999986));
#430=VECTOR('',#567,1.0);
#431=PRE_DEFINED_MARKER('');
#432=COLOUR_RGB('',0.800000011920929,0.800000011920929,0.800000011920929);
#433=SURFACE_SIDE_STYLE('',(#568));
#434=EDGE_LOOP('',(#569,#570));
#435=AXIS2_PLACEMENT_3D('',#571,#572,#573);
#436=DRAUGHTING_PRE_DEFINED_CURVE_FONT('continuous');
#437=COLOUR_RGB('',0.800000011920929,0.800000011920929,0.800000011920929);
#438=CARTESIAN_POINT('',(-7.28695887810236E-016,5.95045,-53.995));
#439=VECTOR('',#574,1.0);
#440=DRAUGHTING_PRE_DEFINED_CURVE_FONT('continuous');
#441=COLOUR_RGB('',0.800000011920929,0.800000011920929,0.800000011920929);
#442=AXIS2_PLACEMENT_3D('',#575,#576,#577);
#444=SURFACE_STYLE_FILL_AREA(#578);
#445=ORIENTED_EDGE('',*,*,#162,.T.);
#446=ORIENTED_EDGE('',*,*,#126,.F.);
#447=ORIENTED_EDGE('',*,*,#170,.T.);
#448=CARTESIAN_POINT('',(0.0,0.0,-53.995));
#449=DIRECTION('',(-0.0,-0.0,1.0));
#450=DIRECTION('',(0.0,1.0,0.0));
#451=CARTESIAN_POINT('',(0.0,0.0,0.0100000000000122));
#452=DIRECTION('',(0.0,0.0,-1.0));
#453=DIRECTION('',(0.0,1.0,0.0));
#454=CARTESIAN_POINT('',(0.0,0.0,-0.783999999999988));
#455=DIRECTION('',(0.0,0.0,-1.0));
#456=DIRECTION('',(0.0,1.0,0.0));
#457=SURFACE_STYLE_FILL_AREA(#579);
#458=ORIENTED_EDGE('',*,*,#164,.F.);
#459=ORIENTED_EDGE('',*,*,#150,.T.);
#460=ORIENTED_EDGE('',*,*,#154,.F.);
#461=ORIENTED_EDGE('',*,*,#118,.F.);
#462=CARTESIAN_POINT('',(0.0,0.0,-0.386999999999986));
#463=DIRECTION('',(0.0,-0.0,-1.0));
#464=DIRECTION('',(0.0,1.0,0.0));
#465=DIRECTION('',(0.0,0.0,-1.0));
#466=SURFACE_STYLE_FILL_AREA(#580);
#467=ORIENTED_EDGE('',*,*,#164,.T.);
#468=ORIENTED_EDGE('',*,*,#84,.F.);
#469=ORIENTED_EDGE('',*,*,#154,.T.);
#470=ORIENTED_EDGE('',*,*,#82,.T.);
#471=CARTESIAN_POINT('',(0.0,0.0,-0.386999999999986));
#472=DIRECTION('',(0.0,-0.0,-1.0));
#473=DIRECTION('',(0.0,1.0,0.0));
#474=SURFACE_STYLE_FILL_AREA(#581);
#475=ORIENTED_EDGE('',*,*,#90,.T.);
#476=ORIENTED_EDGE('',*,*,#102,.F.);
#477=ORIENTED_EDGE('',*,*,#114,.T.);
#478=ORIENTED_EDGE('',*,*,#84,.T.);
#479=CARTESIAN_POINT('',(0.0,0.0,-15.481));
#480=DIRECTION('',(-0.0,-0.0,1.0));
#481=DIRECTION('',(0.0,1.0,0.0));
#482=SURFACE_STYLE_FILL_AREA(#582);
#483=SURFACE_STYLE_FILL_AREA(#583);
#484=ORIENTED_EDGE('',*,*,#112,.F.);
#485=ORIENTED_EDGE('',*,*,#128,.F.);
#486=ORIENTED_EDGE('',*,*,#126,.T.);
#487=ORIENTED_EDGE('',*,*,#172,.T.);
#488=CARTESIAN_POINT('',(0.0,11.9034,-53.99));
#489=DIRECTION('',(-0.0,0.0,1.0));
#490=DIRECTION('',(0.0,-1.0,0.0));
#491=CARTESIAN_POINT('',(0.0,0.0,-53.99));
#492=DIRECTION('',(0.0,0.0,-1.0));
#493=DIRECTION('',(0.0,-1.0,0.0));
#494=SURFACE_STYLE_FILL_AREA(#584);
#495=ORIENTED_EDGE('',*,*,#102,.T.);
#496=ORIENTED_EDGE('',*,*,#136,.T.);
#497=CARTESIAN_POINT('',(0.0,0.0,-53.99));
#498=DIRECTION('',(0.0,0.0,-1.0));
#499=DIRECTION('',(0.0,-1.0,0.0));
#500=CARTESIAN_POINT('',(0.0,0.0,-101.59));
#501=DIRECTION('',(0.0,0.0,-1.0));
#502=DIRECTION('',(0.0,1.0,0.0));
#503=DIRECTION('',(-2.57270242398492E-022,2.10084033612492E-006,-0.999999999997793));
#504=CARTESIAN_POINT('',(0.0,0.0,-53.99));
#505=DIRECTION('',(0.0,0.0,-1.0));
#506=DIRECTION('',(0.0,1.0,0.0));
#507=DIRECTION('',(-0.0,-0.0,1.0));
#508=CARTESIAN_POINT('',(0.0,0.0,-0.783999999999988));
#509=DIRECTION('',(0.0,0.0,-1.0));
#510=DIRECTION('',(0.0,1.0,0.0));
#511=SURFACE_STYLE_FILL_AREA(#585);
#512=DIRECTION('',(-2.57270242398492E-022,2.10084033612492E-006,0.999999999997793));
#513=CARTESIAN_POINT('',(0.0,0.0,-53.99));
#514=DIRECTION('',(0.0,0.0,-1.0));
#515=DIRECTION('',(0.0,1.0,0.0));
#516=CARTESIAN_POINT('',(0.0,0.0,-53.99));
#517=DIRECTION('',(0.0,0.0,-1.0));
#518=DIRECTION('',(0.0,1.0,0.0));
#519=SURFACE_STYLE_FILL_AREA(#586);
#520=ORIENTED_EDGE('',*,*,#90,.F.);
#521=ORIENTED_EDGE('',*,*,#118,.T.);
#522=ORIENTED_EDGE('',*,*,#114,.F.);
#523=ORIENTED_EDGE('',*,*,#136,.F.);
#524=CARTESIAN_POINT('',(0.0,0.0,-15.481));
#525=DIRECTION('',(-0.0,-0.0,1.0));
#526=DIRECTION('',(0.0,1.0,0.0));
#527=CARTESIAN_POINT('',(0.0,0.0,-53.99));
#528=DIRECTION('',(0.0,0.0,-1.0));
#529=DIRECTION('',(0.0,-1.0,0.0));
#530=SURFACE_STYLE_FILL_AREA(#587);
#531=ORIENTED_EDGE('',*,*,#162,.F.);
#532=ORIENTED_EDGE('',*,*,#170,.F.);
#533=ORIENTED_EDGE('',*,*,#172,.F.);
#534=CARTESIAN_POINT('',(0.0,0.0,-53.995));
#535=DIRECTION('',(-0.0,-0.0,1.0));
#536=DIRECTION('',(0.0,1.0,0.0));
#537=SURFACE_STYLE_FILL_AREA(#588);
#538=ORIENTED_EDGE('',*,*,#110,.T.);
#539=ORIENTED_EDGE('',*,*,#160,.F.);
#540=ORIENTED_EDGE('',*,*,#124,.T.);
#541=ORIENTED_EDGE('',*,*,#128,.T.);
#542=CARTESIAN_POINT('',(0.0,0.0,-77.79));
#543=DIRECTION('',(0.0,-0.0,-1.0));
#544=DIRECTION('',(0.0,1.0,0.0));
#545=SURFACE_STYLE_FILL_AREA(#589);
#546=ORIENTED_EDGE('',*,*,#108,.T.);
#547=ORIENTED_EDGE('',*,*,#160,.T.);
#548=CARTESIAN_POINT('',(0.0,5.9505,-101.59));
#549=DIRECTION('',(0.0,0.0,-1.0));
#550=DIRECTION('',(0.0,1.0,0.0));
#551=CARTESIAN_POINT('',(0.0,0.0,0.0100000000000122));
#552=DIRECTION('',(0.0,0.0,-1.0));
#553=DIRECTION('',(0.0,1.0,0.0));
#554=DIRECTION('',(-6.12303176911189E-017,0.5,0.866025403784439));
#555=SURFACE_STYLE_FILL_AREA(#590);
#556=ORIENTED_EDGE('',*,*,#110,.F.);
#557=ORIENTED_EDGE('',*,*,#112,.T.);
#558=ORIENTED_EDGE('',*,*,#124,.F.);
#559=ORIENTED_EDGE('',*,*,#108,.F.);
#560=CARTESIAN_POINT('',(0.0,0.0,-77.79));
#561=DIRECTION('',(0.0,-0.0,-1.0));
#562=DIRECTION('',(0.0,1.0,0.0));
#563=CARTESIAN_POINT('',(0.0,0.0,-101.59));
#564=DIRECTION('',(0.0,0.0,-1.0));
#565=DIRECTION('',(0.0,1.0,0.0));
#566=DIRECTION('',(1.22460592150104E-016,-0.999999646971179,0.000840272287786971));
#567=DIRECTION('',(-6.12303176911189E-017,0.5,-0.866025403784439));
#568=SURFACE_STYLE_FILL_AREA(#591);
#569=ORIENTED_EDGE('',*,*,#150,.F.);
#570=ORIENTED_EDGE('',*,*,#82,.F.);
#571=CARTESIAN_POINT('',(0.0,3.73954194313172,0.0100000000000122));
#572=DIRECTION('',(-0.0,0.0,1.0));
#573=DIRECTION('',(0.0,-1.0,0.0));
#574=DIRECTION('',(1.22460592150104E-016,-0.999999646971179,-0.000840272287786971));
#575=CARTESIAN_POINT('',(0.0,0.0,-53.99));
#576=DIRECTION('',(0.0,0.0,-1.0));
#577=DIRECTION('',(0.0,1.0,0.0));
#578=FILL_AREA_STYLE('',(#592));
#579=FILL_AREA_STYLE('',(#593));
#580=FILL_AREA_STYLE('',(#594));
#581=FILL_AREA_STYLE('',(#595));
#582=FILL_AREA_STYLE('',(#596));
#583=FILL_AREA_STYLE('',(#597));
#584=FILL_AREA_STYLE('',(#598));
#585=FILL_AREA_STYLE('',(#599));
#586=FILL_AREA_STYLE('',(#600));
#587=FILL_AREA_STYLE('',(#601));
#588=FILL_AREA_STYLE('',(#602));
#589=FILL_AREA_STYLE('',(#603));
#590=FILL_AREA_STYLE('',(#604));
#591=FILL_AREA_STYLE('',(#605));
#592=FILL_AREA_STYLE_COLOUR('',#606);
#593=FILL_AREA_STYLE_COLOUR('',#607);
#594=FILL_AREA_STYLE_COLOUR('',#608);
#595=FILL_AREA_STYLE_COLOUR('',#609);
#596=FILL_AREA_STYLE_COLOUR('',#610);
#597=FILL_AREA_STYLE_COLOUR('',#611);
#598=FILL_AREA_STYLE_COLOUR('',#612);
#599=FILL_AREA_STYLE_COLOUR('',#613);
#600=FILL_AREA_STYLE_COLOUR('',#614);
#601=FILL_AREA_STYLE_COLOUR('',#615);
#602=FILL_AREA_STYLE_COLOUR('',#616);
#603=FILL_AREA_STYLE_COLOUR('',#617);
#604=FILL_AREA_STYLE_COLOUR('',#618);
#605=FILL_AREA_STYLE_COLOUR('',#619);
#606=COLOUR_RGB('',0.800000011920929,0.800000011920929,0.800000011920929);
#607=COLOUR_RGB('',0.498039215803146,0.498039215803146,0.498039215803146);
#608=COLOUR_RGB('',0.498039215803146,0.498039215803146,0.498039215803146);
#609=COLOUR_RGB('',0.498039215803146,0.498039215803146,0.498039215803146);
#610=COLOUR_RGB('',0.800000011920929,0.800000011920929,0.800000011920929);
#611=COLOUR_RGB('',0.800000011920929,0.800000011920929,0.800000011920929);
#612=COLOUR_RGB('',0.498039215803146,0.498039215803146,0.498039215803146);
#613=COLOUR_RGB('',0.800000011920929,0.800000011920929,0.800000011920929);
#614=COLOUR_RGB('',0.498039215803146,0.498039215803146,0.498039215803146);
#615=COLOUR_RGB('',0.800000011920929,0.800000011920929,0.800000011920929);
#616=COLOUR_RGB('',0.800000011920929,0.800000011920929,0.800000011920929);
#617=COLOUR_RGB('',0.800000011920929,0.800000011920929,0.800000011920929);
#618=COLOUR_RGB('',0.800000011920929,0.800000011920929,0.800000011920929);
#619=COLOUR_RGB('',0.498039215803146,0.498039215803146,0.498039215803146);
#620=AXIS2_PLACEMENT_3D('PCS',#621,#622,#623);
#621=CARTESIAN_POINT('',(0.0,0.0,0.0));
#622=DIRECTION('',(0.0,0.0,1.0));
#623=DIRECTION('',(1.0,0.0,0.0));
#624=AXIS2_PLACEMENT_3D('CIP',#625,#626,#627);
#625=CARTESIAN_POINT('',(0.0,0.0,-101.6));
#626=DIRECTION('',(0.0,0.0,1.0));
#627=DIRECTION('',(1.0,0.0,0.0));
#628=AXIS2_PLACEMENT_3D('CRP',#629,#630,#631);
#629=CARTESIAN_POINT('',(-11.906,0.0,-101.6));
#630=DIRECTION('',(0.0,0.0,1.0));
#631=DIRECTION('',(1.0,0.0,0.0));
#632=AXIS2_PLACEMENT_3D('MCS',#633,#634,#635);
#633=CARTESIAN_POINT('',(0.0,0.0,-30.188));
#634=DIRECTION('',(0.0,0.0,1.0));
#635=DIRECTION('',(1.0,0.0,0.0));
#636=CONSTRUCTIVE_GEOMETRY_REPRESENTATION_RELATIONSHIP('coordinate systems',$,#65,#637);
#637=CONSTRUCTIVE_GEOMETRY_REPRESENTATION('coordinate systems',(#620,#624,#628,#632),#10);
ENDSEC;
END-ISO-10303-21;
