ISO-10303-21;
HEADER;
FILE_DESCRIPTION(('no description'),'unknown implementation level');
FILE_NAME('solid2_qvg2BbhhH1zytIm_QcnLgrXa0_1.STP','  ',('CIMSOURCE GmbH'),('CADClick - KiM GmbH - www.kimweb.de'),'unknown preprocess','ACIS','unknown authorization');
FILE_SCHEMA(('automotive_design'));
ENDSEC;
DATA;
#1=MECHANICAL_DESIGN_GEOMETRIC_PRESENTATION_REPRESENTATION(' ',(#14,#15,#16,#17,#18,#19,#20,#21,#22,#23,#24,#25,#26,#27,#28,#29,#30,#31,#32,#33,#34,#35,#36,#37,#38,#39,#40,#41,#42,#43,#44,#45,#46,#47,#48,#49,#50,#51,#52,#53,#54,#55,#56,#57,#58,#59,#60),#10);
#2=PRODUCT_DEFINITION_CONTEXT('',#61,'design');
#3=APPLICATION_PROTOCOL_DEFINITION('INTERNATIONAL STANDARD','automotive_design',1994,#61);
#4=PRODUCT_CATEGORY_RELATIONSHIP('NONE','NONE',#62,#63);
#5=SHAPE_DEFINITION_REPRESENTATION(#64,#65);
#6=PRODUCT_DEFINITION_CONTEXT('',#66,'design');
#7=APPLICATION_PROTOCOL_DEFINITION('INTERNATIONAL STANDARD','automotive_design',1994,#66);
#8=PRODUCT_CATEGORY_RELATIONSHIP('NONE','NONE',#67,#68);
#9=SHAPE_DEFINITION_REPRESENTATION(#69,#70);
#10= (GEOMETRIC_REPRESENTATION_CONTEXT(3)GLOBAL_UNCERTAINTY_ASSIGNED_CONTEXT((#73))GLOBAL_UNIT_ASSIGNED_CONTEXT((#75,#76,#77))REPRESENTATION_CONTEXT('NONE','WORKSPACE'));
#14=STYLED_ITEM('',(#79),#80);
#15=STYLED_ITEM('',(#81),#82);
#16=STYLED_ITEM('',(#83),#84);
#17=STYLED_ITEM('',(#85),#86);
#18=STYLED_ITEM('',(#87),#88);
#19=STYLED_ITEM('',(#89),#90);
#20=STYLED_ITEM('',(#91),#92);
#21=STYLED_ITEM('',(#93),#94);
#22=STYLED_ITEM('',(#95),#96);
#23=STYLED_ITEM('',(#97),#98);
#24=STYLED_ITEM('',(#99),#100);
#25=STYLED_ITEM('',(#101),#102);
#26=STYLED_ITEM('',(#103),#104);
#27=STYLED_ITEM('',(#105),#106);
#28=STYLED_ITEM('',(#107),#108);
#29=STYLED_ITEM('',(#109),#110);
#30=STYLED_ITEM('',(#111),#112);
#31=STYLED_ITEM('',(#113),#114);
#32=STYLED_ITEM('',(#115),#116);
#33=STYLED_ITEM('',(#117),#118);
#34=STYLED_ITEM('',(#119),#120);
#35=STYLED_ITEM('',(#121),#122);
#36=STYLED_ITEM('',(#123),#124);
#37=STYLED_ITEM('',(#125),#126);
#38=STYLED_ITEM('',(#127),#128);
#39=STYLED_ITEM('',(#129),#130);
#40=STYLED_ITEM('',(#131),#132);
#41=STYLED_ITEM('',(#133),#134);
#42=STYLED_ITEM('',(#135),#136);
#43=STYLED_ITEM('',(#137),#138);
#44=STYLED_ITEM('',(#139),#140);
#45=STYLED_ITEM('',(#141),#142);
#46=STYLED_ITEM('',(#143),#144);
#47=STYLED_ITEM('',(#145),#146);
#48=STYLED_ITEM('',(#147),#148);
#49=STYLED_ITEM('',(#149),#150);
#50=STYLED_ITEM('',(#151),#152);
#51=STYLED_ITEM('',(#153),#154);
#52=STYLED_ITEM('',(#155),#156);
#53=STYLED_ITEM('',(#157),#158);
#54=STYLED_ITEM('',(#159),#160);
#55=STYLED_ITEM('',(#161),#162);
#56=STYLED_ITEM('',(#163),#164);
#57=STYLED_ITEM('',(#165),#166);
#58=STYLED_ITEM('',(#167),#168);
#59=STYLED_ITEM('',(#169),#170);
#60=STYLED_ITEM('',(#171),#172);
#61=APPLICATION_CONTEXT(' ');
#62=PRODUCT_CATEGORY('part','NONE');
#63=PRODUCT_RELATED_PRODUCT_CATEGORY('detail',' ',(#173));
#64=PRODUCT_DEFINITION_SHAPE('NONE','NONE',#174);
#65=ADVANCED_BREP_SHAPE_REPRESENTATION('1',(#142,#175),#10);
#66=APPLICATION_CONTEXT(' ');
#67=PRODUCT_CATEGORY('part','NONE');
#68=PRODUCT_RELATED_PRODUCT_CATEGORY('detail',' ',(#176));
#69=PRODUCT_DEFINITION_SHAPE('NONE','NONE',#177);
#70=ADVANCED_BREP_SHAPE_REPRESENTATION('2',(#134,#178),#10);
#73=UNCERTAINTY_MEASURE_WITH_UNIT(LENGTH_MEASURE(1.0E-006),#75,'','');
#75= (CONVERSION_BASED_UNIT('MILLIMETRE',#181)LENGTH_UNIT()NAMED_UNIT(#184));
#76= (NAMED_UNIT(#186)PLANE_ANGLE_UNIT()SI_UNIT($,.RADIAN.));
#77= (NAMED_UNIT(#186)SOLID_ANGLE_UNIT()SI_UNIT($,.STERADIAN.));
#79=PRESENTATION_STYLE_ASSIGNMENT((#192));
#80=VERTEX_POINT('',#193);
#81=PRESENTATION_STYLE_ASSIGNMENT((#194));
#82=EDGE_CURVE('',#98,#92,#195,.T.);
#83=PRESENTATION_STYLE_ASSIGNMENT((#196));
#84=EDGE_CURVE('',#132,#80,#197,.T.);
#85=PRESENTATION_STYLE_ASSIGNMENT((#198));
#86=EDGE_CURVE('',#108,#132,#199,.T.);
#87=PRESENTATION_STYLE_ASSIGNMENT((#200));
#88=ADVANCED_FACE('',(#201),#202,.T.);
#89=PRESENTATION_STYLE_ASSIGNMENT((#203));
#90=EDGE_CURVE('',#118,#152,#204,.T.);
#91=PRESENTATION_STYLE_ASSIGNMENT((#205));
#92=VERTEX_POINT('',#206);
#93=PRESENTATION_STYLE_ASSIGNMENT((#207));
#94=EDGE_CURVE('',#166,#148,#208,.T.);
#95=PRESENTATION_STYLE_ASSIGNMENT((#209));
#96=ADVANCED_FACE('',(#210),#211,.T.);
#97=PRESENTATION_STYLE_ASSIGNMENT((#212));
#98=VERTEX_POINT('',#213);
#99=PRESENTATION_STYLE_ASSIGNMENT((#214));
#100=EDGE_CURVE('',#104,#98,#215,.T.);
#101=PRESENTATION_STYLE_ASSIGNMENT((#216));
#102=ADVANCED_FACE('',(#217),#218,.T.);
#103=PRESENTATION_STYLE_ASSIGNMENT((#219));
#104=VERTEX_POINT('',#220);
#105=PRESENTATION_STYLE_ASSIGNMENT((#221));
#106=VERTEX_POINT('',#222);
#107=PRESENTATION_STYLE_ASSIGNMENT((#223));
#108=VERTEX_POINT('',#224);
#109=PRESENTATION_STYLE_ASSIGNMENT((#225));
#110=EDGE_CURVE('',#106,#130,#226,.T.);
#111=PRESENTATION_STYLE_ASSIGNMENT((#227));
#112=EDGE_CURVE('',#156,#80,#228,.T.);
#113=PRESENTATION_STYLE_ASSIGNMENT((#229));
#114=EDGE_CURVE('',#166,#152,#230,.T.);
#115=PRESENTATION_STYLE_ASSIGNMENT((#231));
#116=EDGE_CURVE('',#92,#104,#232,.T.);
#117=PRESENTATION_STYLE_ASSIGNMENT((#233));
#118=VERTEX_POINT('',#234);
#119=PRESENTATION_STYLE_ASSIGNMENT((#235));
#120=ADVANCED_FACE('',(#236,#237),#238,.T.);
#121=PRESENTATION_STYLE_ASSIGNMENT((#239));
#122=ADVANCED_FACE('',(#240),#241,.F.);
#123=PRESENTATION_STYLE_ASSIGNMENT((#242));
#124=EDGE_CURVE('',#156,#106,#243,.T.);
#125=PRESENTATION_STYLE_ASSIGNMENT((#244));
#126=EDGE_CURVE('',#106,#132,#245,.T.);
#127=PRESENTATION_STYLE_ASSIGNMENT((#246));
#128=EDGE_CURVE('',#152,#166,#247,.T.);
#129=PRESENTATION_STYLE_ASSIGNMENT((#248));
#130=VERTEX_POINT('',#249);
#131=PRESENTATION_STYLE_ASSIGNMENT((#250));
#132=VERTEX_POINT('',#251);
#133=PRESENTATION_STYLE_ASSIGNMENT((#252));
#134=MANIFOLD_SOLID_BREP('2',#253);
#135=PRESENTATION_STYLE_ASSIGNMENT((#254));
#136=ADVANCED_FACE('',(#255),#256,.T.);
#137=PRESENTATION_STYLE_ASSIGNMENT((#257));
#138=EDGE_CURVE('',#132,#106,#258,.T.);
#139=PRESENTATION_STYLE_ASSIGNMENT((#259));
#140=EDGE_CURVE('',#130,#108,#260,.T.);
#141=PRESENTATION_STYLE_ASSIGNMENT((#261));
#142=MANIFOLD_SOLID_BREP('1',#262);
#143=PRESENTATION_STYLE_ASSIGNMENT((#263));
#144=ADVANCED_FACE('',(#264),#265,.T.);
#145=PRESENTATION_STYLE_ASSIGNMENT((#266));
#146=ADVANCED_FACE('',(#267),#268,.T.);
#147=PRESENTATION_STYLE_ASSIGNMENT((#269));
#148=VERTEX_POINT('',#270);
#149=PRESENTATION_STYLE_ASSIGNMENT((#271));
#150=EDGE_CURVE('',#118,#148,#272,.T.);
#151=PRESENTATION_STYLE_ASSIGNMENT((#273));
#152=VERTEX_POINT('',#274);
#153=PRESENTATION_STYLE_ASSIGNMENT((#275));
#154=ADVANCED_FACE('',(#276),#277,.T.);
#155=PRESENTATION_STYLE_ASSIGNMENT((#278));
#156=VERTEX_POINT('',#279);
#157=PRESENTATION_STYLE_ASSIGNMENT((#280));
#158=ADVANCED_FACE('',(#281),#282,.T.);
#159=PRESENTATION_STYLE_ASSIGNMENT((#283));
#160=EDGE_CURVE('',#108,#130,#284,.T.);
#161=PRESENTATION_STYLE_ASSIGNMENT((#285));
#162=EDGE_CURVE('',#80,#156,#286,.T.);
#163=PRESENTATION_STYLE_ASSIGNMENT((#287));
#164=ADVANCED_FACE('',(#288),#289,.T.);
#165=PRESENTATION_STYLE_ASSIGNMENT((#290));
#166=VERTEX_POINT('',#291);
#167=PRESENTATION_STYLE_ASSIGNMENT((#292));
#168=ADVANCED_FACE('',(#293),#294,.F.);
#169=PRESENTATION_STYLE_ASSIGNMENT((#295));
#170=EDGE_CURVE('',#92,#98,#296,.T.);
#171=PRESENTATION_STYLE_ASSIGNMENT((#297));
#172=EDGE_CURVE('',#148,#118,#298,.T.);
#173=PRODUCT('1','1','PART-1-DESC',(#299));
#174=PRODUCT_DEFINITION('NONE','NONE',#300,#2);
#175=AXIS2_PLACEMENT_3D('',#301,#302,#303);
#176=PRODUCT('2','2','PART-2-DESC',(#304));
#177=PRODUCT_DEFINITION('NONE','NONE',#305,#6);
#178=AXIS2_PLACEMENT_3D('',#306,#307,#308);
#181=LENGTH_MEASURE_WITH_UNIT(LENGTH_MEASURE(1.0),#309);
#184=DIMENSIONAL_EXPONENTS(1.0,0.0,0.0,0.0,0.0,0.0,0.0);
#186=DIMENSIONAL_EXPONENTS(0.0,0.0,0.0,0.0,0.0,0.0,0.0);
#192=POINT_STYLE(' ',#310,POSITIVE_LENGTH_MEASURE(1.0E-006),#311);
#193=CARTESIAN_POINT('',(-1.16643755201581E-015,9.525,-57.19));
#194=CURVE_STYLE('',#312,POSITIVE_LENGTH_MEASURE(1.0E-006),#313);
#195=CIRCLE('',#314,11.5044);
#196=CURVE_STYLE('',#315,POSITIVE_LENGTH_MEASURE(1.0E-006),#316);
#197=LINE('',#317,#318);
#198=CURVE_STYLE('',#319,POSITIVE_LENGTH_MEASURE(1.0E-006),#320);
#199=LINE('',#321,#322);
#200=SURFACE_STYLE_USAGE(.BOTH.,#323);
#201=FACE_OUTER_BOUND('',#324,.T.);
#202=CYLINDRICAL_SURFACE('',#325,9.525);
#203=CURVE_STYLE('',#326,POSITIVE_LENGTH_MEASURE(1.0E-006),#327);
#204=LINE('',#328,#329);
#205=POINT_STYLE(' ',#330,POSITIVE_LENGTH_MEASURE(1.0E-006),#331);
#206=CARTESIAN_POINT('',(0.0,11.5044,-57.19));
#207=CURVE_STYLE('',#332,POSITIVE_LENGTH_MEASURE(1.0E-006),#333);
#208=LINE('',#334,#335);
#209=SURFACE_STYLE_USAGE(.BOTH.,#336);
#210=FACE_OUTER_BOUND('',#337,.T.);
#211=PLANE('',#338);
#212=POINT_STYLE(' ',#339,POSITIVE_LENGTH_MEASURE(1.0E-006),#340);
#213=CARTESIAN_POINT('',(1.40883613369142E-015,-11.5044,-57.19));
#214=CURVE_STYLE('',#341,POSITIVE_LENGTH_MEASURE(1.0E-006),#342);
#215=LINE('',#343,#344);
#216=SURFACE_STYLE_USAGE(.BOTH.,#345);
#217=FACE_OUTER_BOUND('',#346,.T.);
#218=CONICAL_SURFACE('',#347,11.50945,2.10084033612647E-006);
#219=POINT_STYLE(' ',#348,POSITIVE_LENGTH_MEASURE(1.0E-006),#349);
#220=CARTESIAN_POINT('',(0.0,0.0,-57.2));
#221=POINT_STYLE(' ',#350,POSITIVE_LENGTH_MEASURE(1.0E-006),#351);
#222=CARTESIAN_POINT('',(1.16643755201581E-015,-9.525,-1.181));
#223=POINT_STYLE(' ',#352,POSITIVE_LENGTH_MEASURE(1.0E-006),#353);
#224=CARTESIAN_POINT('',(0.0,8.83737582939516,0.00999999999999801));
#225=CURVE_STYLE('',#354,POSITIVE_LENGTH_MEASURE(1.0E-006),#355);
#226=LINE('',#356,#357);
#227=CURVE_STYLE('',#358,POSITIVE_LENGTH_MEASURE(1.0E-006),#359);
#228=CIRCLE('',#360,9.525);
#229=CURVE_STYLE('',#361,POSITIVE_LENGTH_MEASURE(1.0E-006),#362);
#230=CIRCLE('',#363,11.5095);
#231=CURVE_STYLE('',#364,POSITIVE_LENGTH_MEASURE(1.0E-006),#365);
#232=LINE('',#366,#367);
#233=POINT_STYLE(' ',#368,POSITIVE_LENGTH_MEASURE(1.0E-006),#369);
#234=CARTESIAN_POINT('',(0.0,11.5094,-57.19));
#235=SURFACE_STYLE_USAGE(.BOTH.,#370);
#236=FACE_OUTER_BOUND('',#371,.T.);
#237=FACE_BOUND('',#372,.T.);
#238=PLANE('',#373);
#239=SURFACE_STYLE_USAGE(.BOTH.,#374);
#240=FACE_OUTER_BOUND('',#375,.T.);
#241=CONICAL_SURFACE('',#376,5.7522,1.56992709437239);
#242=CURVE_STYLE('',#377,POSITIVE_LENGTH_MEASURE(1.0E-006),#378);
#243=LINE('',#379,#380);
#244=CURVE_STYLE('',#381,POSITIVE_LENGTH_MEASURE(1.0E-006),#382);
#245=CIRCLE('',#383,9.525);
#246=CURVE_STYLE('',#384,POSITIVE_LENGTH_MEASURE(1.0E-006),#385);
#247=CIRCLE('',#386,11.5095);
#248=POINT_STYLE(' ',#387,POSITIVE_LENGTH_MEASURE(1.0E-006),#388);
#249=CARTESIAN_POINT('',(1.08223065917936E-015,-8.83737582939516,0.00999999999999801));
#250=POINT_STYLE(' ',#389,POSITIVE_LENGTH_MEASURE(1.0E-006),#390);
#251=CARTESIAN_POINT('',(0.0,9.525,-1.181));
#252=SURFACE_STYLE_USAGE(.BOTH.,#391);
#253=CLOSED_SHELL('',(#136,#158,#96,#144,#146,#88));
#254=SURFACE_STYLE_USAGE(.BOTH.,#392);
#255=FACE_OUTER_BOUND('',#393,.T.);
#256=CYLINDRICAL_SURFACE('',#394,9.525);
#257=CURVE_STYLE('',#395,POSITIVE_LENGTH_MEASURE(1.0E-006),#396);
#258=CIRCLE('',#397,9.525);
#259=CURVE_STYLE('',#398,POSITIVE_LENGTH_MEASURE(1.0E-006),#399);
#260=CIRCLE('',#400,8.83737582939516);
#261=SURFACE_STYLE_USAGE(.BOTH.,#401);
#262=CLOSED_SHELL('',(#154,#168,#122,#120,#102,#164));
#263=SURFACE_STYLE_USAGE(.BOTH.,#402);
#264=FACE_OUTER_BOUND('',#403,.T.);
#265=PLANE('',#404);
#266=SURFACE_STYLE_USAGE(.BOTH.,#405);
#267=FACE_OUTER_BOUND('',#406,.T.);
#268=CONICAL_SURFACE('',#407,9.18118791469758,0.523598775598298);
#269=POINT_STYLE(' ',#408,POSITIVE_LENGTH_MEASURE(1.0E-006),#409);
#270=CARTESIAN_POINT('',(1.40944843686833E-015,-11.5094,-57.19));
#271=CURVE_STYLE('',#410,POSITIVE_LENGTH_MEASURE(1.0E-006),#411);
#272=CIRCLE('',#412,11.5094);
#273=POINT_STYLE(' ',#413,POSITIVE_LENGTH_MEASURE(1.0E-006),#414);
#274=CARTESIAN_POINT('',(0.0,11.5095,-104.79));
#275=SURFACE_STYLE_USAGE(.BOTH.,#415);
#276=FACE_OUTER_BOUND('',#416,.T.);
#277=CONICAL_SURFACE('',#417,11.50945,2.10084033612647E-006);
#278=POINT_STYLE(' ',#418,POSITIVE_LENGTH_MEASURE(1.0E-006),#419);
#279=CARTESIAN_POINT('',(0.0,-9.525,-57.19));
#280=SURFACE_STYLE_USAGE(.BOTH.,#420);
#281=FACE_OUTER_BOUND('',#421,.T.);
#282=CONICAL_SURFACE('',#422,9.18118791469758,0.523598775598298);
#283=CURVE_STYLE('',#423,POSITIVE_LENGTH_MEASURE(1.0E-006),#424);
#284=CIRCLE('',#425,8.83737582939516);
#285=CURVE_STYLE('',#426,POSITIVE_LENGTH_MEASURE(1.0E-006),#427);
#286=CIRCLE('',#428,9.525);
#287=SURFACE_STYLE_USAGE(.BOTH.,#429);
#288=FACE_OUTER_BOUND('',#430,.T.);
#289=PLANE('',#431);
#290=POINT_STYLE(' ',#432,POSITIVE_LENGTH_MEASURE(1.0E-006),#433);
#291=CARTESIAN_POINT('',(1.40946068293187E-015,-11.5095,-104.79));
#292=SURFACE_STYLE_USAGE(.BOTH.,#434);
#293=FACE_OUTER_BOUND('',#435,.T.);
#294=CONICAL_SURFACE('',#436,5.7522,1.56992709437239);
#295=CURVE_STYLE('',#437,POSITIVE_LENGTH_MEASURE(1.0E-006),#438);
#296=CIRCLE('',#439,11.5044);
#297=CURVE_STYLE('',#440,POSITIVE_LENGTH_MEASURE(1.0E-006),#441);
#298=CIRCLE('',#442,11.5094);
#299=PRODUCT_CONTEXT('',#61,'mechanical');
#300=PRODUCT_DEFINITION_FORMATION_WITH_SPECIFIED_SOURCE(' ','NONE',#173,.NOT_KNOWN.);
#301=CARTESIAN_POINT('',(0.0,0.0,0.0));
#302=DIRECTION('',(0.0,0.0,1.0));
#303=DIRECTION('',(1.0,0.0,0.0));
#304=PRODUCT_CONTEXT('',#66,'mechanical');
#305=PRODUCT_DEFINITION_FORMATION_WITH_SPECIFIED_SOURCE(' ','NONE',#176,.NOT_KNOWN.);
#306=CARTESIAN_POINT('',(0.0,0.0,0.0));
#307=DIRECTION('',(0.0,0.0,1.0));
#308=DIRECTION('',(1.0,0.0,0.0));
#309= (NAMED_UNIT(#184)LENGTH_UNIT()SI_UNIT(.MILLI.,.METRE.));
#310=PRE_DEFINED_MARKER('');
#311=COLOUR_RGB('',0.498039215803146,0.498039215803146,0.498039215803146);
#312=DRAUGHTING_PRE_DEFINED_CURVE_FONT('continuous');
#313=COLOUR_RGB('',0.800000011920929,0.800000011920929,0.800000011920929);
#314=AXIS2_PLACEMENT_3D('',#444,#445,#446);
#315=DRAUGHTING_PRE_DEFINED_CURVE_FONT('continuous');
#316=COLOUR_RGB('',0.498039215803146,0.498039215803146,0.498039215803146);
#317=CARTESIAN_POINT('',(-1.16643755201581E-015,9.525,-17.676));
#318=VECTOR('',#447,1.0);
#319=DRAUGHTING_PRE_DEFINED_CURVE_FONT('continuous');
#320=COLOUR_RGB('',0.498039215803146,0.498039215803146,0.498039215803146);
#321=CARTESIAN_POINT('',(-1.12433410559759E-015,9.18118791469758,-0.585500000000003));
#322=VECTOR('',#448,1.0);
#323=SURFACE_SIDE_STYLE('',(#449));
#324=EDGE_LOOP('',(#450,#451,#452,#453));
#325=AXIS2_PLACEMENT_3D('',#454,#455,#456);
#326=DRAUGHTING_PRE_DEFINED_CURVE_FONT('continuous');
#327=COLOUR_RGB('',0.800000011920929,0.800000011920929,0.800000011920929);
#328=CARTESIAN_POINT('',(-1.4094545599001E-015,11.50945,-80.99));
#329=VECTOR('',#457,1.0);
#330=PRE_DEFINED_MARKER('');
#331=COLOUR_RGB('',0.800000011920929,0.800000011920929,0.800000011920929);
#332=DRAUGHTING_PRE_DEFINED_CURVE_FONT('continuous');
#333=COLOUR_RGB('',0.800000011920929,0.800000011920929,0.800000011920929);
#334=CARTESIAN_POINT('',(1.4094545599001E-015,-11.50945,-80.99));
#335=VECTOR('',#458,1.0);
#336=SURFACE_SIDE_STYLE('',(#459));
#337=EDGE_LOOP('',(#460,#461));
#338=AXIS2_PLACEMENT_3D('',#462,#463,#464);
#339=PRE_DEFINED_MARKER('');
#340=COLOUR_RGB('',0.800000011920929,0.800000011920929,0.800000011920929);
#341=DRAUGHTING_PRE_DEFINED_CURVE_FONT('continuous');
#342=COLOUR_RGB('',0.800000011920929,0.800000011920929,0.800000011920929);
#343=CARTESIAN_POINT('',(7.04418066845708E-016,-5.7522,-57.195));
#344=VECTOR('',#465,1.0);
#345=SURFACE_SIDE_STYLE('',(#466));
#346=EDGE_LOOP('',(#467,#468,#469,#470));
#347=AXIS2_PLACEMENT_3D('',#471,#472,#473);
#348=PRE_DEFINED_MARKER('');
#349=COLOUR_RGB('',0.800000011920929,0.800000011920929,0.800000011920929);
#350=PRE_DEFINED_MARKER('');
#351=COLOUR_RGB('',0.498039215803146,0.498039215803146,0.498039215803146);
#352=PRE_DEFINED_MARKER('');
#353=COLOUR_RGB('',0.498039215803146,0.498039215803146,0.498039215803146);
#354=DRAUGHTING_PRE_DEFINED_CURVE_FONT('continuous');
#355=COLOUR_RGB('',0.498039215803146,0.498039215803146,0.498039215803146);
#356=CARTESIAN_POINT('',(1.12433410559759E-015,-9.18118791469758,-0.585500000000003));
#357=VECTOR('',#474,1.0);
#358=DRAUGHTING_PRE_DEFINED_CURVE_FONT('continuous');
#359=COLOUR_RGB('',0.498039215803146,0.498039215803146,0.498039215803146);
#360=AXIS2_PLACEMENT_3D('',#475,#476,#477);
#361=DRAUGHTING_PRE_DEFINED_CURVE_FONT('continuous');
#362=COLOUR_RGB('',0.800000011920929,0.800000011920929,0.800000011920929);
#363=AXIS2_PLACEMENT_3D('',#478,#479,#480);
#364=DRAUGHTING_PRE_DEFINED_CURVE_FONT('continuous');
#365=COLOUR_RGB('',0.800000011920929,0.800000011920929,0.800000011920929);
#366=CARTESIAN_POINT('',(-7.04418066845708E-016,5.7522,-57.195));
#367=VECTOR('',#481,1.0);
#368=PRE_DEFINED_MARKER('');
#369=COLOUR_RGB('',0.800000011920929,0.800000011920929,0.800000011920929);
#370=SURFACE_SIDE_STYLE('',(#482));
#371=EDGE_LOOP('',(#483,#484));
#372=EDGE_LOOP('',(#485,#486));
#373=AXIS2_PLACEMENT_3D('',#487,#488,#489);
#374=SURFACE_SIDE_STYLE('',(#490));
#375=EDGE_LOOP('',(#491,#492,#493));
#376=AXIS2_PLACEMENT_3D('',#494,#495,#496);
#377=DRAUGHTING_PRE_DEFINED_CURVE_FONT('continuous');
#378=COLOUR_RGB('',0.498039215803146,0.498039215803146,0.498039215803146);
#379=CARTESIAN_POINT('',(1.16643755201581E-015,-9.525,-17.676));
#380=VECTOR('',#497,1.0);
#381=DRAUGHTING_PRE_DEFINED_CURVE_FONT('continuous');
#382=COLOUR_RGB('',0.498039215803146,0.498039215803146,0.498039215803146);
#383=AXIS2_PLACEMENT_3D('',#498,#499,#500);
#384=DRAUGHTING_PRE_DEFINED_CURVE_FONT('continuous');
#385=COLOUR_RGB('',0.800000011920929,0.800000011920929,0.800000011920929);
#386=AXIS2_PLACEMENT_3D('',#501,#502,#503);
#387=PRE_DEFINED_MARKER('');
#388=COLOUR_RGB('',0.498039215803146,0.498039215803146,0.498039215803146);
#389=PRE_DEFINED_MARKER('');
#390=COLOUR_RGB('',0.498039215803146,0.498039215803146,0.498039215803146);
#391=SURFACE_SIDE_STYLE('',(#504));
#392=SURFACE_SIDE_STYLE('',(#505));
#393=EDGE_LOOP('',(#506,#507,#508,#509));
#394=AXIS2_PLACEMENT_3D('',#510,#511,#512);
#395=DRAUGHTING_PRE_DEFINED_CURVE_FONT('continuous');
#396=COLOUR_RGB('',0.498039215803146,0.498039215803146,0.498039215803146);
#397=AXIS2_PLACEMENT_3D('',#513,#514,#515);
#398=DRAUGHTING_PRE_DEFINED_CURVE_FONT('continuous');
#399=COLOUR_RGB('',0.498039215803146,0.498039215803146,0.498039215803146);
#400=AXIS2_PLACEMENT_3D('',#516,#517,#518);
#401=SURFACE_SIDE_STYLE('',(#519));
#402=SURFACE_SIDE_STYLE('',(#520));
#403=EDGE_LOOP('',(#521,#522));
#404=AXIS2_PLACEMENT_3D('',#523,#524,#525);
#405=SURFACE_SIDE_STYLE('',(#526));
#406=EDGE_LOOP('',(#527,#528,#529,#530));
#407=AXIS2_PLACEMENT_3D('',#531,#532,#533);
#408=PRE_DEFINED_MARKER('');
#409=COLOUR_RGB('',0.800000011920929,0.800000011920929,0.800000011920929);
#410=DRAUGHTING_PRE_DEFINED_CURVE_FONT('continuous');
#411=COLOUR_RGB('',0.800000011920929,0.800000011920929,0.800000011920929);
#412=AXIS2_PLACEMENT_3D('',#534,#535,#536);
#413=PRE_DEFINED_MARKER('');
#414=COLOUR_RGB('',0.800000011920929,0.800000011920929,0.800000011920929);
#415=SURFACE_SIDE_STYLE('',(#537));
#416=EDGE_LOOP('',(#538,#539,#540,#541));
#417=AXIS2_PLACEMENT_3D('',#542,#543,#544);
#418=PRE_DEFINED_MARKER('');
#419=COLOUR_RGB('',0.498039215803146,0.498039215803146,0.498039215803146);
#420=SURFACE_SIDE_STYLE('',(#545));
#421=EDGE_LOOP('',(#546,#547,#548,#549));
#422=AXIS2_PLACEMENT_3D('',#550,#551,#552);
#423=DRAUGHTING_PRE_DEFINED_CURVE_FONT('continuous');
#424=COLOUR_RGB('',0.498039215803146,0.498039215803146,0.498039215803146);
#425=AXIS2_PLACEMENT_3D('',#553,#554,#555);
#426=DRAUGHTING_PRE_DEFINED_CURVE_FONT('continuous');
#427=COLOUR_RGB('',0.498039215803146,0.498039215803146,0.498039215803146);
#428=AXIS2_PLACEMENT_3D('',#556,#557,#558);
#429=SURFACE_SIDE_STYLE('',(#559));
#430=EDGE_LOOP('',(#560,#561));
#431=AXIS2_PLACEMENT_3D('',#562,#563,#564);
#432=PRE_DEFINED_MARKER('');
#433=COLOUR_RGB('',0.800000011920929,0.800000011920929,0.800000011920929);
#434=SURFACE_SIDE_STYLE('',(#565));
#435=EDGE_LOOP('',(#566,#567,#568));
#436=AXIS2_PLACEMENT_3D('',#569,#570,#571);
#437=DRAUGHTING_PRE_DEFINED_CURVE_FONT('continuous');
#438=COLOUR_RGB('',0.800000011920929,0.800000011920929,0.800000011920929);
#439=AXIS2_PLACEMENT_3D('',#572,#573,#574);
#440=DRAUGHTING_PRE_DEFINED_CURVE_FONT('continuous');
#441=COLOUR_RGB('',0.800000011920929,0.800000011920929,0.800000011920929);
#442=AXIS2_PLACEMENT_3D('',#575,#576,#577);
#444=CARTESIAN_POINT('',(0.0,0.0,-57.19));
#445=DIRECTION('',(0.0,0.0,-1.0));
#446=DIRECTION('',(0.0,1.0,0.0));
#447=DIRECTION('',(0.0,0.0,-1.0));
#448=DIRECTION('',(-6.12303176911187E-017,0.499999999999999,-0.866025403784439));
#449=SURFACE_STYLE_FILL_AREA(#578);
#450=ORIENTED_EDGE('',*,*,#84,.T.);
#451=ORIENTED_EDGE('',*,*,#112,.F.);
#452=ORIENTED_EDGE('',*,*,#124,.T.);
#453=ORIENTED_EDGE('',*,*,#126,.T.);
#454=CARTESIAN_POINT('',(0.0,0.0,-17.676));
#455=DIRECTION('',(-0.0,-0.0,1.0));
#456=DIRECTION('',(0.0,1.0,0.0));
#457=DIRECTION('',(-2.57270242398492E-022,2.10084033612492E-006,-0.999999999997793));
#458=DIRECTION('',(-2.57270242398492E-022,2.10084033612492E-006,0.999999999997793));
#459=SURFACE_STYLE_FILL_AREA(#579);
#460=ORIENTED_EDGE('',*,*,#112,.T.);
#461=ORIENTED_EDGE('',*,*,#162,.T.);
#462=CARTESIAN_POINT('',(0.0,0.0,-57.19));
#463=DIRECTION('',(0.0,0.0,-1.0));
#464=DIRECTION('',(0.0,-1.0,0.0));
#465=DIRECTION('',(1.22460589118755E-016,-0.999999622217522,0.000869232313044286));
#466=SURFACE_STYLE_FILL_AREA(#580);
#467=ORIENTED_EDGE('',*,*,#90,.T.);
#468=ORIENTED_EDGE('',*,*,#114,.F.);
#469=ORIENTED_EDGE('',*,*,#94,.T.);
#470=ORIENTED_EDGE('',*,*,#172,.T.);
#471=CARTESIAN_POINT('',(0.0,0.0,-80.99));
#472=DIRECTION('',(0.0,-0.0,-1.0));
#473=DIRECTION('',(0.0,1.0,0.0));
#474=DIRECTION('',(-6.12303176911187E-017,0.499999999999999,0.866025403784439));
#475=CARTESIAN_POINT('',(0.0,0.0,-57.19));
#476=DIRECTION('',(0.0,0.0,-1.0));
#477=DIRECTION('',(0.0,-1.0,0.0));
#478=CARTESIAN_POINT('',(0.0,0.0,-104.79));
#479=DIRECTION('',(0.0,0.0,-1.0));
#480=DIRECTION('',(0.0,1.0,0.0));
#481=DIRECTION('',(1.22460589118755E-016,-0.999999622217522,-0.000869232313044286));
#482=SURFACE_STYLE_FILL_AREA(#581);
#483=ORIENTED_EDGE('',*,*,#150,.F.);
#484=ORIENTED_EDGE('',*,*,#172,.F.);
#485=ORIENTED_EDGE('',*,*,#170,.T.);
#486=ORIENTED_EDGE('',*,*,#82,.T.);
#487=CARTESIAN_POINT('',(0.0,11.5069,-57.19));
#488=DIRECTION('',(-0.0,0.0,1.0));
#489=DIRECTION('',(0.0,-1.0,0.0));
#490=SURFACE_STYLE_FILL_AREA(#582);
#491=ORIENTED_EDGE('',*,*,#100,.T.);
#492=ORIENTED_EDGE('',*,*,#170,.F.);
#493=ORIENTED_EDGE('',*,*,#116,.T.);
#494=CARTESIAN_POINT('',(0.0,0.0,-57.195));
#495=DIRECTION('',(-0.0,-0.0,1.0));
#496=DIRECTION('',(0.0,1.0,0.0));
#497=DIRECTION('',(-0.0,-0.0,1.0));
#498=CARTESIAN_POINT('',(0.0,0.0,-1.181));
#499=DIRECTION('',(0.0,0.0,-1.0));
#500=DIRECTION('',(0.0,1.0,0.0));
#501=CARTESIAN_POINT('',(0.0,0.0,-104.79));
#502=DIRECTION('',(0.0,0.0,-1.0));
#503=DIRECTION('',(0.0,1.0,0.0));
#504=SURFACE_STYLE_FILL_AREA(#583);
#505=SURFACE_STYLE_FILL_AREA(#584);
#506=ORIENTED_EDGE('',*,*,#84,.F.);
#507=ORIENTED_EDGE('',*,*,#138,.T.);
#508=ORIENTED_EDGE('',*,*,#124,.F.);
#509=ORIENTED_EDGE('',*,*,#162,.F.);
#510=CARTESIAN_POINT('',(0.0,0.0,-17.676));
#511=DIRECTION('',(-0.0,-0.0,1.0));
#512=DIRECTION('',(0.0,1.0,0.0));
#513=CARTESIAN_POINT('',(0.0,0.0,-1.181));
#514=DIRECTION('',(0.0,0.0,-1.0));
#515=DIRECTION('',(0.0,1.0,0.0));
#516=CARTESIAN_POINT('',(0.0,0.0,0.00999999999999801));
#517=DIRECTION('',(0.0,0.0,-1.0));
#518=DIRECTION('',(0.0,1.0,0.0));
#519=SURFACE_STYLE_FILL_AREA(#585);
#520=SURFACE_STYLE_FILL_AREA(#586);
#521=ORIENTED_EDGE('',*,*,#160,.F.);
#522=ORIENTED_EDGE('',*,*,#140,.F.);
#523=CARTESIAN_POINT('',(0.0,4.41868791469758,0.00999999999999801));
#524=DIRECTION('',(-0.0,0.0,1.0));
#525=DIRECTION('',(0.0,-1.0,0.0));
#526=SURFACE_STYLE_FILL_AREA(#587);
#527=ORIENTED_EDGE('',*,*,#86,.T.);
#528=ORIENTED_EDGE('',*,*,#126,.F.);
#529=ORIENTED_EDGE('',*,*,#110,.T.);
#530=ORIENTED_EDGE('',*,*,#140,.T.);
#531=CARTESIAN_POINT('',(0.0,0.0,-0.585500000000003));
#532=DIRECTION('',(0.0,-0.0,-1.0));
#533=DIRECTION('',(0.0,1.0,0.0));
#534=CARTESIAN_POINT('',(0.0,0.0,-57.19));
#535=DIRECTION('',(0.0,0.0,-1.0));
#536=DIRECTION('',(0.0,1.0,0.0));
#537=SURFACE_STYLE_FILL_AREA(#588);
#538=ORIENTED_EDGE('',*,*,#90,.F.);
#539=ORIENTED_EDGE('',*,*,#150,.T.);
#540=ORIENTED_EDGE('',*,*,#94,.F.);
#541=ORIENTED_EDGE('',*,*,#128,.F.);
#542=CARTESIAN_POINT('',(0.0,0.0,-80.99));
#543=DIRECTION('',(0.0,-0.0,-1.0));
#544=DIRECTION('',(0.0,1.0,0.0));
#545=SURFACE_STYLE_FILL_AREA(#589);
#546=ORIENTED_EDGE('',*,*,#86,.F.);
#547=ORIENTED_EDGE('',*,*,#160,.T.);
#548=ORIENTED_EDGE('',*,*,#110,.F.);
#549=ORIENTED_EDGE('',*,*,#138,.F.);
#550=CARTESIAN_POINT('',(0.0,0.0,-0.585500000000003));
#551=DIRECTION('',(0.0,-0.0,-1.0));
#552=DIRECTION('',(0.0,1.0,0.0));
#553=CARTESIAN_POINT('',(0.0,0.0,0.00999999999999801));
#554=DIRECTION('',(0.0,0.0,-1.0));
#555=DIRECTION('',(0.0,1.0,0.0));
#556=CARTESIAN_POINT('',(0.0,0.0,-57.19));
#557=DIRECTION('',(0.0,0.0,-1.0));
#558=DIRECTION('',(0.0,-1.0,0.0));
#559=SURFACE_STYLE_FILL_AREA(#590);
#560=ORIENTED_EDGE('',*,*,#128,.T.);
#561=ORIENTED_EDGE('',*,*,#114,.T.);
#562=CARTESIAN_POINT('',(0.0,5.75225,-104.79));
#563=DIRECTION('',(0.0,0.0,-1.0));
#564=DIRECTION('',(0.0,1.0,0.0));
#565=SURFACE_STYLE_FILL_AREA(#591);
#566=ORIENTED_EDGE('',*,*,#100,.F.);
#567=ORIENTED_EDGE('',*,*,#116,.F.);
#568=ORIENTED_EDGE('',*,*,#82,.F.);
#569=CARTESIAN_POINT('',(0.0,0.0,-57.195));
#570=DIRECTION('',(-0.0,-0.0,1.0));
#571=DIRECTION('',(0.0,1.0,0.0));
#572=CARTESIAN_POINT('',(0.0,0.0,-57.19));
#573=DIRECTION('',(0.0,0.0,-1.0));
#574=DIRECTION('',(0.0,1.0,0.0));
#575=CARTESIAN_POINT('',(0.0,0.0,-57.19));
#576=DIRECTION('',(0.0,0.0,-1.0));
#577=DIRECTION('',(0.0,1.0,0.0));
#578=FILL_AREA_STYLE('',(#592));
#579=FILL_AREA_STYLE('',(#593));
#580=FILL_AREA_STYLE('',(#594));
#581=FILL_AREA_STYLE('',(#595));
#582=FILL_AREA_STYLE('',(#596));
#583=FILL_AREA_STYLE('',(#597));
#584=FILL_AREA_STYLE('',(#598));
#585=FILL_AREA_STYLE('',(#599));
#586=FILL_AREA_STYLE('',(#600));
#587=FILL_AREA_STYLE('',(#601));
#588=FILL_AREA_STYLE('',(#602));
#589=FILL_AREA_STYLE('',(#603));
#590=FILL_AREA_STYLE('',(#604));
#591=FILL_AREA_STYLE('',(#605));
#592=FILL_AREA_STYLE_COLOUR('',#606);
#593=FILL_AREA_STYLE_COLOUR('',#607);
#594=FILL_AREA_STYLE_COLOUR('',#608);
#595=FILL_AREA_STYLE_COLOUR('',#609);
#596=FILL_AREA_STYLE_COLOUR('',#610);
#597=FILL_AREA_STYLE_COLOUR('',#611);
#598=FILL_AREA_STYLE_COLOUR('',#612);
#599=FILL_AREA_STYLE_COLOUR('',#613);
#600=FILL_AREA_STYLE_COLOUR('',#614);
#601=FILL_AREA_STYLE_COLOUR('',#615);
#602=FILL_AREA_STYLE_COLOUR('',#616);
#603=FILL_AREA_STYLE_COLOUR('',#617);
#604=FILL_AREA_STYLE_COLOUR('',#618);
#605=FILL_AREA_STYLE_COLOUR('',#619);
#606=COLOUR_RGB('',0.498039215803146,0.498039215803146,0.498039215803146);
#607=COLOUR_RGB('',0.498039215803146,0.498039215803146,0.498039215803146);
#608=COLOUR_RGB('',0.800000011920929,0.800000011920929,0.800000011920929);
#609=COLOUR_RGB('',0.800000011920929,0.800000011920929,0.800000011920929);
#610=COLOUR_RGB('',0.800000011920929,0.800000011920929,0.800000011920929);
#611=COLOUR_RGB('',0.800000011920929,0.800000011920929,0.800000011920929);
#612=COLOUR_RGB('',0.498039215803146,0.498039215803146,0.498039215803146);
#613=COLOUR_RGB('',0.800000011920929,0.800000011920929,0.800000011920929);
#614=COLOUR_RGB('',0.498039215803146,0.498039215803146,0.498039215803146);
#615=COLOUR_RGB('',0.498039215803146,0.498039215803146,0.498039215803146);
#616=COLOUR_RGB('',0.800000011920929,0.800000011920929,0.800000011920929);
#617=COLOUR_RGB('',0.498039215803146,0.498039215803146,0.498039215803146);
#618=COLOUR_RGB('',0.800000011920929,0.800000011920929,0.800000011920929);
#619=COLOUR_RGB('',0.800000011920929,0.800000011920929,0.800000011920929);
#620=AXIS2_PLACEMENT_3D('PCS',#621,#622,#623);
#621=CARTESIAN_POINT('',(0.0,0.0,0.0));
#622=DIRECTION('',(0.0,0.0,1.0));
#623=DIRECTION('',(1.0,0.0,0.0));
#624=AXIS2_PLACEMENT_3D('CIP',#625,#626,#627);
#625=CARTESIAN_POINT('',(0.0,0.0,-104.8));
#626=DIRECTION('',(0.0,0.0,1.0));
#627=DIRECTION('',(1.0,0.0,0.0));
#628=AXIS2_PLACEMENT_3D('CRP',#629,#630,#631);
#629=CARTESIAN_POINT('',(-11.5095,0.0,-104.8));
#630=DIRECTION('',(0.0,0.0,1.0));
#631=DIRECTION('',(1.0,0.0,0.0));
#632=AXIS2_PLACEMENT_3D('MCS',#633,#634,#635);
#633=CARTESIAN_POINT('',(0.0,0.0,-34.181));
#634=DIRECTION('',(0.0,0.0,1.0));
#635=DIRECTION('',(1.0,0.0,0.0));
#636=CONSTRUCTIVE_GEOMETRY_REPRESENTATION_RELATIONSHIP('coordinate systems',$,#65,#637);
#637=CONSTRUCTIVE_GEOMETRY_REPRESENTATION('coordinate systems',(#620,#624,#628,#632),#10);
ENDSEC;
END-ISO-10303-21;
