ISO-10303-21;
HEADER;
FILE_DESCRIPTION(('no description'),'unknown implementation level');
FILE_NAME('solidpSl6RUwLG2qvm4mReuyGwj5Xo0k_1.STP','  ',('CIMSOURCE GmbH'),('CADClick - KiM GmbH - www.kimweb.de'),'unknown preprocess','ACIS','unknown authorization');
FILE_SCHEMA(('automotive_design'));
ENDSEC;
DATA;
#1=MECHANICAL_DESIGN_GEOMETRIC_PRESENTATION_REPRESENTATION(' ',(#14,#15,#16,#17,#18,#19,#20,#21,#22,#23,#24,#25,#26,#27,#28,#29,#30,#31,#32,#33,#34,#35,#36,#37,#38,#39,#40,#41,#42,#43,#44,#45,#46,#47,#48,#49,#50,#51,#52,#53,#54,#55,#56,#57,#58,#59,#60),#10);
#2=PRODUCT_DEFINITION_CONTEXT('',#61,'design');
#3=APPLICATION_PROTOCOL_DEFINITION('INTERNATIONAL STANDARD','automotive_design',1994,#61);
#4=PRODUCT_CATEGORY_RELATIONSHIP('NONE','NONE',#62,#63);
#5=SHAPE_DEFINITION_REPRESENTATION(#64,#65);
#6=PRODUCT_DEFINITION_CONTEXT('',#66,'design');
#7=APPLICATION_PROTOCOL_DEFINITION('INTERNATIONAL STANDARD','automotive_design',1994,#66);
#8=PRODUCT_CATEGORY_RELATIONSHIP('NONE','NONE',#67,#68);
#9=SHAPE_DEFINITION_REPRESENTATION(#69,#70);
#10= (GEOMETRIC_REPRESENTATION_CONTEXT(3)GLOBAL_UNCERTAINTY_ASSIGNED_CONTEXT((#73))GLOBAL_UNIT_ASSIGNED_CONTEXT((#75,#76,#77))REPRESENTATION_CONTEXT('NONE','WORKSPACE'));
#14=STYLED_ITEM('',(#79),#80);
#15=STYLED_ITEM('',(#81),#82);
#16=STYLED_ITEM('',(#83),#84);
#17=STYLED_ITEM('',(#85),#86);
#18=STYLED_ITEM('',(#87),#88);
#19=STYLED_ITEM('',(#89),#90);
#20=STYLED_ITEM('',(#91),#92);
#21=STYLED_ITEM('',(#93),#94);
#22=STYLED_ITEM('',(#95),#96);
#23=STYLED_ITEM('',(#97),#98);
#24=STYLED_ITEM('',(#99),#100);
#25=STYLED_ITEM('',(#101),#102);
#26=STYLED_ITEM('',(#103),#104);
#27=STYLED_ITEM('',(#105),#106);
#28=STYLED_ITEM('',(#107),#108);
#29=STYLED_ITEM('',(#109),#110);
#30=STYLED_ITEM('',(#111),#112);
#31=STYLED_ITEM('',(#113),#114);
#32=STYLED_ITEM('',(#115),#116);
#33=STYLED_ITEM('',(#117),#118);
#34=STYLED_ITEM('',(#119),#120);
#35=STYLED_ITEM('',(#121),#122);
#36=STYLED_ITEM('',(#123),#124);
#37=STYLED_ITEM('',(#125),#126);
#38=STYLED_ITEM('',(#127),#128);
#39=STYLED_ITEM('',(#129),#130);
#40=STYLED_ITEM('',(#131),#132);
#41=STYLED_ITEM('',(#133),#134);
#42=STYLED_ITEM('',(#135),#136);
#43=STYLED_ITEM('',(#137),#138);
#44=STYLED_ITEM('',(#139),#140);
#45=STYLED_ITEM('',(#141),#142);
#46=STYLED_ITEM('',(#143),#144);
#47=STYLED_ITEM('',(#145),#146);
#48=STYLED_ITEM('',(#147),#148);
#49=STYLED_ITEM('',(#149),#150);
#50=STYLED_ITEM('',(#151),#152);
#51=STYLED_ITEM('',(#153),#154);
#52=STYLED_ITEM('',(#155),#156);
#53=STYLED_ITEM('',(#157),#158);
#54=STYLED_ITEM('',(#159),#160);
#55=STYLED_ITEM('',(#161),#162);
#56=STYLED_ITEM('',(#163),#164);
#57=STYLED_ITEM('',(#165),#166);
#58=STYLED_ITEM('',(#167),#168);
#59=STYLED_ITEM('',(#169),#170);
#60=STYLED_ITEM('',(#171),#172);
#61=APPLICATION_CONTEXT(' ');
#62=PRODUCT_CATEGORY('part','NONE');
#63=PRODUCT_RELATED_PRODUCT_CATEGORY('detail',' ',(#173));
#64=PRODUCT_DEFINITION_SHAPE('NONE','NONE',#174);
#65=ADVANCED_BREP_SHAPE_REPRESENTATION('1',(#104,#175),#10);
#66=APPLICATION_CONTEXT(' ');
#67=PRODUCT_CATEGORY('part','NONE');
#68=PRODUCT_RELATED_PRODUCT_CATEGORY('detail',' ',(#176));
#69=PRODUCT_DEFINITION_SHAPE('NONE','NONE',#177);
#70=ADVANCED_BREP_SHAPE_REPRESENTATION('2',(#84,#178),#10);
#73=UNCERTAINTY_MEASURE_WITH_UNIT(LENGTH_MEASURE(1.0E-006),#75,'','');
#75= (CONVERSION_BASED_UNIT('MILLIMETRE',#181)LENGTH_UNIT()NAMED_UNIT(#184));
#76= (NAMED_UNIT(#186)PLANE_ANGLE_UNIT()SI_UNIT($,.RADIAN.));
#77= (NAMED_UNIT(#186)SOLID_ANGLE_UNIT()SI_UNIT($,.STERADIAN.));
#79=PRESENTATION_STYLE_ASSIGNMENT((#192));
#80=ADVANCED_FACE('',(#193),#194,.T.);
#81=PRESENTATION_STYLE_ASSIGNMENT((#195));
#82=ADVANCED_FACE('',(#196),#197,.T.);
#83=PRESENTATION_STYLE_ASSIGNMENT((#198));
#84=MANIFOLD_SOLID_BREP('2',#199);
#85=PRESENTATION_STYLE_ASSIGNMENT((#200));
#86=VERTEX_POINT('',#201);
#87=PRESENTATION_STYLE_ASSIGNMENT((#202));
#88=EDGE_CURVE('',#98,#166,#203,.T.);
#89=PRESENTATION_STYLE_ASSIGNMENT((#204));
#90=EDGE_CURVE('',#166,#98,#205,.T.);
#91=PRESENTATION_STYLE_ASSIGNMENT((#206));
#92=VERTEX_POINT('',#207);
#93=PRESENTATION_STYLE_ASSIGNMENT((#208));
#94=EDGE_CURVE('',#136,#92,#209,.T.);
#95=PRESENTATION_STYLE_ASSIGNMENT((#210));
#96=ADVANCED_FACE('',(#211),#212,.T.);
#97=PRESENTATION_STYLE_ASSIGNMENT((#213));
#98=VERTEX_POINT('',#214);
#99=PRESENTATION_STYLE_ASSIGNMENT((#215));
#100=VERTEX_POINT('',#216);
#101=PRESENTATION_STYLE_ASSIGNMENT((#217));
#102=EDGE_CURVE('',#130,#172,#218,.T.);
#103=PRESENTATION_STYLE_ASSIGNMENT((#219));
#104=MANIFOLD_SOLID_BREP('1',#220);
#105=PRESENTATION_STYLE_ASSIGNMENT((#221));
#106=ADVANCED_FACE('',(#222),#223,.T.);
#107=PRESENTATION_STYLE_ASSIGNMENT((#224));
#108=EDGE_CURVE('',#114,#166,#225,.T.);
#109=PRESENTATION_STYLE_ASSIGNMENT((#226));
#110=ADVANCED_FACE('',(#227),#228,.T.);
#111=PRESENTATION_STYLE_ASSIGNMENT((#229));
#112=EDGE_CURVE('',#100,#172,#230,.T.);
#113=PRESENTATION_STYLE_ASSIGNMENT((#231));
#114=VERTEX_POINT('',#232);
#115=PRESENTATION_STYLE_ASSIGNMENT((#233));
#116=ADVANCED_FACE('',(#234),#235,.F.);
#117=PRESENTATION_STYLE_ASSIGNMENT((#236));
#118=VERTEX_POINT('',#237);
#119=PRESENTATION_STYLE_ASSIGNMENT((#238));
#120=VERTEX_POINT('',#239);
#121=PRESENTATION_STYLE_ASSIGNMENT((#240));
#122=VERTEX_POINT('',#241);
#123=PRESENTATION_STYLE_ASSIGNMENT((#242));
#124=EDGE_CURVE('',#122,#130,#243,.T.);
#125=PRESENTATION_STYLE_ASSIGNMENT((#244));
#126=EDGE_CURVE('',#172,#100,#245,.T.);
#127=PRESENTATION_STYLE_ASSIGNMENT((#246));
#128=EDGE_CURVE('',#92,#136,#247,.T.);
#129=PRESENTATION_STYLE_ASSIGNMENT((#248));
#130=VERTEX_POINT('',#249);
#131=PRESENTATION_STYLE_ASSIGNMENT((#250));
#132=EDGE_CURVE('',#100,#122,#251,.T.);
#133=PRESENTATION_STYLE_ASSIGNMENT((#252));
#134=EDGE_CURVE('',#130,#122,#253,.T.);
#135=PRESENTATION_STYLE_ASSIGNMENT((#254));
#136=VERTEX_POINT('',#255);
#137=PRESENTATION_STYLE_ASSIGNMENT((#256));
#138=EDGE_CURVE('',#114,#168,#257,.T.);
#139=PRESENTATION_STYLE_ASSIGNMENT((#258));
#140=EDGE_CURVE('',#120,#136,#259,.T.);
#141=PRESENTATION_STYLE_ASSIGNMENT((#260));
#142=ADVANCED_FACE('',(#261,#262),#263,.T.);
#143=PRESENTATION_STYLE_ASSIGNMENT((#264));
#144=EDGE_CURVE('',#118,#130,#265,.T.);
#145=PRESENTATION_STYLE_ASSIGNMENT((#266));
#146=EDGE_CURVE('',#92,#120,#267,.T.);
#147=PRESENTATION_STYLE_ASSIGNMENT((#268));
#148=ADVANCED_FACE('',(#269),#270,.T.);
#149=PRESENTATION_STYLE_ASSIGNMENT((#271));
#150=ADVANCED_FACE('',(#272),#273,.T.);
#151=PRESENTATION_STYLE_ASSIGNMENT((#274));
#152=EDGE_CURVE('',#86,#118,#275,.T.);
#153=PRESENTATION_STYLE_ASSIGNMENT((#276));
#154=ADVANCED_FACE('',(#277),#278,.T.);
#155=PRESENTATION_STYLE_ASSIGNMENT((#279));
#156=EDGE_CURVE('',#168,#114,#280,.T.);
#157=PRESENTATION_STYLE_ASSIGNMENT((#281));
#158=EDGE_CURVE('',#122,#86,#282,.T.);
#159=PRESENTATION_STYLE_ASSIGNMENT((#283));
#160=EDGE_CURVE('',#118,#86,#284,.T.);
#161=PRESENTATION_STYLE_ASSIGNMENT((#285));
#162=ADVANCED_FACE('',(#286),#287,.F.);
#163=PRESENTATION_STYLE_ASSIGNMENT((#288));
#164=EDGE_CURVE('',#98,#168,#289,.T.);
#165=PRESENTATION_STYLE_ASSIGNMENT((#290));
#166=VERTEX_POINT('',#291);
#167=PRESENTATION_STYLE_ASSIGNMENT((#292));
#168=VERTEX_POINT('',#293);
#169=PRESENTATION_STYLE_ASSIGNMENT((#294));
#170=ADVANCED_FACE('',(#295),#296,.T.);
#171=PRESENTATION_STYLE_ASSIGNMENT((#297));
#172=VERTEX_POINT('',#298);
#173=PRODUCT('1','1','PART-1-DESC',(#299));
#174=PRODUCT_DEFINITION('NONE','NONE',#300,#2);
#175=AXIS2_PLACEMENT_3D('',#301,#302,#303);
#176=PRODUCT('2','2','PART-2-DESC',(#304));
#177=PRODUCT_DEFINITION('NONE','NONE',#305,#6);
#178=AXIS2_PLACEMENT_3D('',#306,#307,#308);
#181=LENGTH_MEASURE_WITH_UNIT(LENGTH_MEASURE(1.0),#309);
#184=DIMENSIONAL_EXPONENTS(1.0,0.0,0.0,0.0,0.0,0.0,0.0);
#186=DIMENSIONAL_EXPONENTS(0.0,0.0,0.0,0.0,0.0,0.0,0.0);
#192=SURFACE_STYLE_USAGE(.BOTH.,#310);
#193=FACE_OUTER_BOUND('',#311,.T.);
#194=PLANE('',#312);
#195=SURFACE_STYLE_USAGE(.BOTH.,#313);
#196=FACE_OUTER_BOUND('',#314,.T.);
#197=CONICAL_SURFACE('',#315,9.18118791469758,0.523598775598298);
#198=SURFACE_STYLE_USAGE(.BOTH.,#316);
#199=CLOSED_SHELL('',(#170,#82,#154,#80,#150,#96));
#200=POINT_STYLE(' ',#317,POSITIVE_LENGTH_MEASURE(1.0E-006),#318);
#201=CARTESIAN_POINT('',(-1.16643755201581E-015,9.525,-57.19));
#202=CURVE_STYLE('',#319,POSITIVE_LENGTH_MEASURE(1.0E-006),#320);
#203=CIRCLE('',#321,11.5095);
#204=CURVE_STYLE('',#322,POSITIVE_LENGTH_MEASURE(1.0E-006),#323);
#205=CIRCLE('',#324,11.5095);
#206=POINT_STYLE(' ',#325,POSITIVE_LENGTH_MEASURE(1.0E-006),#326);
#207=CARTESIAN_POINT('',(0.0,11.5044,-57.19));
#208=CURVE_STYLE('',#327,POSITIVE_LENGTH_MEASURE(1.0E-006),#328);
#209=CIRCLE('',#329,11.5044);
#210=SURFACE_STYLE_USAGE(.BOTH.,#330);
#211=FACE_OUTER_BOUND('',#331,.T.);
#212=CYLINDRICAL_SURFACE('',#332,9.525);
#213=POINT_STYLE(' ',#333,POSITIVE_LENGTH_MEASURE(1.0E-006),#334);
#214=CARTESIAN_POINT('',(1.40946068293187E-015,-11.5095,-104.79));
#215=POINT_STYLE(' ',#335,POSITIVE_LENGTH_MEASURE(1.0E-006),#336);
#216=CARTESIAN_POINT('',(0.0,8.83737582939516,0.00999999999999801));
#217=CURVE_STYLE('',#337,POSITIVE_LENGTH_MEASURE(1.0E-006),#338);
#218=LINE('',#339,#340);
#219=SURFACE_STYLE_USAGE(.BOTH.,#341);
#220=CLOSED_SHELL('',(#148,#116,#162,#142,#110,#106));
#221=SURFACE_STYLE_USAGE(.BOTH.,#342);
#222=FACE_OUTER_BOUND('',#343,.T.);
#223=PLANE('',#344);
#224=CURVE_STYLE('',#345,POSITIVE_LENGTH_MEASURE(1.0E-006),#346);
#225=LINE('',#347,#348);
#226=SURFACE_STYLE_USAGE(.BOTH.,#349);
#227=FACE_OUTER_BOUND('',#350,.T.);
#228=CONICAL_SURFACE('',#351,11.50945,2.10084033612647E-006);
#229=CURVE_STYLE('',#352,POSITIVE_LENGTH_MEASURE(1.0E-006),#353);
#230=CIRCLE('',#354,8.83737582939516);
#231=POINT_STYLE(' ',#355,POSITIVE_LENGTH_MEASURE(1.0E-006),#356);
#232=CARTESIAN_POINT('',(0.0,11.5094,-57.19));
#233=SURFACE_STYLE_USAGE(.BOTH.,#357);
#234=FACE_OUTER_BOUND('',#358,.T.);
#235=CONICAL_SURFACE('',#359,5.7522,1.56992709437239);
#236=POINT_STYLE(' ',#360,POSITIVE_LENGTH_MEASURE(1.0E-006),#361);
#237=CARTESIAN_POINT('',(0.0,-9.525,-57.19));
#238=POINT_STYLE(' ',#362,POSITIVE_LENGTH_MEASURE(1.0E-006),#363);
#239=CARTESIAN_POINT('',(0.0,0.0,-57.2));
#240=POINT_STYLE(' ',#364,POSITIVE_LENGTH_MEASURE(1.0E-006),#365);
#241=CARTESIAN_POINT('',(0.0,9.525,-1.181));
#242=CURVE_STYLE('',#366,POSITIVE_LENGTH_MEASURE(1.0E-006),#367);
#243=CIRCLE('',#368,9.525);
#244=CURVE_STYLE('',#369,POSITIVE_LENGTH_MEASURE(1.0E-006),#370);
#245=CIRCLE('',#371,8.83737582939516);
#246=CURVE_STYLE('',#372,POSITIVE_LENGTH_MEASURE(1.0E-006),#373);
#247=CIRCLE('',#374,11.5044);
#248=POINT_STYLE(' ',#375,POSITIVE_LENGTH_MEASURE(1.0E-006),#376);
#249=CARTESIAN_POINT('',(1.16643755201581E-015,-9.525,-1.181));
#250=CURVE_STYLE('',#377,POSITIVE_LENGTH_MEASURE(1.0E-006),#378);
#251=LINE('',#379,#380);
#252=CURVE_STYLE('',#381,POSITIVE_LENGTH_MEASURE(1.0E-006),#382);
#253=CIRCLE('',#383,9.525);
#254=POINT_STYLE(' ',#384,POSITIVE_LENGTH_MEASURE(1.0E-006),#385);
#255=CARTESIAN_POINT('',(1.40883613369142E-015,-11.5044,-57.19));
#256=CURVE_STYLE('',#386,POSITIVE_LENGTH_MEASURE(1.0E-006),#387);
#257=CIRCLE('',#388,11.5094);
#258=CURVE_STYLE('',#389,POSITIVE_LENGTH_MEASURE(1.0E-006),#390);
#259=LINE('',#391,#392);
#260=SURFACE_STYLE_USAGE(.BOTH.,#393);
#261=FACE_OUTER_BOUND('',#394,.T.);
#262=FACE_BOUND('',#395,.T.);
#263=PLANE('',#396);
#264=CURVE_STYLE('',#397,POSITIVE_LENGTH_MEASURE(1.0E-006),#398);
#265=LINE('',#399,#400);
#266=CURVE_STYLE('',#401,POSITIVE_LENGTH_MEASURE(1.0E-006),#402);
#267=LINE('',#403,#404);
#268=SURFACE_STYLE_USAGE(.BOTH.,#405);
#269=FACE_OUTER_BOUND('',#406,.T.);
#270=CONICAL_SURFACE('',#407,11.50945,2.10084033612647E-006);
#271=SURFACE_STYLE_USAGE(.BOTH.,#408);
#272=FACE_OUTER_BOUND('',#409,.T.);
#273=CONICAL_SURFACE('',#410,9.18118791469758,0.523598775598298);
#274=CURVE_STYLE('',#411,POSITIVE_LENGTH_MEASURE(1.0E-006),#412);
#275=CIRCLE('',#413,9.525);
#276=SURFACE_STYLE_USAGE(.BOTH.,#414);
#277=FACE_OUTER_BOUND('',#415,.T.);
#278=PLANE('',#416);
#279=CURVE_STYLE('',#417,POSITIVE_LENGTH_MEASURE(1.0E-006),#418);
#280=CIRCLE('',#419,11.5094);
#281=CURVE_STYLE('',#420,POSITIVE_LENGTH_MEASURE(1.0E-006),#421);
#282=LINE('',#422,#423);
#283=CURVE_STYLE('',#424,POSITIVE_LENGTH_MEASURE(1.0E-006),#425);
#284=CIRCLE('',#426,9.525);
#285=SURFACE_STYLE_USAGE(.BOTH.,#427);
#286=FACE_OUTER_BOUND('',#428,.T.);
#287=CONICAL_SURFACE('',#429,5.7522,1.56992709437239);
#288=CURVE_STYLE('',#430,POSITIVE_LENGTH_MEASURE(1.0E-006),#431);
#289=LINE('',#432,#433);
#290=POINT_STYLE(' ',#434,POSITIVE_LENGTH_MEASURE(1.0E-006),#435);
#291=CARTESIAN_POINT('',(0.0,11.5095,-104.79));
#292=POINT_STYLE(' ',#436,POSITIVE_LENGTH_MEASURE(1.0E-006),#437);
#293=CARTESIAN_POINT('',(1.40944843686833E-015,-11.5094,-57.19));
#294=SURFACE_STYLE_USAGE(.BOTH.,#438);
#295=FACE_OUTER_BOUND('',#439,.T.);
#296=CYLINDRICAL_SURFACE('',#440,9.525);
#297=POINT_STYLE(' ',#441,POSITIVE_LENGTH_MEASURE(1.0E-006),#442);
#298=CARTESIAN_POINT('',(1.08223065917936E-015,-8.83737582939516,0.00999999999999801));
#299=PRODUCT_CONTEXT('',#61,'mechanical');
#300=PRODUCT_DEFINITION_FORMATION_WITH_SPECIFIED_SOURCE(' ','NONE',#173,.NOT_KNOWN.);
#301=CARTESIAN_POINT('',(0.0,0.0,0.0));
#302=DIRECTION('',(0.0,0.0,1.0));
#303=DIRECTION('',(1.0,0.0,0.0));
#304=PRODUCT_CONTEXT('',#66,'mechanical');
#305=PRODUCT_DEFINITION_FORMATION_WITH_SPECIFIED_SOURCE(' ','NONE',#176,.NOT_KNOWN.);
#306=CARTESIAN_POINT('',(0.0,0.0,0.0));
#307=DIRECTION('',(0.0,0.0,1.0));
#308=DIRECTION('',(1.0,0.0,0.0));
#309= (NAMED_UNIT(#184)LENGTH_UNIT()SI_UNIT(.MILLI.,.METRE.));
#310=SURFACE_SIDE_STYLE('',(#444));
#311=EDGE_LOOP('',(#445,#446));
#312=AXIS2_PLACEMENT_3D('',#447,#448,#449);
#313=SURFACE_SIDE_STYLE('',(#450));
#314=EDGE_LOOP('',(#451,#452,#453,#454));
#315=AXIS2_PLACEMENT_3D('',#455,#456,#457);
#316=SURFACE_SIDE_STYLE('',(#458));
#317=PRE_DEFINED_MARKER('');
#318=COLOUR_RGB('',0.498039215803146,0.498039215803146,0.498039215803146);
#319=DRAUGHTING_PRE_DEFINED_CURVE_FONT('continuous');
#320=COLOUR_RGB('',0.800000011920929,0.800000011920929,0.800000011920929);
#321=AXIS2_PLACEMENT_3D('',#459,#460,#461);
#322=DRAUGHTING_PRE_DEFINED_CURVE_FONT('continuous');
#323=COLOUR_RGB('',0.800000011920929,0.800000011920929,0.800000011920929);
#324=AXIS2_PLACEMENT_3D('',#462,#463,#464);
#325=PRE_DEFINED_MARKER('');
#326=COLOUR_RGB('',0.800000011920929,0.800000011920929,0.800000011920929);
#327=DRAUGHTING_PRE_DEFINED_CURVE_FONT('continuous');
#328=COLOUR_RGB('',0.800000011920929,0.800000011920929,0.800000011920929);
#329=AXIS2_PLACEMENT_3D('',#465,#466,#467);
#330=SURFACE_SIDE_STYLE('',(#468));
#331=EDGE_LOOP('',(#469,#470,#471,#472));
#332=AXIS2_PLACEMENT_3D('',#473,#474,#475);
#333=PRE_DEFINED_MARKER('');
#334=COLOUR_RGB('',0.800000011920929,0.800000011920929,0.800000011920929);
#335=PRE_DEFINED_MARKER('');
#336=COLOUR_RGB('',0.498039215803146,0.498039215803146,0.498039215803146);
#337=DRAUGHTING_PRE_DEFINED_CURVE_FONT('continuous');
#338=COLOUR_RGB('',0.498039215803146,0.498039215803146,0.498039215803146);
#339=CARTESIAN_POINT('',(1.12433410559759E-015,-9.18118791469758,-0.585500000000003));
#340=VECTOR('',#476,1.0);
#341=SURFACE_SIDE_STYLE('',(#477));
#342=SURFACE_SIDE_STYLE('',(#478));
#343=EDGE_LOOP('',(#479,#480));
#344=AXIS2_PLACEMENT_3D('',#481,#482,#483);
#345=DRAUGHTING_PRE_DEFINED_CURVE_FONT('continuous');
#346=COLOUR_RGB('',0.800000011920929,0.800000011920929,0.800000011920929);
#347=CARTESIAN_POINT('',(-1.4094545599001E-015,11.50945,-80.99));
#348=VECTOR('',#484,1.0);
#349=SURFACE_SIDE_STYLE('',(#485));
#350=EDGE_LOOP('',(#486,#487,#488,#489));
#351=AXIS2_PLACEMENT_3D('',#490,#491,#492);
#352=DRAUGHTING_PRE_DEFINED_CURVE_FONT('continuous');
#353=COLOUR_RGB('',0.498039215803146,0.498039215803146,0.498039215803146);
#354=AXIS2_PLACEMENT_3D('',#493,#494,#495);
#355=PRE_DEFINED_MARKER('');
#356=COLOUR_RGB('',0.800000011920929,0.800000011920929,0.800000011920929);
#357=SURFACE_SIDE_STYLE('',(#496));
#358=EDGE_LOOP('',(#497,#498,#499));
#359=AXIS2_PLACEMENT_3D('',#500,#501,#502);
#360=PRE_DEFINED_MARKER('');
#361=COLOUR_RGB('',0.498039215803146,0.498039215803146,0.498039215803146);
#362=PRE_DEFINED_MARKER('');
#363=COLOUR_RGB('',0.800000011920929,0.800000011920929,0.800000011920929);
#364=PRE_DEFINED_MARKER('');
#365=COLOUR_RGB('',0.498039215803146,0.498039215803146,0.498039215803146);
#366=DRAUGHTING_PRE_DEFINED_CURVE_FONT('continuous');
#367=COLOUR_RGB('',0.498039215803146,0.498039215803146,0.498039215803146);
#368=AXIS2_PLACEMENT_3D('',#503,#504,#505);
#369=DRAUGHTING_PRE_DEFINED_CURVE_FONT('continuous');
#370=COLOUR_RGB('',0.498039215803146,0.498039215803146,0.498039215803146);
#371=AXIS2_PLACEMENT_3D('',#506,#507,#508);
#372=DRAUGHTING_PRE_DEFINED_CURVE_FONT('continuous');
#373=COLOUR_RGB('',0.800000011920929,0.800000011920929,0.800000011920929);
#374=AXIS2_PLACEMENT_3D('',#509,#510,#511);
#375=PRE_DEFINED_MARKER('');
#376=COLOUR_RGB('',0.498039215803146,0.498039215803146,0.498039215803146);
#377=DRAUGHTING_PRE_DEFINED_CURVE_FONT('continuous');
#378=COLOUR_RGB('',0.498039215803146,0.498039215803146,0.498039215803146);
#379=CARTESIAN_POINT('',(-1.12433410559759E-015,9.18118791469758,-0.585500000000003));
#380=VECTOR('',#512,1.0);
#381=DRAUGHTING_PRE_DEFINED_CURVE_FONT('continuous');
#382=COLOUR_RGB('',0.498039215803146,0.498039215803146,0.498039215803146);
#383=AXIS2_PLACEMENT_3D('',#513,#514,#515);
#384=PRE_DEFINED_MARKER('');
#385=COLOUR_RGB('',0.800000011920929,0.800000011920929,0.800000011920929);
#386=DRAUGHTING_PRE_DEFINED_CURVE_FONT('continuous');
#387=COLOUR_RGB('',0.800000011920929,0.800000011920929,0.800000011920929);
#388=AXIS2_PLACEMENT_3D('',#516,#517,#518);
#389=DRAUGHTING_PRE_DEFINED_CURVE_FONT('continuous');
#390=COLOUR_RGB('',0.800000011920929,0.800000011920929,0.800000011920929);
#391=CARTESIAN_POINT('',(7.04418066845708E-016,-5.7522,-57.195));
#392=VECTOR('',#519,1.0);
#393=SURFACE_SIDE_STYLE('',(#520));
#394=EDGE_LOOP('',(#521,#522));
#395=EDGE_LOOP('',(#523,#524));
#396=AXIS2_PLACEMENT_3D('',#525,#526,#527);
#397=DRAUGHTING_PRE_DEFINED_CURVE_FONT('continuous');
#398=COLOUR_RGB('',0.498039215803146,0.498039215803146,0.498039215803146);
#399=CARTESIAN_POINT('',(1.16643755201581E-015,-9.525,-17.676));
#400=VECTOR('',#528,1.0);
#401=DRAUGHTING_PRE_DEFINED_CURVE_FONT('continuous');
#402=COLOUR_RGB('',0.800000011920929,0.800000011920929,0.800000011920929);
#403=CARTESIAN_POINT('',(-7.04418066845708E-016,5.7522,-57.195));
#404=VECTOR('',#529,1.0);
#405=SURFACE_SIDE_STYLE('',(#530));
#406=EDGE_LOOP('',(#531,#532,#533,#534));
#407=AXIS2_PLACEMENT_3D('',#535,#536,#537);
#408=SURFACE_SIDE_STYLE('',(#538));
#409=EDGE_LOOP('',(#539,#540,#541,#542));
#410=AXIS2_PLACEMENT_3D('',#543,#544,#545);
#411=DRAUGHTING_PRE_DEFINED_CURVE_FONT('continuous');
#412=COLOUR_RGB('',0.498039215803146,0.498039215803146,0.498039215803146);
#413=AXIS2_PLACEMENT_3D('',#546,#547,#548);
#414=SURFACE_SIDE_STYLE('',(#549));
#415=EDGE_LOOP('',(#550,#551));
#416=AXIS2_PLACEMENT_3D('',#552,#553,#554);
#417=DRAUGHTING_PRE_DEFINED_CURVE_FONT('continuous');
#418=COLOUR_RGB('',0.800000011920929,0.800000011920929,0.800000011920929);
#419=AXIS2_PLACEMENT_3D('',#555,#556,#557);
#420=DRAUGHTING_PRE_DEFINED_CURVE_FONT('continuous');
#421=COLOUR_RGB('',0.498039215803146,0.498039215803146,0.498039215803146);
#422=CARTESIAN_POINT('',(-1.16643755201581E-015,9.525,-17.676));
#423=VECTOR('',#558,1.0);
#424=DRAUGHTING_PRE_DEFINED_CURVE_FONT('continuous');
#425=COLOUR_RGB('',0.498039215803146,0.498039215803146,0.498039215803146);
#426=AXIS2_PLACEMENT_3D('',#559,#560,#561);
#427=SURFACE_SIDE_STYLE('',(#562));
#428=EDGE_LOOP('',(#563,#564,#565));
#429=AXIS2_PLACEMENT_3D('',#566,#567,#568);
#430=DRAUGHTING_PRE_DEFINED_CURVE_FONT('continuous');
#431=COLOUR_RGB('',0.800000011920929,0.800000011920929,0.800000011920929);
#432=CARTESIAN_POINT('',(1.4094545599001E-015,-11.50945,-80.99));
#433=VECTOR('',#569,1.0);
#434=PRE_DEFINED_MARKER('');
#435=COLOUR_RGB('',0.800000011920929,0.800000011920929,0.800000011920929);
#436=PRE_DEFINED_MARKER('');
#437=COLOUR_RGB('',0.800000011920929,0.800000011920929,0.800000011920929);
#438=SURFACE_SIDE_STYLE('',(#570));
#439=EDGE_LOOP('',(#571,#572,#573,#574));
#440=AXIS2_PLACEMENT_3D('',#575,#576,#577);
#441=PRE_DEFINED_MARKER('');
#442=COLOUR_RGB('',0.498039215803146,0.498039215803146,0.498039215803146);
#444=SURFACE_STYLE_FILL_AREA(#578);
#445=ORIENTED_EDGE('',*,*,#112,.F.);
#446=ORIENTED_EDGE('',*,*,#126,.F.);
#447=CARTESIAN_POINT('',(0.0,4.41868791469758,0.00999999999999801));
#448=DIRECTION('',(-0.0,0.0,1.0));
#449=DIRECTION('',(0.0,-1.0,0.0));
#450=SURFACE_STYLE_FILL_AREA(#579);
#451=ORIENTED_EDGE('',*,*,#132,.F.);
#452=ORIENTED_EDGE('',*,*,#112,.T.);
#453=ORIENTED_EDGE('',*,*,#102,.F.);
#454=ORIENTED_EDGE('',*,*,#124,.F.);
#455=CARTESIAN_POINT('',(0.0,0.0,-0.585500000000003));
#456=DIRECTION('',(0.0,-0.0,-1.0));
#457=DIRECTION('',(0.0,1.0,0.0));
#458=SURFACE_STYLE_FILL_AREA(#580);
#459=CARTESIAN_POINT('',(0.0,0.0,-104.79));
#460=DIRECTION('',(0.0,0.0,-1.0));
#461=DIRECTION('',(0.0,1.0,0.0));
#462=CARTESIAN_POINT('',(0.0,0.0,-104.79));
#463=DIRECTION('',(0.0,0.0,-1.0));
#464=DIRECTION('',(0.0,1.0,0.0));
#465=CARTESIAN_POINT('',(0.0,0.0,-57.19));
#466=DIRECTION('',(0.0,0.0,-1.0));
#467=DIRECTION('',(0.0,1.0,0.0));
#468=SURFACE_STYLE_FILL_AREA(#581);
#469=ORIENTED_EDGE('',*,*,#158,.T.);
#470=ORIENTED_EDGE('',*,*,#160,.F.);
#471=ORIENTED_EDGE('',*,*,#144,.T.);
#472=ORIENTED_EDGE('',*,*,#134,.T.);
#473=CARTESIAN_POINT('',(0.0,0.0,-17.676));
#474=DIRECTION('',(-0.0,-0.0,1.0));
#475=DIRECTION('',(0.0,1.0,0.0));
#476=DIRECTION('',(-6.12303176911187E-017,0.499999999999999,0.866025403784439));
#477=SURFACE_STYLE_FILL_AREA(#582);
#478=SURFACE_STYLE_FILL_AREA(#583);
#479=ORIENTED_EDGE('',*,*,#90,.T.);
#480=ORIENTED_EDGE('',*,*,#88,.T.);
#481=CARTESIAN_POINT('',(0.0,5.75225,-104.79));
#482=DIRECTION('',(0.0,0.0,-1.0));
#483=DIRECTION('',(0.0,1.0,0.0));
#484=DIRECTION('',(-2.57270242398492E-022,2.10084033612492E-006,-0.999999999997793));
#485=SURFACE_STYLE_FILL_AREA(#584);
#486=ORIENTED_EDGE('',*,*,#108,.T.);
#487=ORIENTED_EDGE('',*,*,#88,.F.);
#488=ORIENTED_EDGE('',*,*,#164,.T.);
#489=ORIENTED_EDGE('',*,*,#156,.T.);
#490=CARTESIAN_POINT('',(0.0,0.0,-80.99));
#491=DIRECTION('',(0.0,-0.0,-1.0));
#492=DIRECTION('',(0.0,1.0,0.0));
#493=CARTESIAN_POINT('',(0.0,0.0,0.00999999999999801));
#494=DIRECTION('',(0.0,0.0,-1.0));
#495=DIRECTION('',(0.0,1.0,0.0));
#496=SURFACE_STYLE_FILL_AREA(#585);
#497=ORIENTED_EDGE('',*,*,#140,.F.);
#498=ORIENTED_EDGE('',*,*,#146,.F.);
#499=ORIENTED_EDGE('',*,*,#94,.F.);
#500=CARTESIAN_POINT('',(0.0,0.0,-57.195));
#501=DIRECTION('',(-0.0,-0.0,1.0));
#502=DIRECTION('',(0.0,1.0,0.0));
#503=CARTESIAN_POINT('',(0.0,0.0,-1.181));
#504=DIRECTION('',(0.0,0.0,-1.0));
#505=DIRECTION('',(0.0,1.0,0.0));
#506=CARTESIAN_POINT('',(0.0,0.0,0.00999999999999801));
#507=DIRECTION('',(0.0,0.0,-1.0));
#508=DIRECTION('',(0.0,1.0,0.0));
#509=CARTESIAN_POINT('',(0.0,0.0,-57.19));
#510=DIRECTION('',(0.0,0.0,-1.0));
#511=DIRECTION('',(0.0,1.0,0.0));
#512=DIRECTION('',(-6.12303176911187E-017,0.499999999999999,-0.866025403784439));
#513=CARTESIAN_POINT('',(0.0,0.0,-1.181));
#514=DIRECTION('',(0.0,0.0,-1.0));
#515=DIRECTION('',(0.0,1.0,0.0));
#516=CARTESIAN_POINT('',(0.0,0.0,-57.19));
#517=DIRECTION('',(0.0,0.0,-1.0));
#518=DIRECTION('',(0.0,1.0,0.0));
#519=DIRECTION('',(1.22460589118755E-016,-0.999999622217522,0.000869232313044286));
#520=SURFACE_STYLE_FILL_AREA(#586);
#521=ORIENTED_EDGE('',*,*,#138,.F.);
#522=ORIENTED_EDGE('',*,*,#156,.F.);
#523=ORIENTED_EDGE('',*,*,#128,.T.);
#524=ORIENTED_EDGE('',*,*,#94,.T.);
#525=CARTESIAN_POINT('',(0.0,11.5069,-57.19));
#526=DIRECTION('',(-0.0,0.0,1.0));
#527=DIRECTION('',(0.0,-1.0,0.0));
#528=DIRECTION('',(-0.0,-0.0,1.0));
#529=DIRECTION('',(1.22460589118755E-016,-0.999999622217522,-0.000869232313044286));
#530=SURFACE_STYLE_FILL_AREA(#587);
#531=ORIENTED_EDGE('',*,*,#108,.F.);
#532=ORIENTED_EDGE('',*,*,#138,.T.);
#533=ORIENTED_EDGE('',*,*,#164,.F.);
#534=ORIENTED_EDGE('',*,*,#90,.F.);
#535=CARTESIAN_POINT('',(0.0,0.0,-80.99));
#536=DIRECTION('',(0.0,-0.0,-1.0));
#537=DIRECTION('',(0.0,1.0,0.0));
#538=SURFACE_STYLE_FILL_AREA(#588);
#539=ORIENTED_EDGE('',*,*,#132,.T.);
#540=ORIENTED_EDGE('',*,*,#134,.F.);
#541=ORIENTED_EDGE('',*,*,#102,.T.);
#542=ORIENTED_EDGE('',*,*,#126,.T.);
#543=CARTESIAN_POINT('',(0.0,0.0,-0.585500000000003));
#544=DIRECTION('',(0.0,-0.0,-1.0));
#545=DIRECTION('',(0.0,1.0,0.0));
#546=CARTESIAN_POINT('',(0.0,0.0,-57.19));
#547=DIRECTION('',(0.0,0.0,-1.0));
#548=DIRECTION('',(0.0,-1.0,0.0));
#549=SURFACE_STYLE_FILL_AREA(#589);
#550=ORIENTED_EDGE('',*,*,#160,.T.);
#551=ORIENTED_EDGE('',*,*,#152,.T.);
#552=CARTESIAN_POINT('',(0.0,0.0,-57.19));
#553=DIRECTION('',(0.0,0.0,-1.0));
#554=DIRECTION('',(0.0,-1.0,0.0));
#555=CARTESIAN_POINT('',(0.0,0.0,-57.19));
#556=DIRECTION('',(0.0,0.0,-1.0));
#557=DIRECTION('',(0.0,1.0,0.0));
#558=DIRECTION('',(0.0,0.0,-1.0));
#559=CARTESIAN_POINT('',(0.0,0.0,-57.19));
#560=DIRECTION('',(0.0,0.0,-1.0));
#561=DIRECTION('',(0.0,-1.0,0.0));
#562=SURFACE_STYLE_FILL_AREA(#590);
#563=ORIENTED_EDGE('',*,*,#140,.T.);
#564=ORIENTED_EDGE('',*,*,#128,.F.);
#565=ORIENTED_EDGE('',*,*,#146,.T.);
#566=CARTESIAN_POINT('',(0.0,0.0,-57.195));
#567=DIRECTION('',(-0.0,-0.0,1.0));
#568=DIRECTION('',(0.0,1.0,0.0));
#569=DIRECTION('',(-2.57270242398492E-022,2.10084033612492E-006,0.999999999997793));
#570=SURFACE_STYLE_FILL_AREA(#591);
#571=ORIENTED_EDGE('',*,*,#158,.F.);
#572=ORIENTED_EDGE('',*,*,#124,.T.);
#573=ORIENTED_EDGE('',*,*,#144,.F.);
#574=ORIENTED_EDGE('',*,*,#152,.F.);
#575=CARTESIAN_POINT('',(0.0,0.0,-17.676));
#576=DIRECTION('',(-0.0,-0.0,1.0));
#577=DIRECTION('',(0.0,1.0,0.0));
#578=FILL_AREA_STYLE('',(#592));
#579=FILL_AREA_STYLE('',(#593));
#580=FILL_AREA_STYLE('',(#594));
#581=FILL_AREA_STYLE('',(#595));
#582=FILL_AREA_STYLE('',(#596));
#583=FILL_AREA_STYLE('',(#597));
#584=FILL_AREA_STYLE('',(#598));
#585=FILL_AREA_STYLE('',(#599));
#586=FILL_AREA_STYLE('',(#600));
#587=FILL_AREA_STYLE('',(#601));
#588=FILL_AREA_STYLE('',(#602));
#589=FILL_AREA_STYLE('',(#603));
#590=FILL_AREA_STYLE('',(#604));
#591=FILL_AREA_STYLE('',(#605));
#592=FILL_AREA_STYLE_COLOUR('',#606);
#593=FILL_AREA_STYLE_COLOUR('',#607);
#594=FILL_AREA_STYLE_COLOUR('',#608);
#595=FILL_AREA_STYLE_COLOUR('',#609);
#596=FILL_AREA_STYLE_COLOUR('',#610);
#597=FILL_AREA_STYLE_COLOUR('',#611);
#598=FILL_AREA_STYLE_COLOUR('',#612);
#599=FILL_AREA_STYLE_COLOUR('',#613);
#600=FILL_AREA_STYLE_COLOUR('',#614);
#601=FILL_AREA_STYLE_COLOUR('',#615);
#602=FILL_AREA_STYLE_COLOUR('',#616);
#603=FILL_AREA_STYLE_COLOUR('',#617);
#604=FILL_AREA_STYLE_COLOUR('',#618);
#605=FILL_AREA_STYLE_COLOUR('',#619);
#606=COLOUR_RGB('',0.498039215803146,0.498039215803146,0.498039215803146);
#607=COLOUR_RGB('',0.498039215803146,0.498039215803146,0.498039215803146);
#608=COLOUR_RGB('',0.800000011920929,0.800000011920929,0.800000011920929);
#609=COLOUR_RGB('',0.498039215803146,0.498039215803146,0.498039215803146);
#610=COLOUR_RGB('',0.800000011920929,0.800000011920929,0.800000011920929);
#611=COLOUR_RGB('',0.800000011920929,0.800000011920929,0.800000011920929);
#612=COLOUR_RGB('',0.800000011920929,0.800000011920929,0.800000011920929);
#613=COLOUR_RGB('',0.800000011920929,0.800000011920929,0.800000011920929);
#614=COLOUR_RGB('',0.800000011920929,0.800000011920929,0.800000011920929);
#615=COLOUR_RGB('',0.800000011920929,0.800000011920929,0.800000011920929);
#616=COLOUR_RGB('',0.498039215803146,0.498039215803146,0.498039215803146);
#617=COLOUR_RGB('',0.498039215803146,0.498039215803146,0.498039215803146);
#618=COLOUR_RGB('',0.800000011920929,0.800000011920929,0.800000011920929);
#619=COLOUR_RGB('',0.498039215803146,0.498039215803146,0.498039215803146);
#620=AXIS2_PLACEMENT_3D('PCS',#621,#622,#623);
#621=CARTESIAN_POINT('',(0.0,0.0,0.0));
#622=DIRECTION('',(0.0,0.0,1.0));
#623=DIRECTION('',(1.0,0.0,0.0));
#624=AXIS2_PLACEMENT_3D('CIP',#625,#626,#627);
#625=CARTESIAN_POINT('',(0.0,0.0,-104.8));
#626=DIRECTION('',(0.0,0.0,1.0));
#627=DIRECTION('',(1.0,0.0,0.0));
#628=AXIS2_PLACEMENT_3D('CRP',#629,#630,#631);
#629=CARTESIAN_POINT('',(-11.5095,0.0,-104.8));
#630=DIRECTION('',(0.0,0.0,1.0));
#631=DIRECTION('',(1.0,0.0,0.0));
#632=AXIS2_PLACEMENT_3D('MCS',#633,#634,#635);
#633=CARTESIAN_POINT('',(0.0,0.0,-34.181));
#634=DIRECTION('',(0.0,0.0,1.0));
#635=DIRECTION('',(1.0,0.0,0.0));
#636=CONSTRUCTIVE_GEOMETRY_REPRESENTATION_RELATIONSHIP('coordinate systems',$,#65,#637);
#637=CONSTRUCTIVE_GEOMETRY_REPRESENTATION('coordinate systems',(#620,#624,#628,#632),#10);
ENDSEC;
END-ISO-10303-21;
