ISO-10303-21;
HEADER;
FILE_DESCRIPTION(('no description'),'unknown implementation level');
FILE_NAME('solid5FKv4qSO6Vm9mpBlde_GwRLzEsc_1.STP','  ',('CIMSOURCE GmbH'),('CADClick - KiM GmbH - www.kimweb.de'),'unknown preprocess','ACIS','unknown authorization');
FILE_SCHEMA(('automotive_design'));
ENDSEC;
DATA;
#1=MECHANICAL_DESIGN_GEOMETRIC_PRESENTATION_REPRESENTATION(' ',(#14,#15,#16,#17,#18,#19,#20,#21,#22,#23,#24,#25,#26,#27,#28,#29,#30,#31,#32,#33,#34,#35,#36,#37,#38,#39,#40,#41,#42,#43,#44,#45,#46,#47,#48,#49,#50,#51,#52,#53,#54,#55,#56,#57,#58,#59,#60),#10);
#2=PRODUCT_DEFINITION_CONTEXT('',#61,'design');
#3=APPLICATION_PROTOCOL_DEFINITION('INTERNATIONAL STANDARD','automotive_design',1994,#61);
#4=PRODUCT_CATEGORY_RELATIONSHIP('NONE','NONE',#62,#63);
#5=SHAPE_DEFINITION_REPRESENTATION(#64,#65);
#6=PRODUCT_DEFINITION_CONTEXT('',#66,'design');
#7=APPLICATION_PROTOCOL_DEFINITION('INTERNATIONAL STANDARD','automotive_design',1994,#66);
#8=PRODUCT_CATEGORY_RELATIONSHIP('NONE','NONE',#67,#68);
#9=SHAPE_DEFINITION_REPRESENTATION(#69,#70);
#10= (GEOMETRIC_REPRESENTATION_CONTEXT(3)GLOBAL_UNCERTAINTY_ASSIGNED_CONTEXT((#73))GLOBAL_UNIT_ASSIGNED_CONTEXT((#75,#76,#77))REPRESENTATION_CONTEXT('NONE','WORKSPACE'));
#14=STYLED_ITEM('',(#79),#80);
#15=STYLED_ITEM('',(#81),#82);
#16=STYLED_ITEM('',(#83),#84);
#17=STYLED_ITEM('',(#85),#86);
#18=STYLED_ITEM('',(#87),#88);
#19=STYLED_ITEM('',(#89),#90);
#20=STYLED_ITEM('',(#91),#92);
#21=STYLED_ITEM('',(#93),#94);
#22=STYLED_ITEM('',(#95),#96);
#23=STYLED_ITEM('',(#97),#98);
#24=STYLED_ITEM('',(#99),#100);
#25=STYLED_ITEM('',(#101),#102);
#26=STYLED_ITEM('',(#103),#104);
#27=STYLED_ITEM('',(#105),#106);
#28=STYLED_ITEM('',(#107),#108);
#29=STYLED_ITEM('',(#109),#110);
#30=STYLED_ITEM('',(#111),#112);
#31=STYLED_ITEM('',(#113),#114);
#32=STYLED_ITEM('',(#115),#116);
#33=STYLED_ITEM('',(#117),#118);
#34=STYLED_ITEM('',(#119),#120);
#35=STYLED_ITEM('',(#121),#122);
#36=STYLED_ITEM('',(#123),#124);
#37=STYLED_ITEM('',(#125),#126);
#38=STYLED_ITEM('',(#127),#128);
#39=STYLED_ITEM('',(#129),#130);
#40=STYLED_ITEM('',(#131),#132);
#41=STYLED_ITEM('',(#133),#134);
#42=STYLED_ITEM('',(#135),#136);
#43=STYLED_ITEM('',(#137),#138);
#44=STYLED_ITEM('',(#139),#140);
#45=STYLED_ITEM('',(#141),#142);
#46=STYLED_ITEM('',(#143),#144);
#47=STYLED_ITEM('',(#145),#146);
#48=STYLED_ITEM('',(#147),#148);
#49=STYLED_ITEM('',(#149),#150);
#50=STYLED_ITEM('',(#151),#152);
#51=STYLED_ITEM('',(#153),#154);
#52=STYLED_ITEM('',(#155),#156);
#53=STYLED_ITEM('',(#157),#158);
#54=STYLED_ITEM('',(#159),#160);
#55=STYLED_ITEM('',(#161),#162);
#56=STYLED_ITEM('',(#163),#164);
#57=STYLED_ITEM('',(#165),#166);
#58=STYLED_ITEM('',(#167),#168);
#59=STYLED_ITEM('',(#169),#170);
#60=STYLED_ITEM('',(#171),#172);
#61=APPLICATION_CONTEXT(' ');
#62=PRODUCT_CATEGORY('part','NONE');
#63=PRODUCT_RELATED_PRODUCT_CATEGORY('detail',' ',(#173));
#64=PRODUCT_DEFINITION_SHAPE('NONE','NONE',#174);
#65=ADVANCED_BREP_SHAPE_REPRESENTATION('1',(#134,#175),#10);
#66=APPLICATION_CONTEXT(' ');
#67=PRODUCT_CATEGORY('part','NONE');
#68=PRODUCT_RELATED_PRODUCT_CATEGORY('detail',' ',(#176));
#69=PRODUCT_DEFINITION_SHAPE('NONE','NONE',#177);
#70=ADVANCED_BREP_SHAPE_REPRESENTATION('2',(#144,#178),#10);
#73=UNCERTAINTY_MEASURE_WITH_UNIT(LENGTH_MEASURE(1.0E-006),#75,'','');
#75= (CONVERSION_BASED_UNIT('MILLIMETRE',#181)LENGTH_UNIT()NAMED_UNIT(#184));
#76= (NAMED_UNIT(#186)PLANE_ANGLE_UNIT()SI_UNIT($,.RADIAN.));
#77= (NAMED_UNIT(#186)SOLID_ANGLE_UNIT()SI_UNIT($,.STERADIAN.));
#79=PRESENTATION_STYLE_ASSIGNMENT((#192));
#80=VERTEX_POINT('',#193);
#81=PRESENTATION_STYLE_ASSIGNMENT((#194));
#82=EDGE_CURVE('',#90,#108,#195,.T.);
#83=PRESENTATION_STYLE_ASSIGNMENT((#196));
#84=VERTEX_POINT('',#197);
#85=PRESENTATION_STYLE_ASSIGNMENT((#198));
#86=VERTEX_POINT('',#199);
#87=PRESENTATION_STYLE_ASSIGNMENT((#200));
#88=VERTEX_POINT('',#201);
#89=PRESENTATION_STYLE_ASSIGNMENT((#202));
#90=VERTEX_POINT('',#203);
#91=PRESENTATION_STYLE_ASSIGNMENT((#204));
#92=EDGE_CURVE('',#124,#86,#205,.T.);
#93=PRESENTATION_STYLE_ASSIGNMENT((#206));
#94=EDGE_CURVE('',#86,#124,#207,.T.);
#95=PRESENTATION_STYLE_ASSIGNMENT((#208));
#96=EDGE_CURVE('',#102,#120,#209,.T.);
#97=PRESENTATION_STYLE_ASSIGNMENT((#210));
#98=EDGE_CURVE('',#116,#106,#211,.T.);
#99=PRESENTATION_STYLE_ASSIGNMENT((#212));
#100=ADVANCED_FACE('',(#213),#214,.T.);
#101=PRESENTATION_STYLE_ASSIGNMENT((#215));
#102=VERTEX_POINT('',#216);
#103=PRESENTATION_STYLE_ASSIGNMENT((#217));
#104=EDGE_CURVE('',#80,#88,#218,.T.);
#105=PRESENTATION_STYLE_ASSIGNMENT((#219));
#106=VERTEX_POINT('',#220);
#107=PRESENTATION_STYLE_ASSIGNMENT((#221));
#108=VERTEX_POINT('',#222);
#109=PRESENTATION_STYLE_ASSIGNMENT((#223));
#110=ADVANCED_FACE('',(#224),#225,.T.);
#111=PRESENTATION_STYLE_ASSIGNMENT((#226));
#112=EDGE_CURVE('',#88,#102,#227,.T.);
#113=PRESENTATION_STYLE_ASSIGNMENT((#228));
#114=EDGE_CURVE('',#168,#116,#229,.T.);
#115=PRESENTATION_STYLE_ASSIGNMENT((#230));
#116=VERTEX_POINT('',#231);
#117=PRESENTATION_STYLE_ASSIGNMENT((#232));
#118=EDGE_CURVE('',#124,#168,#233,.T.);
#119=PRESENTATION_STYLE_ASSIGNMENT((#234));
#120=VERTEX_POINT('',#235);
#121=PRESENTATION_STYLE_ASSIGNMENT((#236));
#122=EDGE_CURVE('',#128,#86,#237,.T.);
#123=PRESENTATION_STYLE_ASSIGNMENT((#238));
#124=VERTEX_POINT('',#239);
#125=PRESENTATION_STYLE_ASSIGNMENT((#240));
#126=EDGE_CURVE('',#80,#120,#241,.T.);
#127=PRESENTATION_STYLE_ASSIGNMENT((#242));
#128=VERTEX_POINT('',#243);
#129=PRESENTATION_STYLE_ASSIGNMENT((#244));
#130=ADVANCED_FACE('',(#245),#246,.F.);
#131=PRESENTATION_STYLE_ASSIGNMENT((#247));
#132=ADVANCED_FACE('',(#248),#249,.T.);
#133=PRESENTATION_STYLE_ASSIGNMENT((#250));
#134=MANIFOLD_SOLID_BREP('1',#251);
#135=PRESENTATION_STYLE_ASSIGNMENT((#252));
#136=ADVANCED_FACE('',(#253,#254),#255,.T.);
#137=PRESENTATION_STYLE_ASSIGNMENT((#256));
#138=EDGE_CURVE('',#102,#88,#257,.T.);
#139=PRESENTATION_STYLE_ASSIGNMENT((#258));
#140=EDGE_CURVE('',#120,#80,#259,.T.);
#141=PRESENTATION_STYLE_ASSIGNMENT((#260));
#142=EDGE_CURVE('',#84,#108,#261,.T.);
#143=PRESENTATION_STYLE_ASSIGNMENT((#262));
#144=MANIFOLD_SOLID_BREP('2',#263);
#145=PRESENTATION_STYLE_ASSIGNMENT((#264));
#146=ADVANCED_FACE('',(#265),#266,.T.);
#147=PRESENTATION_STYLE_ASSIGNMENT((#267));
#148=ADVANCED_FACE('',(#268),#269,.T.);
#149=PRESENTATION_STYLE_ASSIGNMENT((#270));
#150=EDGE_CURVE('',#168,#128,#271,.T.);
#151=PRESENTATION_STYLE_ASSIGNMENT((#272));
#152=EDGE_CURVE('',#108,#90,#273,.T.);
#153=PRESENTATION_STYLE_ASSIGNMENT((#274));
#154=EDGE_CURVE('',#106,#116,#275,.T.);
#155=PRESENTATION_STYLE_ASSIGNMENT((#276));
#156=EDGE_CURVE('',#106,#128,#277,.T.);
#157=PRESENTATION_STYLE_ASSIGNMENT((#278));
#158=ADVANCED_FACE('',(#279),#280,.T.);
#159=PRESENTATION_STYLE_ASSIGNMENT((#281));
#160=ADVANCED_FACE('',(#282),#283,.T.);
#161=PRESENTATION_STYLE_ASSIGNMENT((#284));
#162=ADVANCED_FACE('',(#285),#286,.T.);
#163=PRESENTATION_STYLE_ASSIGNMENT((#287));
#164=ADVANCED_FACE('',(#288),#289,.T.);
#165=PRESENTATION_STYLE_ASSIGNMENT((#290));
#166=EDGE_CURVE('',#90,#84,#291,.T.);
#167=PRESENTATION_STYLE_ASSIGNMENT((#292));
#168=VERTEX_POINT('',#293);
#169=PRESENTATION_STYLE_ASSIGNMENT((#294));
#170=ADVANCED_FACE('',(#295),#296,.F.);
#171=PRESENTATION_STYLE_ASSIGNMENT((#297));
#172=EDGE_CURVE('',#128,#168,#298,.T.);
#173=PRODUCT('1','1','PART-1-DESC',(#299));
#174=PRODUCT_DEFINITION('NONE','NONE',#300,#2);
#175=AXIS2_PLACEMENT_3D('',#301,#302,#303);
#176=PRODUCT('2','2','PART-2-DESC',(#304));
#177=PRODUCT_DEFINITION('NONE','NONE',#305,#6);
#178=AXIS2_PLACEMENT_3D('',#306,#307,#308);
#181=LENGTH_MEASURE_WITH_UNIT(LENGTH_MEASURE(1.0),#309);
#184=DIMENSIONAL_EXPONENTS(1.0,0.0,0.0,0.0,0.0,0.0,0.0);
#186=DIMENSIONAL_EXPONENTS(0.0,0.0,0.0,0.0,0.0,0.0,0.0);
#192=POINT_STYLE(' ',#310,POSITIVE_LENGTH_MEASURE(1.0E-006),#311);
#193=CARTESIAN_POINT('',(1.50663319710767E-015,-12.303,-104.79));
#194=CURVE_STYLE('',#312,POSITIVE_LENGTH_MEASURE(1.0E-006),#313);
#195=CIRCLE('',#314,12.2979);
#196=POINT_STYLE(' ',#315,POSITIVE_LENGTH_MEASURE(1.0E-006),#316);
#197=CARTESIAN_POINT('',(0.0,0.0,-57.2));
#198=POINT_STYLE(' ',#317,POSITIVE_LENGTH_MEASURE(1.0E-006),#318);
#199=CARTESIAN_POINT('',(1.08223065917936E-015,-8.83737582939516,0.0100000000000051));
#200=POINT_STYLE(' ',#319,POSITIVE_LENGTH_MEASURE(1.0E-006),#320);
#201=CARTESIAN_POINT('',(1.50662095104413E-015,-12.3029,-57.19));
#202=POINT_STYLE(' ',#321,POSITIVE_LENGTH_MEASURE(1.0E-006),#322);
#203=CARTESIAN_POINT('',(0.0,12.2979,-57.19));
#204=CURVE_STYLE('',#323,POSITIVE_LENGTH_MEASURE(1.0E-006),#324);
#205=CIRCLE('',#325,8.83737582939516);
#206=CURVE_STYLE('',#326,POSITIVE_LENGTH_MEASURE(1.0E-006),#327);
#207=CIRCLE('',#328,8.83737582939516);
#208=CURVE_STYLE('',#329,POSITIVE_LENGTH_MEASURE(1.0E-006),#330);
#209=LINE('',#331,#332);
#210=CURVE_STYLE('',#333,POSITIVE_LENGTH_MEASURE(1.0E-006),#334);
#211=CIRCLE('',#335,9.525);
#212=SURFACE_STYLE_USAGE(.BOTH.,#336);
#213=FACE_OUTER_BOUND('',#337,.T.);
#214=PLANE('',#338);
#215=POINT_STYLE(' ',#339,POSITIVE_LENGTH_MEASURE(1.0E-006),#340);
#216=CARTESIAN_POINT('',(0.0,12.3029,-57.19));
#217=CURVE_STYLE('',#341,POSITIVE_LENGTH_MEASURE(1.0E-006),#342);
#218=LINE('',#343,#344);
#219=POINT_STYLE(' ',#345,POSITIVE_LENGTH_MEASURE(1.0E-006),#346);
#220=CARTESIAN_POINT('',(0.0,-9.525,-57.19));
#221=POINT_STYLE(' ',#347,POSITIVE_LENGTH_MEASURE(1.0E-006),#348);
#222=CARTESIAN_POINT('',(1.50600864786722E-015,-12.2979,-57.19));
#223=SURFACE_STYLE_USAGE(.BOTH.,#349);
#224=FACE_OUTER_BOUND('',#350,.T.);
#225=CONICAL_SURFACE('',#351,9.18118791469758,0.523598775598299);
#226=CURVE_STYLE('',#352,POSITIVE_LENGTH_MEASURE(1.0E-006),#353);
#227=CIRCLE('',#354,12.3029);
#228=CURVE_STYLE('',#355,POSITIVE_LENGTH_MEASURE(1.0E-006),#356);
#229=LINE('',#357,#358);
#230=POINT_STYLE(' ',#359,POSITIVE_LENGTH_MEASURE(1.0E-006),#360);
#231=CARTESIAN_POINT('',(-1.16643755201581E-015,9.525,-57.19));
#232=CURVE_STYLE('',#361,POSITIVE_LENGTH_MEASURE(1.0E-006),#362);
#233=LINE('',#363,#364);
#234=POINT_STYLE(' ',#365,POSITIVE_LENGTH_MEASURE(1.0E-006),#366);
#235=CARTESIAN_POINT('',(0.0,12.303,-104.79));
#236=CURVE_STYLE('',#367,POSITIVE_LENGTH_MEASURE(1.0E-006),#368);
#237=LINE('',#369,#370);
#238=POINT_STYLE(' ',#371,POSITIVE_LENGTH_MEASURE(1.0E-006),#372);
#239=CARTESIAN_POINT('',(0.0,8.83737582939516,0.0100000000000051));
#240=CURVE_STYLE('',#373,POSITIVE_LENGTH_MEASURE(1.0E-006),#374);
#241=CIRCLE('',#375,12.303);
#242=POINT_STYLE(' ',#376,POSITIVE_LENGTH_MEASURE(1.0E-006),#377);
#243=CARTESIAN_POINT('',(1.16643755201581E-015,-9.525,-1.18099999999999));
#244=SURFACE_STYLE_USAGE(.BOTH.,#378);
#245=FACE_OUTER_BOUND('',#379,.T.);
#246=CONICAL_SURFACE('',#380,6.14895,1.56998318001407);
#247=SURFACE_STYLE_USAGE(.BOTH.,#381);
#248=FACE_OUTER_BOUND('',#382,.T.);
#249=CYLINDRICAL_SURFACE('',#383,9.525);
#250=SURFACE_STYLE_USAGE(.BOTH.,#384);
#251=CLOSED_SHELL('',(#164,#130,#170,#136,#146,#100));
#252=SURFACE_STYLE_USAGE(.BOTH.,#385);
#253=FACE_OUTER_BOUND('',#386,.T.);
#254=FACE_BOUND('',#387,.T.);
#255=PLANE('',#388);
#256=CURVE_STYLE('',#389,POSITIVE_LENGTH_MEASURE(1.0E-006),#390);
#257=CIRCLE('',#391,12.3029);
#258=CURVE_STYLE('',#392,POSITIVE_LENGTH_MEASURE(1.0E-006),#393);
#259=CIRCLE('',#394,12.303);
#260=CURVE_STYLE('',#395,POSITIVE_LENGTH_MEASURE(1.0E-006),#396);
#261=LINE('',#397,#398);
#262=SURFACE_STYLE_USAGE(.BOTH.,#399);
#263=CLOSED_SHELL('',(#132,#148,#158,#160,#110,#162));
#264=SURFACE_STYLE_USAGE(.BOTH.,#400);
#265=FACE_OUTER_BOUND('',#401,.T.);
#266=CONICAL_SURFACE('',#402,12.30295,2.10084033612647E-006);
#267=SURFACE_STYLE_USAGE(.BOTH.,#403);
#268=FACE_OUTER_BOUND('',#404,.T.);
#269=CONICAL_SURFACE('',#405,9.18118791469758,0.523598775598299);
#270=CURVE_STYLE('',#406,POSITIVE_LENGTH_MEASURE(1.0E-006),#407);
#271=CIRCLE('',#408,9.525);
#272=CURVE_STYLE('',#409,POSITIVE_LENGTH_MEASURE(1.0E-006),#410);
#273=CIRCLE('',#411,12.2979);
#274=CURVE_STYLE('',#412,POSITIVE_LENGTH_MEASURE(1.0E-006),#413);
#275=CIRCLE('',#414,9.525);
#276=CURVE_STYLE('',#415,POSITIVE_LENGTH_MEASURE(1.0E-006),#416);
#277=LINE('',#417,#418);
#278=SURFACE_STYLE_USAGE(.BOTH.,#419);
#279=FACE_OUTER_BOUND('',#420,.T.);
#280=PLANE('',#421);
#281=SURFACE_STYLE_USAGE(.BOTH.,#422);
#282=FACE_OUTER_BOUND('',#423,.T.);
#283=PLANE('',#424);
#284=SURFACE_STYLE_USAGE(.BOTH.,#425);
#285=FACE_OUTER_BOUND('',#426,.T.);
#286=CYLINDRICAL_SURFACE('',#427,9.525);
#287=SURFACE_STYLE_USAGE(.BOTH.,#428);
#288=FACE_OUTER_BOUND('',#429,.T.);
#289=CONICAL_SURFACE('',#430,12.30295,2.10084033612647E-006);
#290=CURVE_STYLE('',#431,POSITIVE_LENGTH_MEASURE(1.0E-006),#432);
#291=LINE('',#433,#434);
#292=POINT_STYLE(' ',#435,POSITIVE_LENGTH_MEASURE(1.0E-006),#436);
#293=CARTESIAN_POINT('',(0.0,9.525,-1.18099999999999));
#294=SURFACE_STYLE_USAGE(.BOTH.,#437);
#295=FACE_OUTER_BOUND('',#438,.T.);
#296=CONICAL_SURFACE('',#439,6.14895,1.56998318001407);
#297=CURVE_STYLE('',#440,POSITIVE_LENGTH_MEASURE(1.0E-006),#441);
#298=CIRCLE('',#442,9.525);
#299=PRODUCT_CONTEXT('',#61,'mechanical');
#300=PRODUCT_DEFINITION_FORMATION_WITH_SPECIFIED_SOURCE(' ','NONE',#173,.NOT_KNOWN.);
#301=CARTESIAN_POINT('',(0.0,0.0,0.0));
#302=DIRECTION('',(0.0,0.0,1.0));
#303=DIRECTION('',(1.0,0.0,0.0));
#304=PRODUCT_CONTEXT('',#66,'mechanical');
#305=PRODUCT_DEFINITION_FORMATION_WITH_SPECIFIED_SOURCE(' ','NONE',#176,.NOT_KNOWN.);
#306=CARTESIAN_POINT('',(0.0,0.0,0.0));
#307=DIRECTION('',(0.0,0.0,1.0));
#308=DIRECTION('',(1.0,0.0,0.0));
#309= (NAMED_UNIT(#184)LENGTH_UNIT()SI_UNIT(.MILLI.,.METRE.));
#310=PRE_DEFINED_MARKER('');
#311=COLOUR_RGB('',0.800000011920929,0.800000011920929,0.800000011920929);
#312=DRAUGHTING_PRE_DEFINED_CURVE_FONT('continuous');
#313=COLOUR_RGB('',0.800000011920929,0.800000011920929,0.800000011920929);
#314=AXIS2_PLACEMENT_3D('',#444,#445,#446);
#315=PRE_DEFINED_MARKER('');
#316=COLOUR_RGB('',0.800000011920929,0.800000011920929,0.800000011920929);
#317=PRE_DEFINED_MARKER('');
#318=COLOUR_RGB('',0.498039215803146,0.498039215803146,0.498039215803146);
#319=PRE_DEFINED_MARKER('');
#320=COLOUR_RGB('',0.800000011920929,0.800000011920929,0.800000011920929);
#321=PRE_DEFINED_MARKER('');
#322=COLOUR_RGB('',0.800000011920929,0.800000011920929,0.800000011920929);
#323=DRAUGHTING_PRE_DEFINED_CURVE_FONT('continuous');
#324=COLOUR_RGB('',0.498039215803146,0.498039215803146,0.498039215803146);
#325=AXIS2_PLACEMENT_3D('',#447,#448,#449);
#326=DRAUGHTING_PRE_DEFINED_CURVE_FONT('continuous');
#327=COLOUR_RGB('',0.498039215803146,0.498039215803146,0.498039215803146);
#328=AXIS2_PLACEMENT_3D('',#450,#451,#452);
#329=DRAUGHTING_PRE_DEFINED_CURVE_FONT('continuous');
#330=COLOUR_RGB('',0.800000011920929,0.800000011920929,0.800000011920929);
#331=CARTESIAN_POINT('',(-1.5066270740759E-015,12.30295,-80.99));
#332=VECTOR('',#453,1.0);
#333=DRAUGHTING_PRE_DEFINED_CURVE_FONT('continuous');
#334=COLOUR_RGB('',0.498039215803146,0.498039215803146,0.498039215803146);
#335=AXIS2_PLACEMENT_3D('',#454,#455,#456);
#336=SURFACE_SIDE_STYLE('',(#457));
#337=EDGE_LOOP('',(#458,#459));
#338=AXIS2_PLACEMENT_3D('',#460,#461,#462);
#339=PRE_DEFINED_MARKER('');
#340=COLOUR_RGB('',0.800000011920929,0.800000011920929,0.800000011920929);
#341=DRAUGHTING_PRE_DEFINED_CURVE_FONT('continuous');
#342=COLOUR_RGB('',0.800000011920929,0.800000011920929,0.800000011920929);
#343=CARTESIAN_POINT('',(1.5066270740759E-015,-12.30295,-80.99));
#344=VECTOR('',#463,1.0);
#345=PRE_DEFINED_MARKER('');
#346=COLOUR_RGB('',0.498039215803146,0.498039215803146,0.498039215803146);
#347=PRE_DEFINED_MARKER('');
#348=COLOUR_RGB('',0.800000011920929,0.800000011920929,0.800000011920929);
#349=SURFACE_SIDE_STYLE('',(#464));
#350=EDGE_LOOP('',(#465,#466,#467,#468));
#351=AXIS2_PLACEMENT_3D('',#469,#470,#471);
#352=DRAUGHTING_PRE_DEFINED_CURVE_FONT('continuous');
#353=COLOUR_RGB('',0.800000011920929,0.800000011920929,0.800000011920929);
#354=AXIS2_PLACEMENT_3D('',#472,#473,#474);
#355=DRAUGHTING_PRE_DEFINED_CURVE_FONT('continuous');
#356=COLOUR_RGB('',0.498039215803146,0.498039215803146,0.498039215803146);
#357=CARTESIAN_POINT('',(-1.16643755201581E-015,9.525,-16.8825));
#358=VECTOR('',#475,1.0);
#359=PRE_DEFINED_MARKER('');
#360=COLOUR_RGB('',0.498039215803146,0.498039215803146,0.498039215803146);
#361=DRAUGHTING_PRE_DEFINED_CURVE_FONT('continuous');
#362=COLOUR_RGB('',0.498039215803146,0.498039215803146,0.498039215803146);
#363=CARTESIAN_POINT('',(-1.12433410559759E-015,9.18118791469758,-0.585499999999996));
#364=VECTOR('',#476,1.0);
#365=PRE_DEFINED_MARKER('');
#366=COLOUR_RGB('',0.800000011920929,0.800000011920929,0.800000011920929);
#367=DRAUGHTING_PRE_DEFINED_CURVE_FONT('continuous');
#368=COLOUR_RGB('',0.498039215803146,0.498039215803146,0.498039215803146);
#369=CARTESIAN_POINT('',(1.12433410559759E-015,-9.18118791469758,-0.585499999999996));
#370=VECTOR('',#477,1.0);
#371=PRE_DEFINED_MARKER('');
#372=COLOUR_RGB('',0.498039215803146,0.498039215803146,0.498039215803146);
#373=DRAUGHTING_PRE_DEFINED_CURVE_FONT('continuous');
#374=COLOUR_RGB('',0.800000011920929,0.800000011920929,0.800000011920929);
#375=AXIS2_PLACEMENT_3D('',#478,#479,#480);
#376=PRE_DEFINED_MARKER('');
#377=COLOUR_RGB('',0.498039215803146,0.498039215803146,0.498039215803146);
#378=SURFACE_SIDE_STYLE('',(#481));
#379=EDGE_LOOP('',(#482,#483,#484));
#380=AXIS2_PLACEMENT_3D('',#485,#486,#487);
#381=SURFACE_SIDE_STYLE('',(#488));
#382=EDGE_LOOP('',(#489,#490,#491,#492));
#383=AXIS2_PLACEMENT_3D('',#493,#494,#495);
#384=SURFACE_SIDE_STYLE('',(#496));
#385=SURFACE_SIDE_STYLE('',(#497));
#386=EDGE_LOOP('',(#498,#499));
#387=EDGE_LOOP('',(#500,#501));
#388=AXIS2_PLACEMENT_3D('',#502,#503,#504);
#389=DRAUGHTING_PRE_DEFINED_CURVE_FONT('continuous');
#390=COLOUR_RGB('',0.800000011920929,0.800000011920929,0.800000011920929);
#391=AXIS2_PLACEMENT_3D('',#505,#506,#507);
#392=DRAUGHTING_PRE_DEFINED_CURVE_FONT('continuous');
#393=COLOUR_RGB('',0.800000011920929,0.800000011920929,0.800000011920929);
#394=AXIS2_PLACEMENT_3D('',#508,#509,#510);
#395=DRAUGHTING_PRE_DEFINED_CURVE_FONT('continuous');
#396=COLOUR_RGB('',0.800000011920929,0.800000011920929,0.800000011920929);
#397=CARTESIAN_POINT('',(7.53004323933611E-016,-6.14895,-57.195));
#398=VECTOR('',#511,1.0);
#399=SURFACE_SIDE_STYLE('',(#512));
#400=SURFACE_SIDE_STYLE('',(#513));
#401=EDGE_LOOP('',(#514,#515,#516,#517));
#402=AXIS2_PLACEMENT_3D('',#518,#519,#520);
#403=SURFACE_SIDE_STYLE('',(#521));
#404=EDGE_LOOP('',(#522,#523,#524,#525));
#405=AXIS2_PLACEMENT_3D('',#526,#527,#528);
#406=DRAUGHTING_PRE_DEFINED_CURVE_FONT('continuous');
#407=COLOUR_RGB('',0.498039215803146,0.498039215803146,0.498039215803146);
#408=AXIS2_PLACEMENT_3D('',#529,#530,#531);
#409=DRAUGHTING_PRE_DEFINED_CURVE_FONT('continuous');
#410=COLOUR_RGB('',0.800000011920929,0.800000011920929,0.800000011920929);
#411=AXIS2_PLACEMENT_3D('',#532,#533,#534);
#412=DRAUGHTING_PRE_DEFINED_CURVE_FONT('continuous');
#413=COLOUR_RGB('',0.498039215803146,0.498039215803146,0.498039215803146);
#414=AXIS2_PLACEMENT_3D('',#535,#536,#537);
#415=DRAUGHTING_PRE_DEFINED_CURVE_FONT('continuous');
#416=COLOUR_RGB('',0.498039215803146,0.498039215803146,0.498039215803146);
#417=CARTESIAN_POINT('',(1.16643755201581E-015,-9.525,-16.8825));
#418=VECTOR('',#538,1.0);
#419=SURFACE_SIDE_STYLE('',(#539));
#420=EDGE_LOOP('',(#540,#541));
#421=AXIS2_PLACEMENT_3D('',#542,#543,#544);
#422=SURFACE_SIDE_STYLE('',(#545));
#423=EDGE_LOOP('',(#546,#547));
#424=AXIS2_PLACEMENT_3D('',#548,#549,#550);
#425=SURFACE_SIDE_STYLE('',(#551));
#426=EDGE_LOOP('',(#552,#553,#554,#555));
#427=AXIS2_PLACEMENT_3D('',#556,#557,#558);
#428=SURFACE_SIDE_STYLE('',(#559));
#429=EDGE_LOOP('',(#560,#561,#562,#563));
#430=AXIS2_PLACEMENT_3D('',#564,#565,#566);
#431=DRAUGHTING_PRE_DEFINED_CURVE_FONT('continuous');
#432=COLOUR_RGB('',0.800000011920929,0.800000011920929,0.800000011920929);
#433=CARTESIAN_POINT('',(-7.53004323933611E-016,6.14895,-57.195));
#434=VECTOR('',#567,1.0);
#435=PRE_DEFINED_MARKER('');
#436=COLOUR_RGB('',0.498039215803146,0.498039215803146,0.498039215803146);
#437=SURFACE_SIDE_STYLE('',(#568));
#438=EDGE_LOOP('',(#569,#570,#571));
#439=AXIS2_PLACEMENT_3D('',#572,#573,#574);
#440=DRAUGHTING_PRE_DEFINED_CURVE_FONT('continuous');
#441=COLOUR_RGB('',0.498039215803146,0.498039215803146,0.498039215803146);
#442=AXIS2_PLACEMENT_3D('',#575,#576,#577);
#444=CARTESIAN_POINT('',(0.0,0.0,-57.19));
#445=DIRECTION('',(0.0,0.0,-1.0));
#446=DIRECTION('',(0.0,1.0,0.0));
#447=CARTESIAN_POINT('',(0.0,0.0,0.0100000000000051));
#448=DIRECTION('',(0.0,0.0,-1.0));
#449=DIRECTION('',(0.0,1.0,0.0));
#450=CARTESIAN_POINT('',(0.0,0.0,0.0100000000000051));
#451=DIRECTION('',(0.0,0.0,-1.0));
#452=DIRECTION('',(0.0,1.0,0.0));
#453=DIRECTION('',(-2.57270242398492E-022,2.10084033612492E-006,-0.999999999997793));
#454=CARTESIAN_POINT('',(0.0,0.0,-57.19));
#455=DIRECTION('',(0.0,0.0,-1.0));
#456=DIRECTION('',(0.0,-1.0,0.0));
#457=SURFACE_STYLE_FILL_AREA(#578);
#458=ORIENTED_EDGE('',*,*,#140,.T.);
#459=ORIENTED_EDGE('',*,*,#126,.T.);
#460=CARTESIAN_POINT('',(0.0,6.149,-104.79));
#461=DIRECTION('',(0.0,0.0,-1.0));
#462=DIRECTION('',(0.0,1.0,0.0));
#463=DIRECTION('',(-2.57270242398492E-022,2.10084033612492E-006,0.999999999997793));
#464=SURFACE_STYLE_FILL_AREA(#579);
#465=ORIENTED_EDGE('',*,*,#118,.T.);
#466=ORIENTED_EDGE('',*,*,#172,.F.);
#467=ORIENTED_EDGE('',*,*,#122,.T.);
#468=ORIENTED_EDGE('',*,*,#94,.T.);
#469=CARTESIAN_POINT('',(0.0,0.0,-0.585499999999996));
#470=DIRECTION('',(0.0,-0.0,-1.0));
#471=DIRECTION('',(0.0,1.0,0.0));
#472=CARTESIAN_POINT('',(0.0,0.0,-57.19));
#473=DIRECTION('',(0.0,0.0,-1.0));
#474=DIRECTION('',(0.0,1.0,0.0));
#475=DIRECTION('',(0.0,0.0,-1.0));
#476=DIRECTION('',(-6.12303176911189E-017,0.5,-0.866025403784439));
#477=DIRECTION('',(-6.12303176911189E-017,0.5,0.866025403784439));
#478=CARTESIAN_POINT('',(0.0,0.0,-104.79));
#479=DIRECTION('',(0.0,0.0,-1.0));
#480=DIRECTION('',(0.0,1.0,0.0));
#481=SURFACE_STYLE_FILL_AREA(#580);
#482=ORIENTED_EDGE('',*,*,#142,.F.);
#483=ORIENTED_EDGE('',*,*,#166,.F.);
#484=ORIENTED_EDGE('',*,*,#152,.F.);
#485=CARTESIAN_POINT('',(0.0,0.0,-57.195));
#486=DIRECTION('',(-0.0,-0.0,1.0));
#487=DIRECTION('',(0.0,1.0,0.0));
#488=SURFACE_STYLE_FILL_AREA(#581);
#489=ORIENTED_EDGE('',*,*,#114,.F.);
#490=ORIENTED_EDGE('',*,*,#150,.T.);
#491=ORIENTED_EDGE('',*,*,#156,.F.);
#492=ORIENTED_EDGE('',*,*,#98,.F.);
#493=CARTESIAN_POINT('',(0.0,0.0,-16.8825));
#494=DIRECTION('',(-0.0,-0.0,1.0));
#495=DIRECTION('',(0.0,1.0,0.0));
#496=SURFACE_STYLE_FILL_AREA(#582);
#497=SURFACE_STYLE_FILL_AREA(#583);
#498=ORIENTED_EDGE('',*,*,#138,.F.);
#499=ORIENTED_EDGE('',*,*,#112,.F.);
#500=ORIENTED_EDGE('',*,*,#82,.T.);
#501=ORIENTED_EDGE('',*,*,#152,.T.);
#502=CARTESIAN_POINT('',(0.0,12.3004,-57.19));
#503=DIRECTION('',(-0.0,0.0,1.0));
#504=DIRECTION('',(0.0,-1.0,0.0));
#505=CARTESIAN_POINT('',(0.0,0.0,-57.19));
#506=DIRECTION('',(0.0,0.0,-1.0));
#507=DIRECTION('',(0.0,1.0,0.0));
#508=CARTESIAN_POINT('',(0.0,0.0,-104.79));
#509=DIRECTION('',(0.0,0.0,-1.0));
#510=DIRECTION('',(0.0,1.0,0.0));
#511=DIRECTION('',(1.22460594896283E-016,-0.999999669396175,0.000813146691221512));
#512=SURFACE_STYLE_FILL_AREA(#584);
#513=SURFACE_STYLE_FILL_AREA(#585);
#514=ORIENTED_EDGE('',*,*,#96,.T.);
#515=ORIENTED_EDGE('',*,*,#126,.F.);
#516=ORIENTED_EDGE('',*,*,#104,.T.);
#517=ORIENTED_EDGE('',*,*,#112,.T.);
#518=CARTESIAN_POINT('',(0.0,0.0,-80.99));
#519=DIRECTION('',(0.0,-0.0,-1.0));
#520=DIRECTION('',(0.0,1.0,0.0));
#521=SURFACE_STYLE_FILL_AREA(#586);
#522=ORIENTED_EDGE('',*,*,#118,.F.);
#523=ORIENTED_EDGE('',*,*,#92,.T.);
#524=ORIENTED_EDGE('',*,*,#122,.F.);
#525=ORIENTED_EDGE('',*,*,#150,.F.);
#526=CARTESIAN_POINT('',(0.0,0.0,-0.585499999999996));
#527=DIRECTION('',(0.0,-0.0,-1.0));
#528=DIRECTION('',(0.0,1.0,0.0));
#529=CARTESIAN_POINT('',(0.0,0.0,-1.18099999999999));
#530=DIRECTION('',(0.0,0.0,-1.0));
#531=DIRECTION('',(0.0,1.0,0.0));
#532=CARTESIAN_POINT('',(0.0,0.0,-57.19));
#533=DIRECTION('',(0.0,0.0,-1.0));
#534=DIRECTION('',(0.0,1.0,0.0));
#535=CARTESIAN_POINT('',(0.0,0.0,-57.19));
#536=DIRECTION('',(0.0,0.0,-1.0));
#537=DIRECTION('',(0.0,-1.0,0.0));
#538=DIRECTION('',(-0.0,-0.0,1.0));
#539=SURFACE_STYLE_FILL_AREA(#587);
#540=ORIENTED_EDGE('',*,*,#154,.T.);
#541=ORIENTED_EDGE('',*,*,#98,.T.);
#542=CARTESIAN_POINT('',(0.0,0.0,-57.19));
#543=DIRECTION('',(0.0,0.0,-1.0));
#544=DIRECTION('',(0.0,-1.0,0.0));
#545=SURFACE_STYLE_FILL_AREA(#588);
#546=ORIENTED_EDGE('',*,*,#92,.F.);
#547=ORIENTED_EDGE('',*,*,#94,.F.);
#548=CARTESIAN_POINT('',(0.0,4.41868791469758,0.0100000000000051));
#549=DIRECTION('',(-0.0,0.0,1.0));
#550=DIRECTION('',(0.0,-1.0,0.0));
#551=SURFACE_STYLE_FILL_AREA(#589);
#552=ORIENTED_EDGE('',*,*,#114,.T.);
#553=ORIENTED_EDGE('',*,*,#154,.F.);
#554=ORIENTED_EDGE('',*,*,#156,.T.);
#555=ORIENTED_EDGE('',*,*,#172,.T.);
#556=CARTESIAN_POINT('',(0.0,0.0,-16.8825));
#557=DIRECTION('',(-0.0,-0.0,1.0));
#558=DIRECTION('',(0.0,1.0,0.0));
#559=SURFACE_STYLE_FILL_AREA(#590);
#560=ORIENTED_EDGE('',*,*,#96,.F.);
#561=ORIENTED_EDGE('',*,*,#138,.T.);
#562=ORIENTED_EDGE('',*,*,#104,.F.);
#563=ORIENTED_EDGE('',*,*,#140,.F.);
#564=CARTESIAN_POINT('',(0.0,0.0,-80.99));
#565=DIRECTION('',(0.0,-0.0,-1.0));
#566=DIRECTION('',(0.0,1.0,0.0));
#567=DIRECTION('',(1.22460594896283E-016,-0.999999669396175,-0.000813146691221512));
#568=SURFACE_STYLE_FILL_AREA(#591);
#569=ORIENTED_EDGE('',*,*,#142,.T.);
#570=ORIENTED_EDGE('',*,*,#82,.F.);
#571=ORIENTED_EDGE('',*,*,#166,.T.);
#572=CARTESIAN_POINT('',(0.0,0.0,-57.195));
#573=DIRECTION('',(-0.0,-0.0,1.0));
#574=DIRECTION('',(0.0,1.0,0.0));
#575=CARTESIAN_POINT('',(0.0,0.0,-1.18099999999999));
#576=DIRECTION('',(0.0,0.0,-1.0));
#577=DIRECTION('',(0.0,1.0,0.0));
#578=FILL_AREA_STYLE('',(#592));
#579=FILL_AREA_STYLE('',(#593));
#580=FILL_AREA_STYLE('',(#594));
#581=FILL_AREA_STYLE('',(#595));
#582=FILL_AREA_STYLE('',(#596));
#583=FILL_AREA_STYLE('',(#597));
#584=FILL_AREA_STYLE('',(#598));
#585=FILL_AREA_STYLE('',(#599));
#586=FILL_AREA_STYLE('',(#600));
#587=FILL_AREA_STYLE('',(#601));
#588=FILL_AREA_STYLE('',(#602));
#589=FILL_AREA_STYLE('',(#603));
#590=FILL_AREA_STYLE('',(#604));
#591=FILL_AREA_STYLE('',(#605));
#592=FILL_AREA_STYLE_COLOUR('',#606);
#593=FILL_AREA_STYLE_COLOUR('',#607);
#594=FILL_AREA_STYLE_COLOUR('',#608);
#595=FILL_AREA_STYLE_COLOUR('',#609);
#596=FILL_AREA_STYLE_COLOUR('',#610);
#597=FILL_AREA_STYLE_COLOUR('',#611);
#598=FILL_AREA_STYLE_COLOUR('',#612);
#599=FILL_AREA_STYLE_COLOUR('',#613);
#600=FILL_AREA_STYLE_COLOUR('',#614);
#601=FILL_AREA_STYLE_COLOUR('',#615);
#602=FILL_AREA_STYLE_COLOUR('',#616);
#603=FILL_AREA_STYLE_COLOUR('',#617);
#604=FILL_AREA_STYLE_COLOUR('',#618);
#605=FILL_AREA_STYLE_COLOUR('',#619);
#606=COLOUR_RGB('',0.800000011920929,0.800000011920929,0.800000011920929);
#607=COLOUR_RGB('',0.498039215803146,0.498039215803146,0.498039215803146);
#608=COLOUR_RGB('',0.800000011920929,0.800000011920929,0.800000011920929);
#609=COLOUR_RGB('',0.498039215803146,0.498039215803146,0.498039215803146);
#610=COLOUR_RGB('',0.800000011920929,0.800000011920929,0.800000011920929);
#611=COLOUR_RGB('',0.800000011920929,0.800000011920929,0.800000011920929);
#612=COLOUR_RGB('',0.800000011920929,0.800000011920929,0.800000011920929);
#613=COLOUR_RGB('',0.800000011920929,0.800000011920929,0.800000011920929);
#614=COLOUR_RGB('',0.498039215803146,0.498039215803146,0.498039215803146);
#615=COLOUR_RGB('',0.498039215803146,0.498039215803146,0.498039215803146);
#616=COLOUR_RGB('',0.498039215803146,0.498039215803146,0.498039215803146);
#617=COLOUR_RGB('',0.498039215803146,0.498039215803146,0.498039215803146);
#618=COLOUR_RGB('',0.800000011920929,0.800000011920929,0.800000011920929);
#619=COLOUR_RGB('',0.800000011920929,0.800000011920929,0.800000011920929);
#620=AXIS2_PLACEMENT_3D('PCS',#621,#622,#623);
#621=CARTESIAN_POINT('',(0.0,0.0,0.0));
#622=DIRECTION('',(0.0,0.0,1.0));
#623=DIRECTION('',(1.0,0.0,0.0));
#624=AXIS2_PLACEMENT_3D('CIP',#625,#626,#627);
#625=CARTESIAN_POINT('',(0.0,0.0,-104.8));
#626=DIRECTION('',(0.0,0.0,1.0));
#627=DIRECTION('',(1.0,0.0,0.0));
#628=AXIS2_PLACEMENT_3D('CRP',#629,#630,#631);
#629=CARTESIAN_POINT('',(-12.303,0.0,-104.8));
#630=DIRECTION('',(0.0,0.0,1.0));
#631=DIRECTION('',(1.0,0.0,0.0));
#632=AXIS2_PLACEMENT_3D('MCS',#633,#634,#635);
#633=CARTESIAN_POINT('',(0.0,0.0,-32.594));
#634=DIRECTION('',(0.0,0.0,1.0));
#635=DIRECTION('',(1.0,0.0,0.0));
#636=CONSTRUCTIVE_GEOMETRY_REPRESENTATION_RELATIONSHIP('coordinate systems',$,#65,#637);
#637=CONSTRUCTIVE_GEOMETRY_REPRESENTATION('coordinate systems',(#620,#624,#628,#632),#10);
ENDSEC;
END-ISO-10303-21;
