ISO-10303-21;
HEADER;
FILE_DESCRIPTION(('no description'),'unknown implementation level');
FILE_NAME('solidSvHapAreQrqjvKW0zOhbi_rniLY_1.STP','  ',('CIMSOURCE GmbH'),('CADClick - KiM GmbH - www.kimweb.de'),'unknown preprocess','ACIS','unknown authorization');
FILE_SCHEMA(('automotive_design'));
ENDSEC;
DATA;
#1=MECHANICAL_DESIGN_GEOMETRIC_PRESENTATION_REPRESENTATION(' ',(#14,#15,#16,#17,#18,#19,#20,#21,#22,#23,#24,#25,#26,#27,#28,#29,#30,#31,#32,#33,#34,#35,#36,#37,#38,#39,#40,#41,#42,#43,#44,#45,#46,#47,#48,#49,#50,#51,#52,#53,#54,#55,#56,#57,#58,#59,#60),#10);
#2=PRODUCT_DEFINITION_CONTEXT('',#61,'design');
#3=APPLICATION_PROTOCOL_DEFINITION('INTERNATIONAL STANDARD','automotive_design',1994,#61);
#4=PRODUCT_CATEGORY_RELATIONSHIP('NONE','NONE',#62,#63);
#5=SHAPE_DEFINITION_REPRESENTATION(#64,#65);
#6=PRODUCT_DEFINITION_CONTEXT('',#66,'design');
#7=APPLICATION_PROTOCOL_DEFINITION('INTERNATIONAL STANDARD','automotive_design',1994,#66);
#8=PRODUCT_CATEGORY_RELATIONSHIP('NONE','NONE',#67,#68);
#9=SHAPE_DEFINITION_REPRESENTATION(#69,#70);
#10= (GEOMETRIC_REPRESENTATION_CONTEXT(3)GLOBAL_UNCERTAINTY_ASSIGNED_CONTEXT((#73))GLOBAL_UNIT_ASSIGNED_CONTEXT((#75,#76,#77))REPRESENTATION_CONTEXT('NONE','WORKSPACE'));
#14=STYLED_ITEM('',(#79),#80);
#15=STYLED_ITEM('',(#81),#82);
#16=STYLED_ITEM('',(#83),#84);
#17=STYLED_ITEM('',(#85),#86);
#18=STYLED_ITEM('',(#87),#88);
#19=STYLED_ITEM('',(#89),#90);
#20=STYLED_ITEM('',(#91),#92);
#21=STYLED_ITEM('',(#93),#94);
#22=STYLED_ITEM('',(#95),#96);
#23=STYLED_ITEM('',(#97),#98);
#24=STYLED_ITEM('',(#99),#100);
#25=STYLED_ITEM('',(#101),#102);
#26=STYLED_ITEM('',(#103),#104);
#27=STYLED_ITEM('',(#105),#106);
#28=STYLED_ITEM('',(#107),#108);
#29=STYLED_ITEM('',(#109),#110);
#30=STYLED_ITEM('',(#111),#112);
#31=STYLED_ITEM('',(#113),#114);
#32=STYLED_ITEM('',(#115),#116);
#33=STYLED_ITEM('',(#117),#118);
#34=STYLED_ITEM('',(#119),#120);
#35=STYLED_ITEM('',(#121),#122);
#36=STYLED_ITEM('',(#123),#124);
#37=STYLED_ITEM('',(#125),#126);
#38=STYLED_ITEM('',(#127),#128);
#39=STYLED_ITEM('',(#129),#130);
#40=STYLED_ITEM('',(#131),#132);
#41=STYLED_ITEM('',(#133),#134);
#42=STYLED_ITEM('',(#135),#136);
#43=STYLED_ITEM('',(#137),#138);
#44=STYLED_ITEM('',(#139),#140);
#45=STYLED_ITEM('',(#141),#142);
#46=STYLED_ITEM('',(#143),#144);
#47=STYLED_ITEM('',(#145),#146);
#48=STYLED_ITEM('',(#147),#148);
#49=STYLED_ITEM('',(#149),#150);
#50=STYLED_ITEM('',(#151),#152);
#51=STYLED_ITEM('',(#153),#154);
#52=STYLED_ITEM('',(#155),#156);
#53=STYLED_ITEM('',(#157),#158);
#54=STYLED_ITEM('',(#159),#160);
#55=STYLED_ITEM('',(#161),#162);
#56=STYLED_ITEM('',(#163),#164);
#57=STYLED_ITEM('',(#165),#166);
#58=STYLED_ITEM('',(#167),#168);
#59=STYLED_ITEM('',(#169),#170);
#60=STYLED_ITEM('',(#171),#172);
#61=APPLICATION_CONTEXT(' ');
#62=PRODUCT_CATEGORY('part','NONE');
#63=PRODUCT_RELATED_PRODUCT_CATEGORY('detail',' ',(#173));
#64=PRODUCT_DEFINITION_SHAPE('NONE','NONE',#174);
#65=ADVANCED_BREP_SHAPE_REPRESENTATION('1',(#164,#175),#10);
#66=APPLICATION_CONTEXT(' ');
#67=PRODUCT_CATEGORY('part','NONE');
#68=PRODUCT_RELATED_PRODUCT_CATEGORY('detail',' ',(#176));
#69=PRODUCT_DEFINITION_SHAPE('NONE','NONE',#177);
#70=ADVANCED_BREP_SHAPE_REPRESENTATION('2',(#144,#178),#10);
#73=UNCERTAINTY_MEASURE_WITH_UNIT(LENGTH_MEASURE(1.0E-006),#75,'','');
#75= (CONVERSION_BASED_UNIT('MILLIMETRE',#181)LENGTH_UNIT()NAMED_UNIT(#184));
#76= (NAMED_UNIT(#186)PLANE_ANGLE_UNIT()SI_UNIT($,.RADIAN.));
#77= (NAMED_UNIT(#186)SOLID_ANGLE_UNIT()SI_UNIT($,.STERADIAN.));
#79=PRESENTATION_STYLE_ASSIGNMENT((#192));
#80=VERTEX_POINT('',#193);
#81=PRESENTATION_STYLE_ASSIGNMENT((#194));
#82=EDGE_CURVE('',#80,#140,#195,.T.);
#83=PRESENTATION_STYLE_ASSIGNMENT((#196));
#84=ADVANCED_FACE('',(#197),#198,.T.);
#85=PRESENTATION_STYLE_ASSIGNMENT((#199));
#86=EDGE_CURVE('',#152,#114,#200,.T.);
#87=PRESENTATION_STYLE_ASSIGNMENT((#201));
#88=EDGE_CURVE('',#104,#170,#202,.T.);
#89=PRESENTATION_STYLE_ASSIGNMENT((#203));
#90=VERTEX_POINT('',#204);
#91=PRESENTATION_STYLE_ASSIGNMENT((#205));
#92=EDGE_CURVE('',#114,#152,#206,.T.);
#93=PRESENTATION_STYLE_ASSIGNMENT((#207));
#94=VERTEX_POINT('',#208);
#95=PRESENTATION_STYLE_ASSIGNMENT((#209));
#96=ADVANCED_FACE('',(#210,#211),#212,.T.);
#97=PRESENTATION_STYLE_ASSIGNMENT((#213));
#98=ADVANCED_FACE('',(#214),#215,.T.);
#99=PRESENTATION_STYLE_ASSIGNMENT((#216));
#100=EDGE_CURVE('',#124,#134,#217,.T.);
#101=PRESENTATION_STYLE_ASSIGNMENT((#218));
#102=EDGE_CURVE('',#140,#80,#219,.T.);
#103=PRESENTATION_STYLE_ASSIGNMENT((#220));
#104=VERTEX_POINT('',#221);
#105=PRESENTATION_STYLE_ASSIGNMENT((#222));
#106=EDGE_CURVE('',#134,#124,#223,.T.);
#107=PRESENTATION_STYLE_ASSIGNMENT((#224));
#108=VERTEX_POINT('',#225);
#109=PRESENTATION_STYLE_ASSIGNMENT((#226));
#110=EDGE_CURVE('',#130,#94,#227,.T.);
#111=PRESENTATION_STYLE_ASSIGNMENT((#228));
#112=ADVANCED_FACE('',(#229),#230,.T.);
#113=PRESENTATION_STYLE_ASSIGNMENT((#231));
#114=VERTEX_POINT('',#232);
#115=PRESENTATION_STYLE_ASSIGNMENT((#233));
#116=ADVANCED_FACE('',(#234),#235,.T.);
#117=PRESENTATION_STYLE_ASSIGNMENT((#236));
#118=ADVANCED_FACE('',(#237),#238,.T.);
#119=PRESENTATION_STYLE_ASSIGNMENT((#239));
#120=EDGE_CURVE('',#138,#140,#240,.T.);
#121=PRESENTATION_STYLE_ASSIGNMENT((#241));
#122=ADVANCED_FACE('',(#242),#243,.T.);
#123=PRESENTATION_STYLE_ASSIGNMENT((#244));
#124=VERTEX_POINT('',#245);
#125=PRESENTATION_STYLE_ASSIGNMENT((#246));
#126=ADVANCED_FACE('',(#247),#248,.F.);
#127=PRESENTATION_STYLE_ASSIGNMENT((#249));
#128=EDGE_CURVE('',#134,#114,#250,.T.);
#129=PRESENTATION_STYLE_ASSIGNMENT((#251));
#130=VERTEX_POINT('',#252);
#131=PRESENTATION_STYLE_ASSIGNMENT((#253));
#132=EDGE_CURVE('',#152,#124,#254,.T.);
#133=PRESENTATION_STYLE_ASSIGNMENT((#255));
#134=VERTEX_POINT('',#256);
#135=PRESENTATION_STYLE_ASSIGNMENT((#257));
#136=EDGE_CURVE('',#90,#130,#258,.T.);
#137=PRESENTATION_STYLE_ASSIGNMENT((#259));
#138=VERTEX_POINT('',#260);
#139=PRESENTATION_STYLE_ASSIGNMENT((#261));
#140=VERTEX_POINT('',#262);
#141=PRESENTATION_STYLE_ASSIGNMENT((#263));
#142=EDGE_CURVE('',#80,#108,#264,.T.);
#143=PRESENTATION_STYLE_ASSIGNMENT((#265));
#144=MANIFOLD_SOLID_BREP('2',#266);
#145=PRESENTATION_STYLE_ASSIGNMENT((#267));
#146=ADVANCED_FACE('',(#268),#269,.T.);
#147=PRESENTATION_STYLE_ASSIGNMENT((#270));
#148=EDGE_CURVE('',#138,#108,#271,.T.);
#149=PRESENTATION_STYLE_ASSIGNMENT((#272));
#150=ADVANCED_FACE('',(#273),#274,.T.);
#151=PRESENTATION_STYLE_ASSIGNMENT((#275));
#152=VERTEX_POINT('',#276);
#153=PRESENTATION_STYLE_ASSIGNMENT((#277));
#154=EDGE_CURVE('',#170,#138,#278,.T.);
#155=PRESENTATION_STYLE_ASSIGNMENT((#279));
#156=EDGE_CURVE('',#108,#104,#280,.T.);
#157=PRESENTATION_STYLE_ASSIGNMENT((#281));
#158=ADVANCED_FACE('',(#282),#283,.T.);
#159=PRESENTATION_STYLE_ASSIGNMENT((#284));
#160=ADVANCED_FACE('',(#285),#286,.F.);
#161=PRESENTATION_STYLE_ASSIGNMENT((#287));
#162=EDGE_CURVE('',#94,#90,#288,.T.);
#163=PRESENTATION_STYLE_ASSIGNMENT((#289));
#164=MANIFOLD_SOLID_BREP('1',#290);
#165=PRESENTATION_STYLE_ASSIGNMENT((#291));
#166=EDGE_CURVE('',#170,#104,#292,.T.);
#167=PRESENTATION_STYLE_ASSIGNMENT((#293));
#168=EDGE_CURVE('',#108,#138,#294,.T.);
#169=PRESENTATION_STYLE_ASSIGNMENT((#295));
#170=VERTEX_POINT('',#296);
#171=PRESENTATION_STYLE_ASSIGNMENT((#297));
#172=EDGE_CURVE('',#130,#90,#298,.T.);
#173=PRODUCT('1','1','PART-1-DESC',(#299));
#174=PRODUCT_DEFINITION('NONE','NONE',#300,#2);
#175=AXIS2_PLACEMENT_3D('',#301,#302,#303);
#176=PRODUCT('2','2','PART-2-DESC',(#304));
#177=PRODUCT_DEFINITION('NONE','NONE',#305,#6);
#178=AXIS2_PLACEMENT_3D('',#306,#307,#308);
#181=LENGTH_MEASURE_WITH_UNIT(LENGTH_MEASURE(1.0),#309);
#184=DIMENSIONAL_EXPONENTS(1.0,0.0,0.0,0.0,0.0,0.0,0.0);
#186=DIMENSIONAL_EXPONENTS(0.0,0.0,0.0,0.0,0.0,0.0,0.0);
#192=POINT_STYLE(' ',#310,POSITIVE_LENGTH_MEASURE(1.0E-006),#311);
#193=CARTESIAN_POINT('',(0.0,-9.525,-57.19));
#194=CURVE_STYLE('',#312,POSITIVE_LENGTH_MEASURE(1.0E-006),#313);
#195=CIRCLE('',#314,9.525);
#196=SURFACE_STYLE_USAGE(.BOTH.,#315);
#197=FACE_OUTER_BOUND('',#316,.T.);
#198=CONICAL_SURFACE('',#317,12.30295,2.10084033612647E-006);
#199=CURVE_STYLE('',#318,POSITIVE_LENGTH_MEASURE(1.0E-006),#319);
#200=CIRCLE('',#320,12.303);
#201=CURVE_STYLE('',#321,POSITIVE_LENGTH_MEASURE(1.0E-006),#322);
#202=CIRCLE('',#323,8.83737582939516);
#203=POINT_STYLE(' ',#324,POSITIVE_LENGTH_MEASURE(1.0E-006),#325);
#204=CARTESIAN_POINT('',(1.50600864786722E-015,-12.2979,-57.19));
#205=CURVE_STYLE('',#326,POSITIVE_LENGTH_MEASURE(1.0E-006),#327);
#206=CIRCLE('',#328,12.303);
#207=POINT_STYLE(' ',#329,POSITIVE_LENGTH_MEASURE(1.0E-006),#330);
#208=CARTESIAN_POINT('',(0.0,0.0,-57.2));
#209=SURFACE_STYLE_USAGE(.BOTH.,#331);
#210=FACE_OUTER_BOUND('',#332,.T.);
#211=FACE_BOUND('',#333,.T.);
#212=PLANE('',#334);
#213=SURFACE_STYLE_USAGE(.BOTH.,#335);
#214=FACE_OUTER_BOUND('',#336,.T.);
#215=PLANE('',#337);
#216=CURVE_STYLE('',#338,POSITIVE_LENGTH_MEASURE(1.0E-006),#339);
#217=CIRCLE('',#340,12.3029);
#218=CURVE_STYLE('',#341,POSITIVE_LENGTH_MEASURE(1.0E-006),#342);
#219=CIRCLE('',#343,9.525);
#220=POINT_STYLE(' ',#344,POSITIVE_LENGTH_MEASURE(1.0E-006),#345);
#221=CARTESIAN_POINT('',(1.08223065917936E-015,-8.83737582939516,0.0100000000000051));
#222=CURVE_STYLE('',#346,POSITIVE_LENGTH_MEASURE(1.0E-006),#347);
#223=CIRCLE('',#348,12.3029);
#224=POINT_STYLE(' ',#349,POSITIVE_LENGTH_MEASURE(1.0E-006),#350);
#225=CARTESIAN_POINT('',(1.16643755201581E-015,-9.525,-1.18099999999999));
#226=CURVE_STYLE('',#351,POSITIVE_LENGTH_MEASURE(1.0E-006),#352);
#227=LINE('',#353,#354);
#228=SURFACE_STYLE_USAGE(.BOTH.,#355);
#229=FACE_OUTER_BOUND('',#356,.T.);
#230=PLANE('',#357);
#231=POINT_STYLE(' ',#358,POSITIVE_LENGTH_MEASURE(1.0E-006),#359);
#232=CARTESIAN_POINT('',(0.0,12.303,-104.79));
#233=SURFACE_STYLE_USAGE(.BOTH.,#360);
#234=FACE_OUTER_BOUND('',#361,.T.);
#235=CONICAL_SURFACE('',#362,12.30295,2.10084033612647E-006);
#236=SURFACE_STYLE_USAGE(.BOTH.,#363);
#237=FACE_OUTER_BOUND('',#364,.T.);
#238=PLANE('',#365);
#239=CURVE_STYLE('',#366,POSITIVE_LENGTH_MEASURE(1.0E-006),#367);
#240=LINE('',#368,#369);
#241=SURFACE_STYLE_USAGE(.BOTH.,#370);
#242=FACE_OUTER_BOUND('',#371,.T.);
#243=CONICAL_SURFACE('',#372,9.18118791469758,0.523598775598299);
#244=POINT_STYLE(' ',#373,POSITIVE_LENGTH_MEASURE(1.0E-006),#374);
#245=CARTESIAN_POINT('',(1.50662095104413E-015,-12.3029,-57.19));
#246=SURFACE_STYLE_USAGE(.BOTH.,#375);
#247=FACE_OUTER_BOUND('',#376,.T.);
#248=CONICAL_SURFACE('',#377,6.14895,1.56998318001407);
#249=CURVE_STYLE('',#378,POSITIVE_LENGTH_MEASURE(1.0E-006),#379);
#250=LINE('',#380,#381);
#251=POINT_STYLE(' ',#382,POSITIVE_LENGTH_MEASURE(1.0E-006),#383);
#252=CARTESIAN_POINT('',(0.0,12.2979,-57.19));
#253=CURVE_STYLE('',#384,POSITIVE_LENGTH_MEASURE(1.0E-006),#385);
#254=LINE('',#386,#387);
#255=POINT_STYLE(' ',#388,POSITIVE_LENGTH_MEASURE(1.0E-006),#389);
#256=CARTESIAN_POINT('',(0.0,12.3029,-57.19));
#257=CURVE_STYLE('',#390,POSITIVE_LENGTH_MEASURE(1.0E-006),#391);
#258=CIRCLE('',#392,12.2979);
#259=POINT_STYLE(' ',#393,POSITIVE_LENGTH_MEASURE(1.0E-006),#394);
#260=CARTESIAN_POINT('',(0.0,9.525,-1.18099999999999));
#261=POINT_STYLE(' ',#395,POSITIVE_LENGTH_MEASURE(1.0E-006),#396);
#262=CARTESIAN_POINT('',(-1.16643755201581E-015,9.525,-57.19));
#263=CURVE_STYLE('',#397,POSITIVE_LENGTH_MEASURE(1.0E-006),#398);
#264=LINE('',#399,#400);
#265=SURFACE_STYLE_USAGE(.BOTH.,#401);
#266=CLOSED_SHELL('',(#158,#122,#118,#112,#146,#150));
#267=SURFACE_STYLE_USAGE(.BOTH.,#402);
#268=FACE_OUTER_BOUND('',#403,.T.);
#269=CONICAL_SURFACE('',#404,9.18118791469758,0.523598775598299);
#270=CURVE_STYLE('',#405,POSITIVE_LENGTH_MEASURE(1.0E-006),#406);
#271=CIRCLE('',#407,9.525);
#272=SURFACE_STYLE_USAGE(.BOTH.,#408);
#273=FACE_OUTER_BOUND('',#409,.T.);
#274=CYLINDRICAL_SURFACE('',#410,9.525);
#275=POINT_STYLE(' ',#411,POSITIVE_LENGTH_MEASURE(1.0E-006),#412);
#276=CARTESIAN_POINT('',(1.50663319710767E-015,-12.303,-104.79));
#277=CURVE_STYLE('',#413,POSITIVE_LENGTH_MEASURE(1.0E-006),#414);
#278=LINE('',#415,#416);
#279=CURVE_STYLE('',#417,POSITIVE_LENGTH_MEASURE(1.0E-006),#418);
#280=LINE('',#419,#420);
#281=SURFACE_STYLE_USAGE(.BOTH.,#421);
#282=FACE_OUTER_BOUND('',#422,.T.);
#283=CYLINDRICAL_SURFACE('',#423,9.525);
#284=SURFACE_STYLE_USAGE(.BOTH.,#424);
#285=FACE_OUTER_BOUND('',#425,.T.);
#286=CONICAL_SURFACE('',#426,6.14895,1.56998318001407);
#287=CURVE_STYLE('',#427,POSITIVE_LENGTH_MEASURE(1.0E-006),#428);
#288=LINE('',#429,#430);
#289=SURFACE_STYLE_USAGE(.BOTH.,#431);
#290=CLOSED_SHELL('',(#116,#160,#126,#96,#84,#98));
#291=CURVE_STYLE('',#432,POSITIVE_LENGTH_MEASURE(1.0E-006),#433);
#292=CIRCLE('',#434,8.83737582939516);
#293=CURVE_STYLE('',#435,POSITIVE_LENGTH_MEASURE(1.0E-006),#436);
#294=CIRCLE('',#437,9.525);
#295=POINT_STYLE(' ',#438,POSITIVE_LENGTH_MEASURE(1.0E-006),#439);
#296=CARTESIAN_POINT('',(0.0,8.83737582939516,0.0100000000000051));
#297=CURVE_STYLE('',#440,POSITIVE_LENGTH_MEASURE(1.0E-006),#441);
#298=CIRCLE('',#442,12.2979);
#299=PRODUCT_CONTEXT('',#61,'mechanical');
#300=PRODUCT_DEFINITION_FORMATION_WITH_SPECIFIED_SOURCE(' ','NONE',#173,.NOT_KNOWN.);
#301=CARTESIAN_POINT('',(0.0,0.0,0.0));
#302=DIRECTION('',(0.0,0.0,1.0));
#303=DIRECTION('',(1.0,0.0,0.0));
#304=PRODUCT_CONTEXT('',#66,'mechanical');
#305=PRODUCT_DEFINITION_FORMATION_WITH_SPECIFIED_SOURCE(' ','NONE',#176,.NOT_KNOWN.);
#306=CARTESIAN_POINT('',(0.0,0.0,0.0));
#307=DIRECTION('',(0.0,0.0,1.0));
#308=DIRECTION('',(1.0,0.0,0.0));
#309= (NAMED_UNIT(#184)LENGTH_UNIT()SI_UNIT(.MILLI.,.METRE.));
#310=PRE_DEFINED_MARKER('');
#311=COLOUR_RGB('',0.498039215803146,0.498039215803146,0.498039215803146);
#312=DRAUGHTING_PRE_DEFINED_CURVE_FONT('continuous');
#313=COLOUR_RGB('',0.498039215803146,0.498039215803146,0.498039215803146);
#314=AXIS2_PLACEMENT_3D('',#444,#445,#446);
#315=SURFACE_SIDE_STYLE('',(#447));
#316=EDGE_LOOP('',(#448,#449,#450,#451));
#317=AXIS2_PLACEMENT_3D('',#452,#453,#454);
#318=DRAUGHTING_PRE_DEFINED_CURVE_FONT('continuous');
#319=COLOUR_RGB('',0.800000011920929,0.800000011920929,0.800000011920929);
#320=AXIS2_PLACEMENT_3D('',#455,#456,#457);
#321=DRAUGHTING_PRE_DEFINED_CURVE_FONT('continuous');
#322=COLOUR_RGB('',0.498039215803146,0.498039215803146,0.498039215803146);
#323=AXIS2_PLACEMENT_3D('',#458,#459,#460);
#324=PRE_DEFINED_MARKER('');
#325=COLOUR_RGB('',0.800000011920929,0.800000011920929,0.800000011920929);
#326=DRAUGHTING_PRE_DEFINED_CURVE_FONT('continuous');
#327=COLOUR_RGB('',0.800000011920929,0.800000011920929,0.800000011920929);
#328=AXIS2_PLACEMENT_3D('',#461,#462,#463);
#329=PRE_DEFINED_MARKER('');
#330=COLOUR_RGB('',0.800000011920929,0.800000011920929,0.800000011920929);
#331=SURFACE_SIDE_STYLE('',(#464));
#332=EDGE_LOOP('',(#465,#466));
#333=EDGE_LOOP('',(#467,#468));
#334=AXIS2_PLACEMENT_3D('',#469,#470,#471);
#335=SURFACE_SIDE_STYLE('',(#472));
#336=EDGE_LOOP('',(#473,#474));
#337=AXIS2_PLACEMENT_3D('',#475,#476,#477);
#338=DRAUGHTING_PRE_DEFINED_CURVE_FONT('continuous');
#339=COLOUR_RGB('',0.800000011920929,0.800000011920929,0.800000011920929);
#340=AXIS2_PLACEMENT_3D('',#478,#479,#480);
#341=DRAUGHTING_PRE_DEFINED_CURVE_FONT('continuous');
#342=COLOUR_RGB('',0.498039215803146,0.498039215803146,0.498039215803146);
#343=AXIS2_PLACEMENT_3D('',#481,#482,#483);
#344=PRE_DEFINED_MARKER('');
#345=COLOUR_RGB('',0.498039215803146,0.498039215803146,0.498039215803146);
#346=DRAUGHTING_PRE_DEFINED_CURVE_FONT('continuous');
#347=COLOUR_RGB('',0.800000011920929,0.800000011920929,0.800000011920929);
#348=AXIS2_PLACEMENT_3D('',#484,#485,#486);
#349=PRE_DEFINED_MARKER('');
#350=COLOUR_RGB('',0.498039215803146,0.498039215803146,0.498039215803146);
#351=DRAUGHTING_PRE_DEFINED_CURVE_FONT('continuous');
#352=COLOUR_RGB('',0.800000011920929,0.800000011920929,0.800000011920929);
#353=CARTESIAN_POINT('',(-7.53004323933611E-016,6.14895,-57.195));
#354=VECTOR('',#487,1.0);
#355=SURFACE_SIDE_STYLE('',(#488));
#356=EDGE_LOOP('',(#489,#490));
#357=AXIS2_PLACEMENT_3D('',#491,#492,#493);
#358=PRE_DEFINED_MARKER('');
#359=COLOUR_RGB('',0.800000011920929,0.800000011920929,0.800000011920929);
#360=SURFACE_SIDE_STYLE('',(#494));
#361=EDGE_LOOP('',(#495,#496,#497,#498));
#362=AXIS2_PLACEMENT_3D('',#499,#500,#501);
#363=SURFACE_SIDE_STYLE('',(#502));
#364=EDGE_LOOP('',(#503,#504));
#365=AXIS2_PLACEMENT_3D('',#505,#506,#507);
#366=DRAUGHTING_PRE_DEFINED_CURVE_FONT('continuous');
#367=COLOUR_RGB('',0.498039215803146,0.498039215803146,0.498039215803146);
#368=CARTESIAN_POINT('',(-1.16643755201581E-015,9.525,-16.8825));
#369=VECTOR('',#508,1.0);
#370=SURFACE_SIDE_STYLE('',(#509));
#371=EDGE_LOOP('',(#510,#511,#512,#513));
#372=AXIS2_PLACEMENT_3D('',#514,#515,#516);
#373=PRE_DEFINED_MARKER('');
#374=COLOUR_RGB('',0.800000011920929,0.800000011920929,0.800000011920929);
#375=SURFACE_SIDE_STYLE('',(#517));
#376=EDGE_LOOP('',(#518,#519,#520));
#377=AXIS2_PLACEMENT_3D('',#521,#522,#523);
#378=DRAUGHTING_PRE_DEFINED_CURVE_FONT('continuous');
#379=COLOUR_RGB('',0.800000011920929,0.800000011920929,0.800000011920929);
#380=CARTESIAN_POINT('',(-1.5066270740759E-015,12.30295,-80.99));
#381=VECTOR('',#524,1.0);
#382=PRE_DEFINED_MARKER('');
#383=COLOUR_RGB('',0.800000011920929,0.800000011920929,0.800000011920929);
#384=DRAUGHTING_PRE_DEFINED_CURVE_FONT('continuous');
#385=COLOUR_RGB('',0.800000011920929,0.800000011920929,0.800000011920929);
#386=CARTESIAN_POINT('',(1.5066270740759E-015,-12.30295,-80.99));
#387=VECTOR('',#525,1.0);
#388=PRE_DEFINED_MARKER('');
#389=COLOUR_RGB('',0.800000011920929,0.800000011920929,0.800000011920929);
#390=DRAUGHTING_PRE_DEFINED_CURVE_FONT('continuous');
#391=COLOUR_RGB('',0.800000011920929,0.800000011920929,0.800000011920929);
#392=AXIS2_PLACEMENT_3D('',#526,#527,#528);
#393=PRE_DEFINED_MARKER('');
#394=COLOUR_RGB('',0.498039215803146,0.498039215803146,0.498039215803146);
#395=PRE_DEFINED_MARKER('');
#396=COLOUR_RGB('',0.498039215803146,0.498039215803146,0.498039215803146);
#397=DRAUGHTING_PRE_DEFINED_CURVE_FONT('continuous');
#398=COLOUR_RGB('',0.498039215803146,0.498039215803146,0.498039215803146);
#399=CARTESIAN_POINT('',(1.16643755201581E-015,-9.525,-16.8825));
#400=VECTOR('',#529,1.0);
#401=SURFACE_SIDE_STYLE('',(#530));
#402=SURFACE_SIDE_STYLE('',(#531));
#403=EDGE_LOOP('',(#532,#533,#534,#535));
#404=AXIS2_PLACEMENT_3D('',#536,#537,#538);
#405=DRAUGHTING_PRE_DEFINED_CURVE_FONT('continuous');
#406=COLOUR_RGB('',0.498039215803146,0.498039215803146,0.498039215803146);
#407=AXIS2_PLACEMENT_3D('',#539,#540,#541);
#408=SURFACE_SIDE_STYLE('',(#542));
#409=EDGE_LOOP('',(#543,#544,#545,#546));
#410=AXIS2_PLACEMENT_3D('',#547,#548,#549);
#411=PRE_DEFINED_MARKER('');
#412=COLOUR_RGB('',0.800000011920929,0.800000011920929,0.800000011920929);
#413=DRAUGHTING_PRE_DEFINED_CURVE_FONT('continuous');
#414=COLOUR_RGB('',0.498039215803146,0.498039215803146,0.498039215803146);
#415=CARTESIAN_POINT('',(-1.12433410559759E-015,9.18118791469758,-0.585499999999996));
#416=VECTOR('',#550,1.0);
#417=DRAUGHTING_PRE_DEFINED_CURVE_FONT('continuous');
#418=COLOUR_RGB('',0.498039215803146,0.498039215803146,0.498039215803146);
#419=CARTESIAN_POINT('',(1.12433410559759E-015,-9.18118791469758,-0.585499999999996));
#420=VECTOR('',#551,1.0);
#421=SURFACE_SIDE_STYLE('',(#552));
#422=EDGE_LOOP('',(#553,#554,#555,#556));
#423=AXIS2_PLACEMENT_3D('',#557,#558,#559);
#424=SURFACE_SIDE_STYLE('',(#560));
#425=EDGE_LOOP('',(#561,#562,#563));
#426=AXIS2_PLACEMENT_3D('',#564,#565,#566);
#427=DRAUGHTING_PRE_DEFINED_CURVE_FONT('continuous');
#428=COLOUR_RGB('',0.800000011920929,0.800000011920929,0.800000011920929);
#429=CARTESIAN_POINT('',(7.53004323933611E-016,-6.14895,-57.195));
#430=VECTOR('',#567,1.0);
#431=SURFACE_SIDE_STYLE('',(#568));
#432=DRAUGHTING_PRE_DEFINED_CURVE_FONT('continuous');
#433=COLOUR_RGB('',0.498039215803146,0.498039215803146,0.498039215803146);
#434=AXIS2_PLACEMENT_3D('',#569,#570,#571);
#435=DRAUGHTING_PRE_DEFINED_CURVE_FONT('continuous');
#436=COLOUR_RGB('',0.498039215803146,0.498039215803146,0.498039215803146);
#437=AXIS2_PLACEMENT_3D('',#572,#573,#574);
#438=PRE_DEFINED_MARKER('');
#439=COLOUR_RGB('',0.498039215803146,0.498039215803146,0.498039215803146);
#440=DRAUGHTING_PRE_DEFINED_CURVE_FONT('continuous');
#441=COLOUR_RGB('',0.800000011920929,0.800000011920929,0.800000011920929);
#442=AXIS2_PLACEMENT_3D('',#575,#576,#577);
#444=CARTESIAN_POINT('',(0.0,0.0,-57.19));
#445=DIRECTION('',(0.0,0.0,-1.0));
#446=DIRECTION('',(0.0,-1.0,0.0));
#447=SURFACE_STYLE_FILL_AREA(#578);
#448=ORIENTED_EDGE('',*,*,#128,.T.);
#449=ORIENTED_EDGE('',*,*,#86,.F.);
#450=ORIENTED_EDGE('',*,*,#132,.T.);
#451=ORIENTED_EDGE('',*,*,#100,.T.);
#452=CARTESIAN_POINT('',(0.0,0.0,-80.99));
#453=DIRECTION('',(0.0,-0.0,-1.0));
#454=DIRECTION('',(0.0,1.0,0.0));
#455=CARTESIAN_POINT('',(0.0,0.0,-104.79));
#456=DIRECTION('',(0.0,0.0,-1.0));
#457=DIRECTION('',(0.0,1.0,0.0));
#458=CARTESIAN_POINT('',(0.0,0.0,0.0100000000000051));
#459=DIRECTION('',(0.0,0.0,-1.0));
#460=DIRECTION('',(0.0,1.0,0.0));
#461=CARTESIAN_POINT('',(0.0,0.0,-104.79));
#462=DIRECTION('',(0.0,0.0,-1.0));
#463=DIRECTION('',(0.0,1.0,0.0));
#464=SURFACE_STYLE_FILL_AREA(#579);
#465=ORIENTED_EDGE('',*,*,#106,.F.);
#466=ORIENTED_EDGE('',*,*,#100,.F.);
#467=ORIENTED_EDGE('',*,*,#172,.T.);
#468=ORIENTED_EDGE('',*,*,#136,.T.);
#469=CARTESIAN_POINT('',(0.0,12.3004,-57.19));
#470=DIRECTION('',(-0.0,0.0,1.0));
#471=DIRECTION('',(0.0,-1.0,0.0));
#472=SURFACE_STYLE_FILL_AREA(#580);
#473=ORIENTED_EDGE('',*,*,#92,.T.);
#474=ORIENTED_EDGE('',*,*,#86,.T.);
#475=CARTESIAN_POINT('',(0.0,6.149,-104.79));
#476=DIRECTION('',(0.0,0.0,-1.0));
#477=DIRECTION('',(0.0,1.0,0.0));
#478=CARTESIAN_POINT('',(0.0,0.0,-57.19));
#479=DIRECTION('',(0.0,0.0,-1.0));
#480=DIRECTION('',(0.0,1.0,0.0));
#481=CARTESIAN_POINT('',(0.0,0.0,-57.19));
#482=DIRECTION('',(0.0,0.0,-1.0));
#483=DIRECTION('',(0.0,-1.0,0.0));
#484=CARTESIAN_POINT('',(0.0,0.0,-57.19));
#485=DIRECTION('',(0.0,0.0,-1.0));
#486=DIRECTION('',(0.0,1.0,0.0));
#487=DIRECTION('',(1.22460594896283E-016,-0.999999669396175,-0.000813146691221512));
#488=SURFACE_STYLE_FILL_AREA(#581);
#489=ORIENTED_EDGE('',*,*,#166,.F.);
#490=ORIENTED_EDGE('',*,*,#88,.F.);
#491=CARTESIAN_POINT('',(0.0,4.41868791469758,0.0100000000000051));
#492=DIRECTION('',(-0.0,0.0,1.0));
#493=DIRECTION('',(0.0,-1.0,0.0));
#494=SURFACE_STYLE_FILL_AREA(#582);
#495=ORIENTED_EDGE('',*,*,#128,.F.);
#496=ORIENTED_EDGE('',*,*,#106,.T.);
#497=ORIENTED_EDGE('',*,*,#132,.F.);
#498=ORIENTED_EDGE('',*,*,#92,.F.);
#499=CARTESIAN_POINT('',(0.0,0.0,-80.99));
#500=DIRECTION('',(0.0,-0.0,-1.0));
#501=DIRECTION('',(0.0,1.0,0.0));
#502=SURFACE_STYLE_FILL_AREA(#583);
#503=ORIENTED_EDGE('',*,*,#82,.T.);
#504=ORIENTED_EDGE('',*,*,#102,.T.);
#505=CARTESIAN_POINT('',(0.0,0.0,-57.19));
#506=DIRECTION('',(0.0,0.0,-1.0));
#507=DIRECTION('',(0.0,-1.0,0.0));
#508=DIRECTION('',(0.0,0.0,-1.0));
#509=SURFACE_STYLE_FILL_AREA(#584);
#510=ORIENTED_EDGE('',*,*,#154,.F.);
#511=ORIENTED_EDGE('',*,*,#166,.T.);
#512=ORIENTED_EDGE('',*,*,#156,.F.);
#513=ORIENTED_EDGE('',*,*,#148,.F.);
#514=CARTESIAN_POINT('',(0.0,0.0,-0.585499999999996));
#515=DIRECTION('',(0.0,-0.0,-1.0));
#516=DIRECTION('',(0.0,1.0,0.0));
#517=SURFACE_STYLE_FILL_AREA(#585);
#518=ORIENTED_EDGE('',*,*,#162,.T.);
#519=ORIENTED_EDGE('',*,*,#172,.F.);
#520=ORIENTED_EDGE('',*,*,#110,.T.);
#521=CARTESIAN_POINT('',(0.0,0.0,-57.195));
#522=DIRECTION('',(-0.0,-0.0,1.0));
#523=DIRECTION('',(0.0,1.0,0.0));
#524=DIRECTION('',(-2.57270242398492E-022,2.10084033612492E-006,-0.999999999997793));
#525=DIRECTION('',(-2.57270242398492E-022,2.10084033612492E-006,0.999999999997793));
#526=CARTESIAN_POINT('',(0.0,0.0,-57.19));
#527=DIRECTION('',(0.0,0.0,-1.0));
#528=DIRECTION('',(0.0,1.0,0.0));
#529=DIRECTION('',(-0.0,-0.0,1.0));
#530=SURFACE_STYLE_FILL_AREA(#586);
#531=SURFACE_STYLE_FILL_AREA(#587);
#532=ORIENTED_EDGE('',*,*,#154,.T.);
#533=ORIENTED_EDGE('',*,*,#168,.F.);
#534=ORIENTED_EDGE('',*,*,#156,.T.);
#535=ORIENTED_EDGE('',*,*,#88,.T.);
#536=CARTESIAN_POINT('',(0.0,0.0,-0.585499999999996));
#537=DIRECTION('',(0.0,-0.0,-1.0));
#538=DIRECTION('',(0.0,1.0,0.0));
#539=CARTESIAN_POINT('',(0.0,0.0,-1.18099999999999));
#540=DIRECTION('',(0.0,0.0,-1.0));
#541=DIRECTION('',(0.0,1.0,0.0));
#542=SURFACE_STYLE_FILL_AREA(#588);
#543=ORIENTED_EDGE('',*,*,#120,.T.);
#544=ORIENTED_EDGE('',*,*,#82,.F.);
#545=ORIENTED_EDGE('',*,*,#142,.T.);
#546=ORIENTED_EDGE('',*,*,#168,.T.);
#547=CARTESIAN_POINT('',(0.0,0.0,-16.8825));
#548=DIRECTION('',(-0.0,-0.0,1.0));
#549=DIRECTION('',(0.0,1.0,0.0));
#550=DIRECTION('',(-6.12303176911189E-017,0.5,-0.866025403784439));
#551=DIRECTION('',(-6.12303176911189E-017,0.5,0.866025403784439));
#552=SURFACE_STYLE_FILL_AREA(#589);
#553=ORIENTED_EDGE('',*,*,#120,.F.);
#554=ORIENTED_EDGE('',*,*,#148,.T.);
#555=ORIENTED_EDGE('',*,*,#142,.F.);
#556=ORIENTED_EDGE('',*,*,#102,.F.);
#557=CARTESIAN_POINT('',(0.0,0.0,-16.8825));
#558=DIRECTION('',(-0.0,-0.0,1.0));
#559=DIRECTION('',(0.0,1.0,0.0));
#560=SURFACE_STYLE_FILL_AREA(#590);
#561=ORIENTED_EDGE('',*,*,#162,.F.);
#562=ORIENTED_EDGE('',*,*,#110,.F.);
#563=ORIENTED_EDGE('',*,*,#136,.F.);
#564=CARTESIAN_POINT('',(0.0,0.0,-57.195));
#565=DIRECTION('',(-0.0,-0.0,1.0));
#566=DIRECTION('',(0.0,1.0,0.0));
#567=DIRECTION('',(1.22460594896283E-016,-0.999999669396175,0.000813146691221512));
#568=SURFACE_STYLE_FILL_AREA(#591);
#569=CARTESIAN_POINT('',(0.0,0.0,0.0100000000000051));
#570=DIRECTION('',(0.0,0.0,-1.0));
#571=DIRECTION('',(0.0,1.0,0.0));
#572=CARTESIAN_POINT('',(0.0,0.0,-1.18099999999999));
#573=DIRECTION('',(0.0,0.0,-1.0));
#574=DIRECTION('',(0.0,1.0,0.0));
#575=CARTESIAN_POINT('',(0.0,0.0,-57.19));
#576=DIRECTION('',(0.0,0.0,-1.0));
#577=DIRECTION('',(0.0,1.0,0.0));
#578=FILL_AREA_STYLE('',(#592));
#579=FILL_AREA_STYLE('',(#593));
#580=FILL_AREA_STYLE('',(#594));
#581=FILL_AREA_STYLE('',(#595));
#582=FILL_AREA_STYLE('',(#596));
#583=FILL_AREA_STYLE('',(#597));
#584=FILL_AREA_STYLE('',(#598));
#585=FILL_AREA_STYLE('',(#599));
#586=FILL_AREA_STYLE('',(#600));
#587=FILL_AREA_STYLE('',(#601));
#588=FILL_AREA_STYLE('',(#602));
#589=FILL_AREA_STYLE('',(#603));
#590=FILL_AREA_STYLE('',(#604));
#591=FILL_AREA_STYLE('',(#605));
#592=FILL_AREA_STYLE_COLOUR('',#606);
#593=FILL_AREA_STYLE_COLOUR('',#607);
#594=FILL_AREA_STYLE_COLOUR('',#608);
#595=FILL_AREA_STYLE_COLOUR('',#609);
#596=FILL_AREA_STYLE_COLOUR('',#610);
#597=FILL_AREA_STYLE_COLOUR('',#611);
#598=FILL_AREA_STYLE_COLOUR('',#612);
#599=FILL_AREA_STYLE_COLOUR('',#613);
#600=FILL_AREA_STYLE_COLOUR('',#614);
#601=FILL_AREA_STYLE_COLOUR('',#615);
#602=FILL_AREA_STYLE_COLOUR('',#616);
#603=FILL_AREA_STYLE_COLOUR('',#617);
#604=FILL_AREA_STYLE_COLOUR('',#618);
#605=FILL_AREA_STYLE_COLOUR('',#619);
#606=COLOUR_RGB('',0.800000011920929,0.800000011920929,0.800000011920929);
#607=COLOUR_RGB('',0.800000011920929,0.800000011920929,0.800000011920929);
#608=COLOUR_RGB('',0.800000011920929,0.800000011920929,0.800000011920929);
#609=COLOUR_RGB('',0.498039215803146,0.498039215803146,0.498039215803146);
#610=COLOUR_RGB('',0.800000011920929,0.800000011920929,0.800000011920929);
#611=COLOUR_RGB('',0.498039215803146,0.498039215803146,0.498039215803146);
#612=COLOUR_RGB('',0.498039215803146,0.498039215803146,0.498039215803146);
#613=COLOUR_RGB('',0.800000011920929,0.800000011920929,0.800000011920929);
#614=COLOUR_RGB('',0.800000011920929,0.800000011920929,0.800000011920929);
#615=COLOUR_RGB('',0.498039215803146,0.498039215803146,0.498039215803146);
#616=COLOUR_RGB('',0.498039215803146,0.498039215803146,0.498039215803146);
#617=COLOUR_RGB('',0.498039215803146,0.498039215803146,0.498039215803146);
#618=COLOUR_RGB('',0.800000011920929,0.800000011920929,0.800000011920929);
#619=COLOUR_RGB('',0.800000011920929,0.800000011920929,0.800000011920929);
#620=AXIS2_PLACEMENT_3D('PCS',#621,#622,#623);
#621=CARTESIAN_POINT('',(0.0,0.0,0.0));
#622=DIRECTION('',(0.0,0.0,1.0));
#623=DIRECTION('',(1.0,0.0,0.0));
#624=AXIS2_PLACEMENT_3D('CIP',#625,#626,#627);
#625=CARTESIAN_POINT('',(0.0,0.0,-104.8));
#626=DIRECTION('',(0.0,0.0,1.0));
#627=DIRECTION('',(1.0,0.0,0.0));
#628=AXIS2_PLACEMENT_3D('CRP',#629,#630,#631);
#629=CARTESIAN_POINT('',(-12.303,0.0,-104.8));
#630=DIRECTION('',(0.0,0.0,1.0));
#631=DIRECTION('',(1.0,0.0,0.0));
#632=AXIS2_PLACEMENT_3D('MCS',#633,#634,#635);
#633=CARTESIAN_POINT('',(0.0,0.0,-32.594));
#634=DIRECTION('',(0.0,0.0,1.0));
#635=DIRECTION('',(1.0,0.0,0.0));
#636=CONSTRUCTIVE_GEOMETRY_REPRESENTATION_RELATIONSHIP('coordinate systems',$,#65,#637);
#637=CONSTRUCTIVE_GEOMETRY_REPRESENTATION('coordinate systems',(#620,#624,#628,#632),#10);
ENDSEC;
END-ISO-10303-21;
