ISO-10303-21;
HEADER;
FILE_DESCRIPTION(('no description'),'unknown implementation level');
FILE_NAME('solidrWS3hoJ_YaboxGinOqZ28LVCL94_1.STP','  ',('CIMSOURCE GmbH'),('CADClick - KiM GmbH - www.kimweb.de'),'unknown preprocess','ACIS','unknown authorization');
FILE_SCHEMA(('automotive_design'));
ENDSEC;
DATA;
#1=MECHANICAL_DESIGN_GEOMETRIC_PRESENTATION_REPRESENTATION(' ',(#14,#15,#16,#17,#18,#19,#20,#21,#22,#23,#24,#25,#26,#27,#28,#29,#30,#31,#32,#33,#34,#35,#36,#37,#38,#39,#40,#41,#42,#43,#44,#45,#46,#47,#48,#49,#50,#51,#52,#53,#54,#55,#56,#57,#58,#59,#60),#10);
#2=PRODUCT_DEFINITION_CONTEXT('',#61,'design');
#3=APPLICATION_PROTOCOL_DEFINITION('INTERNATIONAL STANDARD','automotive_design',1994,#61);
#4=PRODUCT_CATEGORY_RELATIONSHIP('NONE','NONE',#62,#63);
#5=SHAPE_DEFINITION_REPRESENTATION(#64,#65);
#6=PRODUCT_DEFINITION_CONTEXT('',#66,'design');
#7=APPLICATION_PROTOCOL_DEFINITION('INTERNATIONAL STANDARD','automotive_design',1994,#66);
#8=PRODUCT_CATEGORY_RELATIONSHIP('NONE','NONE',#67,#68);
#9=SHAPE_DEFINITION_REPRESENTATION(#69,#70);
#10= (GEOMETRIC_REPRESENTATION_CONTEXT(3)GLOBAL_UNCERTAINTY_ASSIGNED_CONTEXT((#73))GLOBAL_UNIT_ASSIGNED_CONTEXT((#75,#76,#77))REPRESENTATION_CONTEXT('NONE','WORKSPACE'));
#14=STYLED_ITEM('',(#79),#80);
#15=STYLED_ITEM('',(#81),#82);
#16=STYLED_ITEM('',(#83),#84);
#17=STYLED_ITEM('',(#85),#86);
#18=STYLED_ITEM('',(#87),#88);
#19=STYLED_ITEM('',(#89),#90);
#20=STYLED_ITEM('',(#91),#92);
#21=STYLED_ITEM('',(#93),#94);
#22=STYLED_ITEM('',(#95),#96);
#23=STYLED_ITEM('',(#97),#98);
#24=STYLED_ITEM('',(#99),#100);
#25=STYLED_ITEM('',(#101),#102);
#26=STYLED_ITEM('',(#103),#104);
#27=STYLED_ITEM('',(#105),#106);
#28=STYLED_ITEM('',(#107),#108);
#29=STYLED_ITEM('',(#109),#110);
#30=STYLED_ITEM('',(#111),#112);
#31=STYLED_ITEM('',(#113),#114);
#32=STYLED_ITEM('',(#115),#116);
#33=STYLED_ITEM('',(#117),#118);
#34=STYLED_ITEM('',(#119),#120);
#35=STYLED_ITEM('',(#121),#122);
#36=STYLED_ITEM('',(#123),#124);
#37=STYLED_ITEM('',(#125),#126);
#38=STYLED_ITEM('',(#127),#128);
#39=STYLED_ITEM('',(#129),#130);
#40=STYLED_ITEM('',(#131),#132);
#41=STYLED_ITEM('',(#133),#134);
#42=STYLED_ITEM('',(#135),#136);
#43=STYLED_ITEM('',(#137),#138);
#44=STYLED_ITEM('',(#139),#140);
#45=STYLED_ITEM('',(#141),#142);
#46=STYLED_ITEM('',(#143),#144);
#47=STYLED_ITEM('',(#145),#146);
#48=STYLED_ITEM('',(#147),#148);
#49=STYLED_ITEM('',(#149),#150);
#50=STYLED_ITEM('',(#151),#152);
#51=STYLED_ITEM('',(#153),#154);
#52=STYLED_ITEM('',(#155),#156);
#53=STYLED_ITEM('',(#157),#158);
#54=STYLED_ITEM('',(#159),#160);
#55=STYLED_ITEM('',(#161),#162);
#56=STYLED_ITEM('',(#163),#164);
#57=STYLED_ITEM('',(#165),#166);
#58=STYLED_ITEM('',(#167),#168);
#59=STYLED_ITEM('',(#169),#170);
#60=STYLED_ITEM('',(#171),#172);
#61=APPLICATION_CONTEXT(' ');
#62=PRODUCT_CATEGORY('part','NONE');
#63=PRODUCT_RELATED_PRODUCT_CATEGORY('detail',' ',(#173));
#64=PRODUCT_DEFINITION_SHAPE('NONE','NONE',#174);
#65=ADVANCED_BREP_SHAPE_REPRESENTATION('1',(#142,#175),#10);
#66=APPLICATION_CONTEXT(' ');
#67=PRODUCT_CATEGORY('part','NONE');
#68=PRODUCT_RELATED_PRODUCT_CATEGORY('detail',' ',(#176));
#69=PRODUCT_DEFINITION_SHAPE('NONE','NONE',#177);
#70=ADVANCED_BREP_SHAPE_REPRESENTATION('2',(#134,#178),#10);
#73=UNCERTAINTY_MEASURE_WITH_UNIT(LENGTH_MEASURE(1.0E-006),#75,'','');
#75= (CONVERSION_BASED_UNIT('MILLIMETRE',#181)LENGTH_UNIT()NAMED_UNIT(#184));
#76= (NAMED_UNIT(#186)PLANE_ANGLE_UNIT()SI_UNIT($,.RADIAN.));
#77= (NAMED_UNIT(#186)SOLID_ANGLE_UNIT()SI_UNIT($,.STERADIAN.));
#79=PRESENTATION_STYLE_ASSIGNMENT((#192));
#80=ADVANCED_FACE('',(#193),#194,.T.);
#81=PRESENTATION_STYLE_ASSIGNMENT((#195));
#82=VERTEX_POINT('',#196);
#83=PRESENTATION_STYLE_ASSIGNMENT((#197));
#84=EDGE_CURVE('',#154,#82,#198,.T.);
#85=PRESENTATION_STYLE_ASSIGNMENT((#199));
#86=EDGE_CURVE('',#82,#154,#200,.T.);
#87=PRESENTATION_STYLE_ASSIGNMENT((#201));
#88=ADVANCED_FACE('',(#202),#203,.F.);
#89=PRESENTATION_STYLE_ASSIGNMENT((#204));
#90=EDGE_CURVE('',#82,#144,#205,.T.);
#91=PRESENTATION_STYLE_ASSIGNMENT((#206));
#92=VERTEX_POINT('',#207);
#93=PRESENTATION_STYLE_ASSIGNMENT((#208));
#94=EDGE_CURVE('',#124,#92,#209,.T.);
#95=PRESENTATION_STYLE_ASSIGNMENT((#210));
#96=EDGE_CURVE('',#166,#106,#211,.T.);
#97=PRESENTATION_STYLE_ASSIGNMENT((#212));
#98=EDGE_CURVE('',#140,#126,#213,.T.);
#99=PRESENTATION_STYLE_ASSIGNMENT((#214));
#100=ADVANCED_FACE('',(#215,#216),#217,.T.);
#101=PRESENTATION_STYLE_ASSIGNMENT((#218));
#102=VERTEX_POINT('',#219);
#103=PRESENTATION_STYLE_ASSIGNMENT((#220));
#104=EDGE_CURVE('',#140,#120,#221,.T.);
#105=PRESENTATION_STYLE_ASSIGNMENT((#222));
#106=VERTEX_POINT('',#223);
#107=PRESENTATION_STYLE_ASSIGNMENT((#224));
#108=ADVANCED_FACE('',(#225),#226,.T.);
#109=PRESENTATION_STYLE_ASSIGNMENT((#227));
#110=ADVANCED_FACE('',(#228),#229,.T.);
#111=PRESENTATION_STYLE_ASSIGNMENT((#230));
#112=EDGE_CURVE('',#126,#152,#231,.T.);
#113=PRESENTATION_STYLE_ASSIGNMENT((#232));
#114=VERTEX_POINT('',#233);
#115=PRESENTATION_STYLE_ASSIGNMENT((#234));
#116=EDGE_CURVE('',#102,#92,#235,.T.);
#117=PRESENTATION_STYLE_ASSIGNMENT((#236));
#118=EDGE_CURVE('',#114,#124,#237,.T.);
#119=PRESENTATION_STYLE_ASSIGNMENT((#238));
#120=VERTEX_POINT('',#239);
#121=PRESENTATION_STYLE_ASSIGNMENT((#240));
#122=EDGE_CURVE('',#106,#102,#241,.T.);
#123=PRESENTATION_STYLE_ASSIGNMENT((#242));
#124=VERTEX_POINT('',#243);
#125=PRESENTATION_STYLE_ASSIGNMENT((#244));
#126=VERTEX_POINT('',#245);
#127=PRESENTATION_STYLE_ASSIGNMENT((#246));
#128=EDGE_CURVE('',#92,#166,#247,.T.);
#129=PRESENTATION_STYLE_ASSIGNMENT((#248));
#130=ADVANCED_FACE('',(#249),#250,.T.);
#131=PRESENTATION_STYLE_ASSIGNMENT((#251));
#132=ADVANCED_FACE('',(#252),#253,.T.);
#133=PRESENTATION_STYLE_ASSIGNMENT((#254));
#134=MANIFOLD_SOLID_BREP('2',#255);
#135=PRESENTATION_STYLE_ASSIGNMENT((#256));
#136=ADVANCED_FACE('',(#257),#258,.F.);
#137=PRESENTATION_STYLE_ASSIGNMENT((#259));
#138=EDGE_CURVE('',#124,#114,#260,.T.);
#139=PRESENTATION_STYLE_ASSIGNMENT((#261));
#140=VERTEX_POINT('',#262);
#141=PRESENTATION_STYLE_ASSIGNMENT((#263));
#142=MANIFOLD_SOLID_BREP('1',#264);
#143=PRESENTATION_STYLE_ASSIGNMENT((#265));
#144=VERTEX_POINT('',#266);
#145=PRESENTATION_STYLE_ASSIGNMENT((#267));
#146=ADVANCED_FACE('',(#268),#269,.T.);
#147=PRESENTATION_STYLE_ASSIGNMENT((#270));
#148=ADVANCED_FACE('',(#271),#272,.T.);
#149=PRESENTATION_STYLE_ASSIGNMENT((#273));
#150=EDGE_CURVE('',#102,#114,#274,.T.);
#151=PRESENTATION_STYLE_ASSIGNMENT((#275));
#152=VERTEX_POINT('',#276);
#153=PRESENTATION_STYLE_ASSIGNMENT((#277));
#154=VERTEX_POINT('',#278);
#155=PRESENTATION_STYLE_ASSIGNMENT((#279));
#156=ADVANCED_FACE('',(#280),#281,.T.);
#157=PRESENTATION_STYLE_ASSIGNMENT((#282));
#158=ADVANCED_FACE('',(#283),#284,.T.);
#159=PRESENTATION_STYLE_ASSIGNMENT((#285));
#160=EDGE_CURVE('',#152,#120,#286,.T.);
#161=PRESENTATION_STYLE_ASSIGNMENT((#287));
#162=EDGE_CURVE('',#120,#140,#288,.T.);
#163=PRESENTATION_STYLE_ASSIGNMENT((#289));
#164=EDGE_CURVE('',#144,#154,#290,.T.);
#165=PRESENTATION_STYLE_ASSIGNMENT((#291));
#166=VERTEX_POINT('',#292);
#167=PRESENTATION_STYLE_ASSIGNMENT((#293));
#168=EDGE_CURVE('',#92,#102,#294,.T.);
#169=PRESENTATION_STYLE_ASSIGNMENT((#295));
#170=EDGE_CURVE('',#106,#166,#296,.T.);
#171=PRESENTATION_STYLE_ASSIGNMENT((#297));
#172=EDGE_CURVE('',#152,#126,#298,.T.);
#173=PRODUCT('1','1','PART-1-DESC',(#299));
#174=PRODUCT_DEFINITION('NONE','NONE',#300,#2);
#175=AXIS2_PLACEMENT_3D('',#301,#302,#303);
#176=PRODUCT('2','2','PART-2-DESC',(#304));
#177=PRODUCT_DEFINITION('NONE','NONE',#305,#6);
#178=AXIS2_PLACEMENT_3D('',#306,#307,#308);
#181=LENGTH_MEASURE_WITH_UNIT(LENGTH_MEASURE(1.0),#309);
#184=DIMENSIONAL_EXPONENTS(1.0,0.0,0.0,0.0,0.0,0.0,0.0);
#186=DIMENSIONAL_EXPONENTS(0.0,0.0,0.0,0.0,0.0,0.0,0.0);
#192=SURFACE_STYLE_USAGE(.BOTH.,#310);
#193=FACE_OUTER_BOUND('',#311,.T.);
#194=CYLINDRICAL_SURFACE('',#312,4.7625);
#195=POINT_STYLE(' ',#313,POSITIVE_LENGTH_MEASURE(1.0E-006),#314);
#196=CARTESIAN_POINT('',(0.0,4.9949,-42.89));
#197=CURVE_STYLE('',#315,POSITIVE_LENGTH_MEASURE(1.0E-006),#316);
#198=CIRCLE('',#317,4.9949);
#199=CURVE_STYLE('',#318,POSITIVE_LENGTH_MEASURE(1.0E-006),#319);
#200=CIRCLE('',#320,4.9949);
#201=SURFACE_STYLE_USAGE(.BOTH.,#321);
#202=FACE_OUTER_BOUND('',#322,.T.);
#203=CONICAL_SURFACE('',#323,2.49745,1.56879428738681);
#204=CURVE_STYLE('',#324,POSITIVE_LENGTH_MEASURE(1.0E-006),#325);
#205=LINE('',#326,#327);
#206=POINT_STYLE(' ',#328,POSITIVE_LENGTH_MEASURE(1.0E-006),#329);
#207=CARTESIAN_POINT('',(5.83218776007907E-016,-4.7625,-0.783999999999999));
#208=CURVE_STYLE('',#330,POSITIVE_LENGTH_MEASURE(1.0E-006),#331);
#209=LINE('',#332,#333);
#210=CURVE_STYLE('',#334,POSITIVE_LENGTH_MEASURE(1.0E-006),#335);
#211=CIRCLE('',#336,4.30408388626344);
#212=CURVE_STYLE('',#337,POSITIVE_LENGTH_MEASURE(1.0E-006),#338);
#213=LINE('',#339,#340);
#214=SURFACE_STYLE_USAGE(.BOTH.,#341);
#215=FACE_OUTER_BOUND('',#342,.T.);
#216=FACE_BOUND('',#343,.T.);
#217=PLANE('',#344);
#218=POINT_STYLE(' ',#345,POSITIVE_LENGTH_MEASURE(1.0E-006),#346);
#219=CARTESIAN_POINT('',(0.0,4.7625,-0.783999999999999));
#220=CURVE_STYLE('',#347,POSITIVE_LENGTH_MEASURE(1.0E-006),#348);
#221=CIRCLE('',#349,5.0);
#222=POINT_STYLE(' ',#350,POSITIVE_LENGTH_MEASURE(1.0E-006),#351);
#223=CARTESIAN_POINT('',(0.0,4.30408388626344,0.00999999999999801));
#224=SURFACE_STYLE_USAGE(.BOTH.,#352);
#225=FACE_OUTER_BOUND('',#353,.T.);
#226=PLANE('',#354);
#227=SURFACE_STYLE_USAGE(.BOTH.,#355);
#228=FACE_OUTER_BOUND('',#356,.T.);
#229=CYLINDRICAL_SURFACE('',#357,4.7625);
#230=CURVE_STYLE('',#358,POSITIVE_LENGTH_MEASURE(1.0E-006),#359);
#231=CIRCLE('',#360,4.9999);
#232=POINT_STYLE(' ',#361,POSITIVE_LENGTH_MEASURE(1.0E-006),#362);
#233=CARTESIAN_POINT('',(-5.83218776007907E-016,4.7625,-42.89));
#234=CURVE_STYLE('',#363,POSITIVE_LENGTH_MEASURE(1.0E-006),#364);
#235=CIRCLE('',#365,4.7625);
#236=CURVE_STYLE('',#366,POSITIVE_LENGTH_MEASURE(1.0E-006),#367);
#237=CIRCLE('',#368,4.7625);
#238=POINT_STYLE(' ',#369,POSITIVE_LENGTH_MEASURE(1.0E-006),#370);
#239=CARTESIAN_POINT('',(0.0,5.0,-63.49));
#240=CURVE_STYLE('',#371,POSITIVE_LENGTH_MEASURE(1.0E-006),#372);
#241=LINE('',#373,#374);
#242=POINT_STYLE(' ',#375,POSITIVE_LENGTH_MEASURE(1.0E-006),#376);
#243=CARTESIAN_POINT('',(0.0,-4.7625,-42.89));
#244=POINT_STYLE(' ',#377,POSITIVE_LENGTH_MEASURE(1.0E-006),#378);
#245=CARTESIAN_POINT('',(6.1229093084765E-016,-4.9999,-42.89));
#246=CURVE_STYLE('',#379,POSITIVE_LENGTH_MEASURE(1.0E-006),#380);
#247=LINE('',#381,#382);
#248=SURFACE_STYLE_USAGE(.BOTH.,#383);
#249=FACE_OUTER_BOUND('',#384,.T.);
#250=CONICAL_SURFACE('',#385,4.53329194313172,0.523598775598301);
#251=SURFACE_STYLE_USAGE(.BOTH.,#386);
#252=FACE_OUTER_BOUND('',#387,.T.);
#253=PLANE('',#388);
#254=SURFACE_STYLE_USAGE(.BOTH.,#389);
#255=CLOSED_SHELL('',(#80,#148,#132,#146,#130,#110));
#256=SURFACE_STYLE_USAGE(.BOTH.,#390);
#257=FACE_OUTER_BOUND('',#391,.T.);
#258=CONICAL_SURFACE('',#392,2.49745,1.56879428738681);
#259=CURVE_STYLE('',#393,POSITIVE_LENGTH_MEASURE(1.0E-006),#394);
#260=CIRCLE('',#395,4.7625);
#261=POINT_STYLE(' ',#396,POSITIVE_LENGTH_MEASURE(1.0E-006),#397);
#262=CARTESIAN_POINT('',(6.12303176911189E-016,-5.0,-63.49));
#263=SURFACE_STYLE_USAGE(.BOTH.,#398);
#264=CLOSED_SHELL('',(#158,#88,#136,#100,#156,#108));
#265=POINT_STYLE(' ',#399,POSITIVE_LENGTH_MEASURE(1.0E-006),#400);
#266=CARTESIAN_POINT('',(0.0,0.0,-42.9));
#267=SURFACE_STYLE_USAGE(.BOTH.,#401);
#268=FACE_OUTER_BOUND('',#402,.T.);
#269=PLANE('',#403);
#270=SURFACE_STYLE_USAGE(.BOTH.,#404);
#271=FACE_OUTER_BOUND('',#405,.T.);
#272=CONICAL_SURFACE('',#406,4.53329194313172,0.523598775598301);
#273=CURVE_STYLE('',#407,POSITIVE_LENGTH_MEASURE(1.0E-006),#408);
#274=LINE('',#409,#410);
#275=POINT_STYLE(' ',#411,POSITIVE_LENGTH_MEASURE(1.0E-006),#412);
#276=CARTESIAN_POINT('',(0.0,4.9999,-42.89));
#277=POINT_STYLE(' ',#413,POSITIVE_LENGTH_MEASURE(1.0E-006),#414);
#278=CARTESIAN_POINT('',(6.11678627670739E-016,-4.9949,-42.89));
#279=SURFACE_STYLE_USAGE(.BOTH.,#415);
#280=FACE_OUTER_BOUND('',#416,.T.);
#281=CONICAL_SURFACE('',#417,4.99995,4.85436893198939E-006);
#282=SURFACE_STYLE_USAGE(.BOTH.,#418);
#283=FACE_OUTER_BOUND('',#419,.T.);
#284=CONICAL_SURFACE('',#420,4.99995,4.85436893198939E-006);
#285=CURVE_STYLE('',#421,POSITIVE_LENGTH_MEASURE(1.0E-006),#422);
#286=LINE('',#423,#424);
#287=CURVE_STYLE('',#425,POSITIVE_LENGTH_MEASURE(1.0E-006),#426);
#288=CIRCLE('',#427,5.0);
#289=CURVE_STYLE('',#428,POSITIVE_LENGTH_MEASURE(1.0E-006),#429);
#290=LINE('',#430,#431);
#291=POINT_STYLE(' ',#432,POSITIVE_LENGTH_MEASURE(1.0E-006),#433);
#292=CARTESIAN_POINT('',(5.27080847450271E-016,-4.30408388626344,0.00999999999999801));
#293=CURVE_STYLE('',#434,POSITIVE_LENGTH_MEASURE(1.0E-006),#435);
#294=CIRCLE('',#436,4.7625);
#295=CURVE_STYLE('',#437,POSITIVE_LENGTH_MEASURE(1.0E-006),#438);
#296=CIRCLE('',#439,4.30408388626344);
#297=CURVE_STYLE('',#440,POSITIVE_LENGTH_MEASURE(1.0E-006),#441);
#298=CIRCLE('',#442,4.9999);
#299=PRODUCT_CONTEXT('',#61,'mechanical');
#300=PRODUCT_DEFINITION_FORMATION_WITH_SPECIFIED_SOURCE(' ','NONE',#173,.NOT_KNOWN.);
#301=CARTESIAN_POINT('',(0.0,0.0,0.0));
#302=DIRECTION('',(0.0,0.0,1.0));
#303=DIRECTION('',(1.0,0.0,0.0));
#304=PRODUCT_CONTEXT('',#66,'mechanical');
#305=PRODUCT_DEFINITION_FORMATION_WITH_SPECIFIED_SOURCE(' ','NONE',#176,.NOT_KNOWN.);
#306=CARTESIAN_POINT('',(0.0,0.0,0.0));
#307=DIRECTION('',(0.0,0.0,1.0));
#308=DIRECTION('',(1.0,0.0,0.0));
#309= (NAMED_UNIT(#184)LENGTH_UNIT()SI_UNIT(.MILLI.,.METRE.));
#310=SURFACE_SIDE_STYLE('',(#444));
#311=EDGE_LOOP('',(#445,#446,#447,#448));
#312=AXIS2_PLACEMENT_3D('',#449,#450,#451);
#313=PRE_DEFINED_MARKER('');
#314=COLOUR_RGB('',0.800000011920929,0.800000011920929,0.800000011920929);
#315=DRAUGHTING_PRE_DEFINED_CURVE_FONT('continuous');
#316=COLOUR_RGB('',0.800000011920929,0.800000011920929,0.800000011920929);
#317=AXIS2_PLACEMENT_3D('',#452,#453,#454);
#318=DRAUGHTING_PRE_DEFINED_CURVE_FONT('continuous');
#319=COLOUR_RGB('',0.800000011920929,0.800000011920929,0.800000011920929);
#320=AXIS2_PLACEMENT_3D('',#455,#456,#457);
#321=SURFACE_SIDE_STYLE('',(#458));
#322=EDGE_LOOP('',(#459,#460,#461));
#323=AXIS2_PLACEMENT_3D('',#462,#463,#464);
#324=DRAUGHTING_PRE_DEFINED_CURVE_FONT('continuous');
#325=COLOUR_RGB('',0.800000011920929,0.800000011920929,0.800000011920929);
#326=CARTESIAN_POINT('',(-3.0583931383537E-016,2.49745,-42.895));
#327=VECTOR('',#465,1.0);
#328=PRE_DEFINED_MARKER('');
#329=COLOUR_RGB('',0.498039215803146,0.498039215803146,0.498039215803146);
#330=DRAUGHTING_PRE_DEFINED_CURVE_FONT('continuous');
#331=COLOUR_RGB('',0.498039215803146,0.498039215803146,0.498039215803146);
#332=CARTESIAN_POINT('',(5.83218776007907E-016,-4.7625,-16.837));
#333=VECTOR('',#466,1.0);
#334=DRAUGHTING_PRE_DEFINED_CURVE_FONT('continuous');
#335=COLOUR_RGB('',0.498039215803146,0.498039215803146,0.498039215803146);
#336=AXIS2_PLACEMENT_3D('',#467,#468,#469);
#337=DRAUGHTING_PRE_DEFINED_CURVE_FONT('continuous');
#338=COLOUR_RGB('',0.800000011920929,0.800000011920929,0.800000011920929);
#339=CARTESIAN_POINT('',(6.12297053879419E-016,-4.99995,-53.19));
#340=VECTOR('',#470,1.0);
#341=SURFACE_SIDE_STYLE('',(#471));
#342=EDGE_LOOP('',(#472,#473));
#343=EDGE_LOOP('',(#474,#475));
#344=AXIS2_PLACEMENT_3D('',#476,#477,#478);
#345=PRE_DEFINED_MARKER('');
#346=COLOUR_RGB('',0.498039215803146,0.498039215803146,0.498039215803146);
#347=DRAUGHTING_PRE_DEFINED_CURVE_FONT('continuous');
#348=COLOUR_RGB('',0.800000011920929,0.800000011920929,0.800000011920929);
#349=AXIS2_PLACEMENT_3D('',#479,#480,#481);
#350=PRE_DEFINED_MARKER('');
#351=COLOUR_RGB('',0.498039215803146,0.498039215803146,0.498039215803146);
#352=SURFACE_SIDE_STYLE('',(#482));
#353=EDGE_LOOP('',(#483,#484));
#354=AXIS2_PLACEMENT_3D('',#485,#486,#487);
#355=SURFACE_SIDE_STYLE('',(#488));
#356=EDGE_LOOP('',(#489,#490,#491,#492));
#357=AXIS2_PLACEMENT_3D('',#493,#494,#495);
#358=DRAUGHTING_PRE_DEFINED_CURVE_FONT('continuous');
#359=COLOUR_RGB('',0.800000011920929,0.800000011920929,0.800000011920929);
#360=AXIS2_PLACEMENT_3D('',#496,#497,#498);
#361=PRE_DEFINED_MARKER('');
#362=COLOUR_RGB('',0.498039215803146,0.498039215803146,0.498039215803146);
#363=DRAUGHTING_PRE_DEFINED_CURVE_FONT('continuous');
#364=COLOUR_RGB('',0.498039215803146,0.498039215803146,0.498039215803146);
#365=AXIS2_PLACEMENT_3D('',#499,#500,#501);
#366=DRAUGHTING_PRE_DEFINED_CURVE_FONT('continuous');
#367=COLOUR_RGB('',0.498039215803146,0.498039215803146,0.498039215803146);
#368=AXIS2_PLACEMENT_3D('',#502,#503,#504);
#369=PRE_DEFINED_MARKER('');
#370=COLOUR_RGB('',0.800000011920929,0.800000011920929,0.800000011920929);
#371=DRAUGHTING_PRE_DEFINED_CURVE_FONT('continuous');
#372=COLOUR_RGB('',0.498039215803146,0.498039215803146,0.498039215803146);
#373=CARTESIAN_POINT('',(-5.5514981172909E-016,4.53329194313172,-0.387));
#374=VECTOR('',#505,1.0);
#375=PRE_DEFINED_MARKER('');
#376=COLOUR_RGB('',0.498039215803146,0.498039215803146,0.498039215803146);
#377=PRE_DEFINED_MARKER('');
#378=COLOUR_RGB('',0.800000011920929,0.800000011920929,0.800000011920929);
#379=DRAUGHTING_PRE_DEFINED_CURVE_FONT('continuous');
#380=COLOUR_RGB('',0.498039215803146,0.498039215803146,0.498039215803146);
#381=CARTESIAN_POINT('',(5.55149811729089E-016,-4.53329194313172,-0.387));
#382=VECTOR('',#506,1.0);
#383=SURFACE_SIDE_STYLE('',(#507));
#384=EDGE_LOOP('',(#508,#509,#510,#511));
#385=AXIS2_PLACEMENT_3D('',#512,#513,#514);
#386=SURFACE_SIDE_STYLE('',(#515));
#387=EDGE_LOOP('',(#516,#517));
#388=AXIS2_PLACEMENT_3D('',#518,#519,#520);
#389=SURFACE_SIDE_STYLE('',(#521));
#390=SURFACE_SIDE_STYLE('',(#522));
#391=EDGE_LOOP('',(#523,#524,#525));
#392=AXIS2_PLACEMENT_3D('',#526,#527,#528);
#393=DRAUGHTING_PRE_DEFINED_CURVE_FONT('continuous');
#394=COLOUR_RGB('',0.498039215803146,0.498039215803146,0.498039215803146);
#395=AXIS2_PLACEMENT_3D('',#529,#530,#531);
#396=PRE_DEFINED_MARKER('');
#397=COLOUR_RGB('',0.800000011920929,0.800000011920929,0.800000011920929);
#398=SURFACE_SIDE_STYLE('',(#532));
#399=PRE_DEFINED_MARKER('');
#400=COLOUR_RGB('',0.800000011920929,0.800000011920929,0.800000011920929);
#401=SURFACE_SIDE_STYLE('',(#533));
#402=EDGE_LOOP('',(#534,#535));
#403=AXIS2_PLACEMENT_3D('',#536,#537,#538);
#404=SURFACE_SIDE_STYLE('',(#539));
#405=EDGE_LOOP('',(#540,#541,#542,#543));
#406=AXIS2_PLACEMENT_3D('',#544,#545,#546);
#407=DRAUGHTING_PRE_DEFINED_CURVE_FONT('continuous');
#408=COLOUR_RGB('',0.498039215803146,0.498039215803146,0.498039215803146);
#409=CARTESIAN_POINT('',(-5.83218776007907E-016,4.7625,-16.837));
#410=VECTOR('',#547,1.0);
#411=PRE_DEFINED_MARKER('');
#412=COLOUR_RGB('',0.800000011920929,0.800000011920929,0.800000011920929);
#413=PRE_DEFINED_MARKER('');
#414=COLOUR_RGB('',0.800000011920929,0.800000011920929,0.800000011920929);
#415=SURFACE_SIDE_STYLE('',(#548));
#416=EDGE_LOOP('',(#549,#550,#551,#552));
#417=AXIS2_PLACEMENT_3D('',#553,#554,#555);
#418=SURFACE_SIDE_STYLE('',(#556));
#419=EDGE_LOOP('',(#557,#558,#559,#560));
#420=AXIS2_PLACEMENT_3D('',#561,#562,#563);
#421=DRAUGHTING_PRE_DEFINED_CURVE_FONT('continuous');
#422=COLOUR_RGB('',0.800000011920929,0.800000011920929,0.800000011920929);
#423=CARTESIAN_POINT('',(-6.1229705387942E-016,4.99995,-53.19));
#424=VECTOR('',#564,1.0);
#425=DRAUGHTING_PRE_DEFINED_CURVE_FONT('continuous');
#426=COLOUR_RGB('',0.800000011920929,0.800000011920929,0.800000011920929);
#427=AXIS2_PLACEMENT_3D('',#565,#566,#567);
#428=DRAUGHTING_PRE_DEFINED_CURVE_FONT('continuous');
#429=COLOUR_RGB('',0.800000011920929,0.800000011920929,0.800000011920929);
#430=CARTESIAN_POINT('',(3.0583931383537E-016,-2.49745,-42.895));
#431=VECTOR('',#568,1.0);
#432=PRE_DEFINED_MARKER('');
#433=COLOUR_RGB('',0.498039215803146,0.498039215803146,0.498039215803146);
#434=DRAUGHTING_PRE_DEFINED_CURVE_FONT('continuous');
#435=COLOUR_RGB('',0.498039215803146,0.498039215803146,0.498039215803146);
#436=AXIS2_PLACEMENT_3D('',#569,#570,#571);
#437=DRAUGHTING_PRE_DEFINED_CURVE_FONT('continuous');
#438=COLOUR_RGB('',0.498039215803146,0.498039215803146,0.498039215803146);
#439=AXIS2_PLACEMENT_3D('',#572,#573,#574);
#440=DRAUGHTING_PRE_DEFINED_CURVE_FONT('continuous');
#441=COLOUR_RGB('',0.800000011920929,0.800000011920929,0.800000011920929);
#442=AXIS2_PLACEMENT_3D('',#575,#576,#577);
#444=SURFACE_STYLE_FILL_AREA(#578);
#445=ORIENTED_EDGE('',*,*,#150,.F.);
#446=ORIENTED_EDGE('',*,*,#116,.T.);
#447=ORIENTED_EDGE('',*,*,#94,.F.);
#448=ORIENTED_EDGE('',*,*,#118,.F.);
#449=CARTESIAN_POINT('',(0.0,0.0,-16.837));
#450=DIRECTION('',(-0.0,-0.0,1.0));
#451=DIRECTION('',(0.0,1.0,0.0));
#452=CARTESIAN_POINT('',(0.0,0.0,-42.89));
#453=DIRECTION('',(0.0,0.0,-1.0));
#454=DIRECTION('',(0.0,1.0,0.0));
#455=CARTESIAN_POINT('',(0.0,0.0,-42.89));
#456=DIRECTION('',(0.0,0.0,-1.0));
#457=DIRECTION('',(0.0,1.0,0.0));
#458=SURFACE_STYLE_FILL_AREA(#579);
#459=ORIENTED_EDGE('',*,*,#164,.F.);
#460=ORIENTED_EDGE('',*,*,#90,.F.);
#461=ORIENTED_EDGE('',*,*,#84,.F.);
#462=CARTESIAN_POINT('',(0.0,0.0,-42.895));
#463=DIRECTION('',(-0.0,-0.0,1.0));
#464=DIRECTION('',(0.0,1.0,0.0));
#465=DIRECTION('',(1.224603899613E-016,-0.999997995919774,-0.00200203807067198));
#466=DIRECTION('',(-0.0,-0.0,1.0));
#467=CARTESIAN_POINT('',(0.0,0.0,0.00999999999999801));
#468=DIRECTION('',(0.0,0.0,-1.0));
#469=DIRECTION('',(0.0,1.0,0.0));
#470=DIRECTION('',(-5.94469103788881E-022,4.85436893197033E-006,0.999999999988218));
#471=SURFACE_STYLE_FILL_AREA(#580);
#472=ORIENTED_EDGE('',*,*,#172,.F.);
#473=ORIENTED_EDGE('',*,*,#112,.F.);
#474=ORIENTED_EDGE('',*,*,#86,.T.);
#475=ORIENTED_EDGE('',*,*,#84,.T.);
#476=CARTESIAN_POINT('',(0.0,4.9974,-42.89));
#477=DIRECTION('',(-0.0,0.0,1.0));
#478=DIRECTION('',(0.0,-1.0,0.0));
#479=CARTESIAN_POINT('',(0.0,0.0,-63.49));
#480=DIRECTION('',(0.0,0.0,-1.0));
#481=DIRECTION('',(0.0,1.0,0.0));
#482=SURFACE_STYLE_FILL_AREA(#581);
#483=ORIENTED_EDGE('',*,*,#162,.T.);
#484=ORIENTED_EDGE('',*,*,#104,.T.);
#485=CARTESIAN_POINT('',(0.0,2.4975,-63.49));
#486=DIRECTION('',(0.0,0.0,-1.0));
#487=DIRECTION('',(0.0,1.0,0.0));
#488=SURFACE_STYLE_FILL_AREA(#582);
#489=ORIENTED_EDGE('',*,*,#150,.T.);
#490=ORIENTED_EDGE('',*,*,#138,.F.);
#491=ORIENTED_EDGE('',*,*,#94,.T.);
#492=ORIENTED_EDGE('',*,*,#168,.T.);
#493=CARTESIAN_POINT('',(0.0,0.0,-16.837));
#494=DIRECTION('',(-0.0,-0.0,1.0));
#495=DIRECTION('',(0.0,1.0,0.0));
#496=CARTESIAN_POINT('',(0.0,0.0,-42.89));
#497=DIRECTION('',(0.0,0.0,-1.0));
#498=DIRECTION('',(0.0,1.0,0.0));
#499=CARTESIAN_POINT('',(0.0,0.0,-0.783999999999999));
#500=DIRECTION('',(0.0,0.0,-1.0));
#501=DIRECTION('',(0.0,1.0,0.0));
#502=CARTESIAN_POINT('',(0.0,0.0,-42.89));
#503=DIRECTION('',(0.0,0.0,-1.0));
#504=DIRECTION('',(0.0,-1.0,0.0));
#505=DIRECTION('',(-6.12303176911191E-017,0.500000000000002,-0.866025403784438));
#506=DIRECTION('',(-6.12303176911191E-017,0.500000000000002,0.866025403784438));
#507=SURFACE_STYLE_FILL_AREA(#583);
#508=ORIENTED_EDGE('',*,*,#122,.T.);
#509=ORIENTED_EDGE('',*,*,#168,.F.);
#510=ORIENTED_EDGE('',*,*,#128,.T.);
#511=ORIENTED_EDGE('',*,*,#96,.T.);
#512=CARTESIAN_POINT('',(0.0,0.0,-0.387));
#513=DIRECTION('',(0.0,-0.0,-1.0));
#514=DIRECTION('',(0.0,1.0,0.0));
#515=SURFACE_STYLE_FILL_AREA(#584);
#516=ORIENTED_EDGE('',*,*,#138,.T.);
#517=ORIENTED_EDGE('',*,*,#118,.T.);
#518=CARTESIAN_POINT('',(0.0,0.0,-42.89));
#519=DIRECTION('',(0.0,0.0,-1.0));
#520=DIRECTION('',(0.0,-1.0,0.0));
#521=SURFACE_STYLE_FILL_AREA(#585);
#522=SURFACE_STYLE_FILL_AREA(#586);
#523=ORIENTED_EDGE('',*,*,#164,.T.);
#524=ORIENTED_EDGE('',*,*,#86,.F.);
#525=ORIENTED_EDGE('',*,*,#90,.T.);
#526=CARTESIAN_POINT('',(0.0,0.0,-42.895));
#527=DIRECTION('',(-0.0,-0.0,1.0));
#528=DIRECTION('',(0.0,1.0,0.0));
#529=CARTESIAN_POINT('',(0.0,0.0,-42.89));
#530=DIRECTION('',(0.0,0.0,-1.0));
#531=DIRECTION('',(0.0,-1.0,0.0));
#532=SURFACE_STYLE_FILL_AREA(#587);
#533=SURFACE_STYLE_FILL_AREA(#588);
#534=ORIENTED_EDGE('',*,*,#170,.F.);
#535=ORIENTED_EDGE('',*,*,#96,.F.);
#536=CARTESIAN_POINT('',(0.0,2.15204194313172,0.00999999999999801));
#537=DIRECTION('',(-0.0,0.0,1.0));
#538=DIRECTION('',(0.0,-1.0,0.0));
#539=SURFACE_STYLE_FILL_AREA(#589);
#540=ORIENTED_EDGE('',*,*,#122,.F.);
#541=ORIENTED_EDGE('',*,*,#170,.T.);
#542=ORIENTED_EDGE('',*,*,#128,.F.);
#543=ORIENTED_EDGE('',*,*,#116,.F.);
#544=CARTESIAN_POINT('',(0.0,0.0,-0.387));
#545=DIRECTION('',(0.0,-0.0,-1.0));
#546=DIRECTION('',(0.0,1.0,0.0));
#547=DIRECTION('',(0.0,0.0,-1.0));
#548=SURFACE_STYLE_FILL_AREA(#590);
#549=ORIENTED_EDGE('',*,*,#160,.T.);
#550=ORIENTED_EDGE('',*,*,#104,.F.);
#551=ORIENTED_EDGE('',*,*,#98,.T.);
#552=ORIENTED_EDGE('',*,*,#112,.T.);
#553=CARTESIAN_POINT('',(0.0,0.0,-53.19));
#554=DIRECTION('',(0.0,-0.0,-1.0));
#555=DIRECTION('',(0.0,1.0,0.0));
#556=SURFACE_STYLE_FILL_AREA(#591);
#557=ORIENTED_EDGE('',*,*,#160,.F.);
#558=ORIENTED_EDGE('',*,*,#172,.T.);
#559=ORIENTED_EDGE('',*,*,#98,.F.);
#560=ORIENTED_EDGE('',*,*,#162,.F.);
#561=CARTESIAN_POINT('',(0.0,0.0,-53.19));
#562=DIRECTION('',(0.0,-0.0,-1.0));
#563=DIRECTION('',(0.0,1.0,0.0));
#564=DIRECTION('',(-5.94469103788881E-022,4.85436893197033E-006,-0.999999999988218));
#565=CARTESIAN_POINT('',(0.0,0.0,-63.49));
#566=DIRECTION('',(0.0,0.0,-1.0));
#567=DIRECTION('',(0.0,1.0,0.0));
#568=DIRECTION('',(1.224603899613E-016,-0.999997995919774,0.00200203807067198));
#569=CARTESIAN_POINT('',(0.0,0.0,-0.783999999999999));
#570=DIRECTION('',(0.0,0.0,-1.0));
#571=DIRECTION('',(0.0,1.0,0.0));
#572=CARTESIAN_POINT('',(0.0,0.0,0.00999999999999801));
#573=DIRECTION('',(0.0,0.0,-1.0));
#574=DIRECTION('',(0.0,1.0,0.0));
#575=CARTESIAN_POINT('',(0.0,0.0,-42.89));
#576=DIRECTION('',(0.0,0.0,-1.0));
#577=DIRECTION('',(0.0,1.0,0.0));
#578=FILL_AREA_STYLE('',(#592));
#579=FILL_AREA_STYLE('',(#593));
#580=FILL_AREA_STYLE('',(#594));
#581=FILL_AREA_STYLE('',(#595));
#582=FILL_AREA_STYLE('',(#596));
#583=FILL_AREA_STYLE('',(#597));
#584=FILL_AREA_STYLE('',(#598));
#585=FILL_AREA_STYLE('',(#599));
#586=FILL_AREA_STYLE('',(#600));
#587=FILL_AREA_STYLE('',(#601));
#588=FILL_AREA_STYLE('',(#602));
#589=FILL_AREA_STYLE('',(#603));
#590=FILL_AREA_STYLE('',(#604));
#591=FILL_AREA_STYLE('',(#605));
#592=FILL_AREA_STYLE_COLOUR('',#606);
#593=FILL_AREA_STYLE_COLOUR('',#607);
#594=FILL_AREA_STYLE_COLOUR('',#608);
#595=FILL_AREA_STYLE_COLOUR('',#609);
#596=FILL_AREA_STYLE_COLOUR('',#610);
#597=FILL_AREA_STYLE_COLOUR('',#611);
#598=FILL_AREA_STYLE_COLOUR('',#612);
#599=FILL_AREA_STYLE_COLOUR('',#613);
#600=FILL_AREA_STYLE_COLOUR('',#614);
#601=FILL_AREA_STYLE_COLOUR('',#615);
#602=FILL_AREA_STYLE_COLOUR('',#616);
#603=FILL_AREA_STYLE_COLOUR('',#617);
#604=FILL_AREA_STYLE_COLOUR('',#618);
#605=FILL_AREA_STYLE_COLOUR('',#619);
#606=COLOUR_RGB('',0.498039215803146,0.498039215803146,0.498039215803146);
#607=COLOUR_RGB('',0.800000011920929,0.800000011920929,0.800000011920929);
#608=COLOUR_RGB('',0.800000011920929,0.800000011920929,0.800000011920929);
#609=COLOUR_RGB('',0.800000011920929,0.800000011920929,0.800000011920929);
#610=COLOUR_RGB('',0.498039215803146,0.498039215803146,0.498039215803146);
#611=COLOUR_RGB('',0.498039215803146,0.498039215803146,0.498039215803146);
#612=COLOUR_RGB('',0.498039215803146,0.498039215803146,0.498039215803146);
#613=COLOUR_RGB('',0.800000011920929,0.800000011920929,0.800000011920929);
#614=COLOUR_RGB('',0.800000011920929,0.800000011920929,0.800000011920929);
#615=COLOUR_RGB('',0.800000011920929,0.800000011920929,0.800000011920929);
#616=COLOUR_RGB('',0.498039215803146,0.498039215803146,0.498039215803146);
#617=COLOUR_RGB('',0.498039215803146,0.498039215803146,0.498039215803146);
#618=COLOUR_RGB('',0.800000011920929,0.800000011920929,0.800000011920929);
#619=COLOUR_RGB('',0.800000011920929,0.800000011920929,0.800000011920929);
#620=AXIS2_PLACEMENT_3D('PCS',#621,#622,#623);
#621=CARTESIAN_POINT('',(0.0,0.0,0.0));
#622=DIRECTION('',(0.0,0.0,1.0));
#623=DIRECTION('',(1.0,0.0,0.0));
#624=AXIS2_PLACEMENT_3D('CIP',#625,#626,#627);
#625=CARTESIAN_POINT('',(0.0,0.0,-63.5));
#626=DIRECTION('',(0.0,0.0,1.0));
#627=DIRECTION('',(1.0,0.0,0.0));
#628=AXIS2_PLACEMENT_3D('CRP',#629,#630,#631);
#629=CARTESIAN_POINT('',(-5.0,0.0,-63.5));
#630=DIRECTION('',(0.0,0.0,1.0));
#631=DIRECTION('',(1.0,0.0,0.0));
#632=AXIS2_PLACEMENT_3D('MCS',#633,#634,#635);
#633=CARTESIAN_POINT('',(0.0,0.0,-32.9));
#634=DIRECTION('',(0.0,0.0,1.0));
#635=DIRECTION('',(1.0,0.0,0.0));
#636=CONSTRUCTIVE_GEOMETRY_REPRESENTATION_RELATIONSHIP('coordinate systems',$,#65,#637);
#637=CONSTRUCTIVE_GEOMETRY_REPRESENTATION('coordinate systems',(#620,#624,#628,#632),#10);
ENDSEC;
END-ISO-10303-21;
