ISO-10303-21;
HEADER;
FILE_DESCRIPTION(('no description'),'unknown implementation level');
FILE_NAME('solidXq0G8TQ_my5qd3zjo6YdgEUNzA4_1.STP','  ',('CIMSOURCE GmbH'),('CADClick - KiM GmbH - www.kimweb.de'),'unknown preprocess','ACIS','unknown authorization');
FILE_SCHEMA(('automotive_design'));
ENDSEC;
DATA;
#1=MECHANICAL_DESIGN_GEOMETRIC_PRESENTATION_REPRESENTATION(' ',(#14,#15,#16,#17,#18,#19,#20,#21,#22,#23,#24,#25,#26,#27,#28,#29,#30,#31,#32,#33,#34,#35,#36,#37,#38,#39,#40,#41,#42,#43,#44,#45,#46,#47,#48,#49,#50,#51,#52,#53,#54,#55,#56,#57,#58,#59,#60),#10);
#2=PRODUCT_DEFINITION_CONTEXT('',#61,'design');
#3=APPLICATION_PROTOCOL_DEFINITION('INTERNATIONAL STANDARD','automotive_design',1994,#61);
#4=PRODUCT_CATEGORY_RELATIONSHIP('NONE','NONE',#62,#63);
#5=SHAPE_DEFINITION_REPRESENTATION(#64,#65);
#6=PRODUCT_DEFINITION_CONTEXT('',#66,'design');
#7=APPLICATION_PROTOCOL_DEFINITION('INTERNATIONAL STANDARD','automotive_design',1994,#66);
#8=PRODUCT_CATEGORY_RELATIONSHIP('NONE','NONE',#67,#68);
#9=SHAPE_DEFINITION_REPRESENTATION(#69,#70);
#10= (GEOMETRIC_REPRESENTATION_CONTEXT(3)GLOBAL_UNCERTAINTY_ASSIGNED_CONTEXT((#73))GLOBAL_UNIT_ASSIGNED_CONTEXT((#75,#76,#77))REPRESENTATION_CONTEXT('NONE','WORKSPACE'));
#14=STYLED_ITEM('',(#79),#80);
#15=STYLED_ITEM('',(#81),#82);
#16=STYLED_ITEM('',(#83),#84);
#17=STYLED_ITEM('',(#85),#86);
#18=STYLED_ITEM('',(#87),#88);
#19=STYLED_ITEM('',(#89),#90);
#20=STYLED_ITEM('',(#91),#92);
#21=STYLED_ITEM('',(#93),#94);
#22=STYLED_ITEM('',(#95),#96);
#23=STYLED_ITEM('',(#97),#98);
#24=STYLED_ITEM('',(#99),#100);
#25=STYLED_ITEM('',(#101),#102);
#26=STYLED_ITEM('',(#103),#104);
#27=STYLED_ITEM('',(#105),#106);
#28=STYLED_ITEM('',(#107),#108);
#29=STYLED_ITEM('',(#109),#110);
#30=STYLED_ITEM('',(#111),#112);
#31=STYLED_ITEM('',(#113),#114);
#32=STYLED_ITEM('',(#115),#116);
#33=STYLED_ITEM('',(#117),#118);
#34=STYLED_ITEM('',(#119),#120);
#35=STYLED_ITEM('',(#121),#122);
#36=STYLED_ITEM('',(#123),#124);
#37=STYLED_ITEM('',(#125),#126);
#38=STYLED_ITEM('',(#127),#128);
#39=STYLED_ITEM('',(#129),#130);
#40=STYLED_ITEM('',(#131),#132);
#41=STYLED_ITEM('',(#133),#134);
#42=STYLED_ITEM('',(#135),#136);
#43=STYLED_ITEM('',(#137),#138);
#44=STYLED_ITEM('',(#139),#140);
#45=STYLED_ITEM('',(#141),#142);
#46=STYLED_ITEM('',(#143),#144);
#47=STYLED_ITEM('',(#145),#146);
#48=STYLED_ITEM('',(#147),#148);
#49=STYLED_ITEM('',(#149),#150);
#50=STYLED_ITEM('',(#151),#152);
#51=STYLED_ITEM('',(#153),#154);
#52=STYLED_ITEM('',(#155),#156);
#53=STYLED_ITEM('',(#157),#158);
#54=STYLED_ITEM('',(#159),#160);
#55=STYLED_ITEM('',(#161),#162);
#56=STYLED_ITEM('',(#163),#164);
#57=STYLED_ITEM('',(#165),#166);
#58=STYLED_ITEM('',(#167),#168);
#59=STYLED_ITEM('',(#169),#170);
#60=STYLED_ITEM('',(#171),#172);
#61=APPLICATION_CONTEXT(' ');
#62=PRODUCT_CATEGORY('part','NONE');
#63=PRODUCT_RELATED_PRODUCT_CATEGORY('detail',' ',(#173));
#64=PRODUCT_DEFINITION_SHAPE('NONE','NONE',#174);
#65=ADVANCED_BREP_SHAPE_REPRESENTATION('1',(#136,#175),#10);
#66=APPLICATION_CONTEXT(' ');
#67=PRODUCT_CATEGORY('part','NONE');
#68=PRODUCT_RELATED_PRODUCT_CATEGORY('detail',' ',(#176));
#69=PRODUCT_DEFINITION_SHAPE('NONE','NONE',#177);
#70=ADVANCED_BREP_SHAPE_REPRESENTATION('2',(#92,#178),#10);
#73=UNCERTAINTY_MEASURE_WITH_UNIT(LENGTH_MEASURE(1.0E-006),#75,'','');
#75= (CONVERSION_BASED_UNIT('MILLIMETRE',#181)LENGTH_UNIT()NAMED_UNIT(#184));
#76= (NAMED_UNIT(#186)PLANE_ANGLE_UNIT()SI_UNIT($,.RADIAN.));
#77= (NAMED_UNIT(#186)SOLID_ANGLE_UNIT()SI_UNIT($,.STERADIAN.));
#79=PRESENTATION_STYLE_ASSIGNMENT((#192));
#80=VERTEX_POINT('',#193);
#81=PRESENTATION_STYLE_ASSIGNMENT((#194));
#82=ADVANCED_FACE('',(#195),#196,.T.);
#83=PRESENTATION_STYLE_ASSIGNMENT((#197));
#84=EDGE_CURVE('',#88,#110,#198,.T.);
#85=PRESENTATION_STYLE_ASSIGNMENT((#199));
#86=EDGE_CURVE('',#154,#102,#200,.T.);
#87=PRESENTATION_STYLE_ASSIGNMENT((#201));
#88=VERTEX_POINT('',#202);
#89=PRESENTATION_STYLE_ASSIGNMENT((#203));
#90=EDGE_CURVE('',#132,#100,#204,.T.);
#91=PRESENTATION_STYLE_ASSIGNMENT((#205));
#92=MANIFOLD_SOLID_BREP('2',#206);
#93=PRESENTATION_STYLE_ASSIGNMENT((#207));
#94=EDGE_CURVE('',#154,#126,#208,.T.);
#95=PRESENTATION_STYLE_ASSIGNMENT((#209));
#96=ADVANCED_FACE('',(#210),#211,.T.);
#97=PRESENTATION_STYLE_ASSIGNMENT((#212));
#98=EDGE_CURVE('',#164,#140,#213,.T.);
#99=PRESENTATION_STYLE_ASSIGNMENT((#214));
#100=VERTEX_POINT('',#215);
#101=PRESENTATION_STYLE_ASSIGNMENT((#216));
#102=VERTEX_POINT('',#217);
#103=PRESENTATION_STYLE_ASSIGNMENT((#218));
#104=VERTEX_POINT('',#219);
#105=PRESENTATION_STYLE_ASSIGNMENT((#220));
#106=EDGE_CURVE('',#126,#104,#221,.T.);
#107=PRESENTATION_STYLE_ASSIGNMENT((#222));
#108=EDGE_CURVE('',#152,#80,#223,.T.);
#109=PRESENTATION_STYLE_ASSIGNMENT((#224));
#110=VERTEX_POINT('',#225);
#111=PRESENTATION_STYLE_ASSIGNMENT((#226));
#112=ADVANCED_FACE('',(#227,#228),#229,.T.);
#113=PRESENTATION_STYLE_ASSIGNMENT((#230));
#114=ADVANCED_FACE('',(#231),#232,.T.);
#115=PRESENTATION_STYLE_ASSIGNMENT((#233));
#116=VERTEX_POINT('',#234);
#117=PRESENTATION_STYLE_ASSIGNMENT((#235));
#118=EDGE_CURVE('',#110,#164,#236,.T.);
#119=PRESENTATION_STYLE_ASSIGNMENT((#237));
#120=EDGE_CURVE('',#80,#152,#238,.T.);
#121=PRESENTATION_STYLE_ASSIGNMENT((#239));
#122=EDGE_CURVE('',#104,#126,#240,.T.);
#123=PRESENTATION_STYLE_ASSIGNMENT((#241));
#124=EDGE_CURVE('',#100,#132,#242,.T.);
#125=PRESENTATION_STYLE_ASSIGNMENT((#243));
#126=VERTEX_POINT('',#244);
#127=PRESENTATION_STYLE_ASSIGNMENT((#245));
#128=ADVANCED_FACE('',(#246),#247,.T.);
#129=PRESENTATION_STYLE_ASSIGNMENT((#248));
#130=EDGE_CURVE('',#100,#104,#249,.T.);
#131=PRESENTATION_STYLE_ASSIGNMENT((#250));
#132=VERTEX_POINT('',#251);
#133=PRESENTATION_STYLE_ASSIGNMENT((#252));
#134=EDGE_CURVE('',#102,#154,#253,.T.);
#135=PRESENTATION_STYLE_ASSIGNMENT((#254));
#136=MANIFOLD_SOLID_BREP('1',#255);
#137=PRESENTATION_STYLE_ASSIGNMENT((#256));
#138=ADVANCED_FACE('',(#257),#258,.F.);
#139=PRESENTATION_STYLE_ASSIGNMENT((#259));
#140=VERTEX_POINT('',#260);
#141=PRESENTATION_STYLE_ASSIGNMENT((#261));
#142=EDGE_CURVE('',#140,#88,#262,.T.);
#143=PRESENTATION_STYLE_ASSIGNMENT((#263));
#144=EDGE_CURVE('',#104,#102,#264,.T.);
#145=PRESENTATION_STYLE_ASSIGNMENT((#265));
#146=ADVANCED_FACE('',(#266),#267,.T.);
#147=PRESENTATION_STYLE_ASSIGNMENT((#268));
#148=EDGE_CURVE('',#140,#164,#269,.T.);
#149=PRESENTATION_STYLE_ASSIGNMENT((#270));
#150=ADVANCED_FACE('',(#271),#272,.T.);
#151=PRESENTATION_STYLE_ASSIGNMENT((#273));
#152=VERTEX_POINT('',#274);
#153=PRESENTATION_STYLE_ASSIGNMENT((#275));
#154=VERTEX_POINT('',#276);
#155=PRESENTATION_STYLE_ASSIGNMENT((#277));
#156=ADVANCED_FACE('',(#278),#279,.F.);
#157=PRESENTATION_STYLE_ASSIGNMENT((#280));
#158=EDGE_CURVE('',#116,#80,#281,.T.);
#159=PRESENTATION_STYLE_ASSIGNMENT((#282));
#160=ADVANCED_FACE('',(#283),#284,.T.);
#161=PRESENTATION_STYLE_ASSIGNMENT((#285));
#162=EDGE_CURVE('',#152,#116,#286,.T.);
#163=PRESENTATION_STYLE_ASSIGNMENT((#287));
#164=VERTEX_POINT('',#288);
#165=PRESENTATION_STYLE_ASSIGNMENT((#289));
#166=EDGE_CURVE('',#110,#88,#290,.T.);
#167=PRESENTATION_STYLE_ASSIGNMENT((#291));
#168=ADVANCED_FACE('',(#292),#293,.T.);
#169=PRESENTATION_STYLE_ASSIGNMENT((#294));
#170=ADVANCED_FACE('',(#295),#296,.T.);
#171=PRESENTATION_STYLE_ASSIGNMENT((#297));
#172=EDGE_CURVE('',#126,#132,#298,.T.);
#173=PRODUCT('1','1','PART-1-DESC',(#299));
#174=PRODUCT_DEFINITION('NONE','NONE',#300,#2);
#175=AXIS2_PLACEMENT_3D('',#301,#302,#303);
#176=PRODUCT('2','2','PART-2-DESC',(#304));
#177=PRODUCT_DEFINITION('NONE','NONE',#305,#6);
#178=AXIS2_PLACEMENT_3D('',#306,#307,#308);
#181=LENGTH_MEASURE_WITH_UNIT(LENGTH_MEASURE(1.0),#309);
#184=DIMENSIONAL_EXPONENTS(1.0,0.0,0.0,0.0,0.0,0.0,0.0);
#186=DIMENSIONAL_EXPONENTS(0.0,0.0,0.0,0.0,0.0,0.0,0.0);
#192=POINT_STYLE(' ',#310,POSITIVE_LENGTH_MEASURE(1.0E-006),#311);
#193=CARTESIAN_POINT('',(6.72908945361858E-016,-5.4949,-42.89));
#194=SURFACE_STYLE_USAGE(.BOTH.,#312);
#195=FACE_OUTER_BOUND('',#313,.T.);
#196=CONICAL_SURFACE('',#314,5.49995,4.85436893198939E-006);
#197=CURVE_STYLE('',#315,POSITIVE_LENGTH_MEASURE(1.0E-006),#316);
#198=CIRCLE('',#317,5.4999);
#199=CURVE_STYLE('',#318,POSITIVE_LENGTH_MEASURE(1.0E-006),#319);
#200=CIRCLE('',#320,4.7625);
#201=POINT_STYLE(' ',#321,POSITIVE_LENGTH_MEASURE(1.0E-006),#322);
#202=CARTESIAN_POINT('',(6.73521248538769E-016,-5.4999,-42.89));
#203=CURVE_STYLE('',#323,POSITIVE_LENGTH_MEASURE(1.0E-006),#324);
#204=CIRCLE('',#325,4.30408388626344);
#205=SURFACE_STYLE_USAGE(.BOTH.,#326);
#206=CLOSED_SHELL('',(#168,#160,#170,#146,#96,#128));
#207=CURVE_STYLE('',#327,POSITIVE_LENGTH_MEASURE(1.0E-006),#328);
#208=LINE('',#329,#330);
#209=SURFACE_STYLE_USAGE(.BOTH.,#331);
#210=FACE_OUTER_BOUND('',#332,.T.);
#211=CONICAL_SURFACE('',#333,4.53329194313172,0.523598775598299);
#212=CURVE_STYLE('',#334,POSITIVE_LENGTH_MEASURE(1.0E-006),#335);
#213=CIRCLE('',#336,5.5);
#214=POINT_STYLE(' ',#337,POSITIVE_LENGTH_MEASURE(1.0E-006),#338);
#215=CARTESIAN_POINT('',(0.0,4.30408388626344,0.0100000000000016));
#216=POINT_STYLE(' ',#339,POSITIVE_LENGTH_MEASURE(1.0E-006),#340);
#217=CARTESIAN_POINT('',(-5.83218776007907E-016,4.7625,-42.89));
#218=POINT_STYLE(' ',#341,POSITIVE_LENGTH_MEASURE(1.0E-006),#342);
#219=CARTESIAN_POINT('',(0.0,4.7625,-0.783999999999999));
#220=CURVE_STYLE('',#343,POSITIVE_LENGTH_MEASURE(1.0E-006),#344);
#221=CIRCLE('',#345,4.7625);
#222=CURVE_STYLE('',#346,POSITIVE_LENGTH_MEASURE(1.0E-006),#347);
#223=CIRCLE('',#348,5.4949);
#224=POINT_STYLE(' ',#349,POSITIVE_LENGTH_MEASURE(1.0E-006),#350);
#225=CARTESIAN_POINT('',(0.0,5.4999,-42.89));
#226=SURFACE_STYLE_USAGE(.BOTH.,#351);
#227=FACE_OUTER_BOUND('',#352,.T.);
#228=FACE_BOUND('',#353,.T.);
#229=PLANE('',#354);
#230=SURFACE_STYLE_USAGE(.BOTH.,#355);
#231=FACE_OUTER_BOUND('',#356,.T.);
#232=PLANE('',#357);
#233=POINT_STYLE(' ',#358,POSITIVE_LENGTH_MEASURE(1.0E-006),#359);
#234=CARTESIAN_POINT('',(0.0,0.0,-42.9));
#235=CURVE_STYLE('',#360,POSITIVE_LENGTH_MEASURE(1.0E-006),#361);
#236=LINE('',#362,#363);
#237=CURVE_STYLE('',#364,POSITIVE_LENGTH_MEASURE(1.0E-006),#365);
#238=CIRCLE('',#366,5.4949);
#239=CURVE_STYLE('',#367,POSITIVE_LENGTH_MEASURE(1.0E-006),#368);
#240=CIRCLE('',#369,4.7625);
#241=CURVE_STYLE('',#370,POSITIVE_LENGTH_MEASURE(1.0E-006),#371);
#242=CIRCLE('',#372,4.30408388626344);
#243=POINT_STYLE(' ',#373,POSITIVE_LENGTH_MEASURE(1.0E-006),#374);
#244=CARTESIAN_POINT('',(5.83218776007907E-016,-4.7625,-0.783999999999999));
#245=SURFACE_STYLE_USAGE(.BOTH.,#375);
#246=FACE_OUTER_BOUND('',#376,.T.);
#247=CYLINDRICAL_SURFACE('',#377,4.7625);
#248=CURVE_STYLE('',#378,POSITIVE_LENGTH_MEASURE(1.0E-006),#379);
#249=LINE('',#380,#381);
#250=POINT_STYLE(' ',#382,POSITIVE_LENGTH_MEASURE(1.0E-006),#383);
#251=CARTESIAN_POINT('',(5.27080847450272E-016,-4.30408388626344,0.0100000000000016));
#252=CURVE_STYLE('',#384,POSITIVE_LENGTH_MEASURE(1.0E-006),#385);
#253=CIRCLE('',#386,4.7625);
#254=SURFACE_STYLE_USAGE(.BOTH.,#387);
#255=CLOSED_SHELL('',(#82,#138,#156,#112,#150,#114));
#256=SURFACE_STYLE_USAGE(.BOTH.,#388);
#257=FACE_OUTER_BOUND('',#389,.T.);
#258=CONICAL_SURFACE('',#390,2.74745,1.5689764594706);
#259=POINT_STYLE(' ',#391,POSITIVE_LENGTH_MEASURE(1.0E-006),#392);
#260=CARTESIAN_POINT('',(6.73533494602307E-016,-5.5,-63.49));
#261=CURVE_STYLE('',#393,POSITIVE_LENGTH_MEASURE(1.0E-006),#394);
#262=LINE('',#395,#396);
#263=CURVE_STYLE('',#397,POSITIVE_LENGTH_MEASURE(1.0E-006),#398);
#264=LINE('',#399,#400);
#265=SURFACE_STYLE_USAGE(.BOTH.,#401);
#266=FACE_OUTER_BOUND('',#402,.T.);
#267=PLANE('',#403);
#268=CURVE_STYLE('',#404,POSITIVE_LENGTH_MEASURE(1.0E-006),#405);
#269=CIRCLE('',#406,5.5);
#270=SURFACE_STYLE_USAGE(.BOTH.,#407);
#271=FACE_OUTER_BOUND('',#408,.T.);
#272=CONICAL_SURFACE('',#409,5.49995,4.85436893198939E-006);
#273=POINT_STYLE(' ',#410,POSITIVE_LENGTH_MEASURE(1.0E-006),#411);
#274=CARTESIAN_POINT('',(0.0,5.4949,-42.89));
#275=POINT_STYLE(' ',#412,POSITIVE_LENGTH_MEASURE(1.0E-006),#413);
#276=CARTESIAN_POINT('',(0.0,-4.7625,-42.89));
#277=SURFACE_STYLE_USAGE(.BOTH.,#414);
#278=FACE_OUTER_BOUND('',#415,.T.);
#279=CONICAL_SURFACE('',#416,2.74745,1.5689764594706);
#280=CURVE_STYLE('',#417,POSITIVE_LENGTH_MEASURE(1.0E-006),#418);
#281=LINE('',#419,#420);
#282=SURFACE_STYLE_USAGE(.BOTH.,#421);
#283=FACE_OUTER_BOUND('',#422,.T.);
#284=CONICAL_SURFACE('',#423,4.53329194313172,0.523598775598299);
#285=CURVE_STYLE('',#424,POSITIVE_LENGTH_MEASURE(1.0E-006),#425);
#286=LINE('',#426,#427);
#287=POINT_STYLE(' ',#428,POSITIVE_LENGTH_MEASURE(1.0E-006),#429);
#288=CARTESIAN_POINT('',(0.0,5.5,-63.49));
#289=CURVE_STYLE('',#430,POSITIVE_LENGTH_MEASURE(1.0E-006),#431);
#290=CIRCLE('',#432,5.4999);
#291=SURFACE_STYLE_USAGE(.BOTH.,#433);
#292=FACE_OUTER_BOUND('',#434,.T.);
#293=CYLINDRICAL_SURFACE('',#435,4.7625);
#294=SURFACE_STYLE_USAGE(.BOTH.,#436);
#295=FACE_OUTER_BOUND('',#437,.T.);
#296=PLANE('',#438);
#297=CURVE_STYLE('',#439,POSITIVE_LENGTH_MEASURE(1.0E-006),#440);
#298=LINE('',#441,#442);
#299=PRODUCT_CONTEXT('',#61,'mechanical');
#300=PRODUCT_DEFINITION_FORMATION_WITH_SPECIFIED_SOURCE(' ','NONE',#173,.NOT_KNOWN.);
#301=CARTESIAN_POINT('',(0.0,0.0,0.0));
#302=DIRECTION('',(0.0,0.0,1.0));
#303=DIRECTION('',(1.0,0.0,0.0));
#304=PRODUCT_CONTEXT('',#66,'mechanical');
#305=PRODUCT_DEFINITION_FORMATION_WITH_SPECIFIED_SOURCE(' ','NONE',#176,.NOT_KNOWN.);
#306=CARTESIAN_POINT('',(0.0,0.0,0.0));
#307=DIRECTION('',(0.0,0.0,1.0));
#308=DIRECTION('',(1.0,0.0,0.0));
#309= (NAMED_UNIT(#184)LENGTH_UNIT()SI_UNIT(.MILLI.,.METRE.));
#310=PRE_DEFINED_MARKER('');
#311=COLOUR_RGB('',0.800000011920929,0.800000011920929,0.800000011920929);
#312=SURFACE_SIDE_STYLE('',(#444));
#313=EDGE_LOOP('',(#445,#446,#447,#448));
#314=AXIS2_PLACEMENT_3D('',#449,#450,#451);
#315=DRAUGHTING_PRE_DEFINED_CURVE_FONT('continuous');
#316=COLOUR_RGB('',0.800000011920929,0.800000011920929,0.800000011920929);
#317=AXIS2_PLACEMENT_3D('',#452,#453,#454);
#318=DRAUGHTING_PRE_DEFINED_CURVE_FONT('continuous');
#319=COLOUR_RGB('',0.498039215803146,0.498039215803146,0.498039215803146);
#320=AXIS2_PLACEMENT_3D('',#455,#456,#457);
#321=PRE_DEFINED_MARKER('');
#322=COLOUR_RGB('',0.800000011920929,0.800000011920929,0.800000011920929);
#323=DRAUGHTING_PRE_DEFINED_CURVE_FONT('continuous');
#324=COLOUR_RGB('',0.498039215803146,0.498039215803146,0.498039215803146);
#325=AXIS2_PLACEMENT_3D('',#458,#459,#460);
#326=SURFACE_SIDE_STYLE('',(#461));
#327=DRAUGHTING_PRE_DEFINED_CURVE_FONT('continuous');
#328=COLOUR_RGB('',0.498039215803146,0.498039215803146,0.498039215803146);
#329=CARTESIAN_POINT('',(5.83218776007907E-016,-4.7625,-16.337));
#330=VECTOR('',#462,1.0);
#331=SURFACE_SIDE_STYLE('',(#463));
#332=EDGE_LOOP('',(#464,#465,#466,#467));
#333=AXIS2_PLACEMENT_3D('',#468,#469,#470);
#334=DRAUGHTING_PRE_DEFINED_CURVE_FONT('continuous');
#335=COLOUR_RGB('',0.800000011920929,0.800000011920929,0.800000011920929);
#336=AXIS2_PLACEMENT_3D('',#471,#472,#473);
#337=PRE_DEFINED_MARKER('');
#338=COLOUR_RGB('',0.498039215803146,0.498039215803146,0.498039215803146);
#339=PRE_DEFINED_MARKER('');
#340=COLOUR_RGB('',0.498039215803146,0.498039215803146,0.498039215803146);
#341=PRE_DEFINED_MARKER('');
#342=COLOUR_RGB('',0.498039215803146,0.498039215803146,0.498039215803146);
#343=DRAUGHTING_PRE_DEFINED_CURVE_FONT('continuous');
#344=COLOUR_RGB('',0.498039215803146,0.498039215803146,0.498039215803146);
#345=AXIS2_PLACEMENT_3D('',#474,#475,#476);
#346=DRAUGHTING_PRE_DEFINED_CURVE_FONT('continuous');
#347=COLOUR_RGB('',0.800000011920929,0.800000011920929,0.800000011920929);
#348=AXIS2_PLACEMENT_3D('',#477,#478,#479);
#349=PRE_DEFINED_MARKER('');
#350=COLOUR_RGB('',0.800000011920929,0.800000011920929,0.800000011920929);
#351=SURFACE_SIDE_STYLE('',(#480));
#352=EDGE_LOOP('',(#481,#482));
#353=EDGE_LOOP('',(#483,#484));
#354=AXIS2_PLACEMENT_3D('',#485,#486,#487);
#355=SURFACE_SIDE_STYLE('',(#488));
#356=EDGE_LOOP('',(#489,#490));
#357=AXIS2_PLACEMENT_3D('',#491,#492,#493);
#358=PRE_DEFINED_MARKER('');
#359=COLOUR_RGB('',0.800000011920929,0.800000011920929,0.800000011920929);
#360=DRAUGHTING_PRE_DEFINED_CURVE_FONT('continuous');
#361=COLOUR_RGB('',0.800000011920929,0.800000011920929,0.800000011920929);
#362=CARTESIAN_POINT('',(-6.73527371570539E-016,5.49995,-53.19));
#363=VECTOR('',#494,1.0);
#364=DRAUGHTING_PRE_DEFINED_CURVE_FONT('continuous');
#365=COLOUR_RGB('',0.800000011920929,0.800000011920929,0.800000011920929);
#366=AXIS2_PLACEMENT_3D('',#495,#496,#497);
#367=DRAUGHTING_PRE_DEFINED_CURVE_FONT('continuous');
#368=COLOUR_RGB('',0.498039215803146,0.498039215803146,0.498039215803146);
#369=AXIS2_PLACEMENT_3D('',#498,#499,#500);
#370=DRAUGHTING_PRE_DEFINED_CURVE_FONT('continuous');
#371=COLOUR_RGB('',0.498039215803146,0.498039215803146,0.498039215803146);
#372=AXIS2_PLACEMENT_3D('',#501,#502,#503);
#373=PRE_DEFINED_MARKER('');
#374=COLOUR_RGB('',0.498039215803146,0.498039215803146,0.498039215803146);
#375=SURFACE_SIDE_STYLE('',(#504));
#376=EDGE_LOOP('',(#505,#506,#507,#508));
#377=AXIS2_PLACEMENT_3D('',#509,#510,#511);
#378=DRAUGHTING_PRE_DEFINED_CURVE_FONT('continuous');
#379=COLOUR_RGB('',0.498039215803146,0.498039215803146,0.498039215803146);
#380=CARTESIAN_POINT('',(-5.55149811729089E-016,4.53329194313172,-0.387));
#381=VECTOR('',#512,1.0);
#382=PRE_DEFINED_MARKER('');
#383=COLOUR_RGB('',0.498039215803146,0.498039215803146,0.498039215803146);
#384=DRAUGHTING_PRE_DEFINED_CURVE_FONT('continuous');
#385=COLOUR_RGB('',0.498039215803146,0.498039215803146,0.498039215803146);
#386=AXIS2_PLACEMENT_3D('',#513,#514,#515);
#387=SURFACE_SIDE_STYLE('',(#516));
#388=SURFACE_SIDE_STYLE('',(#517));
#389=EDGE_LOOP('',(#518,#519,#520));
#390=AXIS2_PLACEMENT_3D('',#521,#522,#523);
#391=PRE_DEFINED_MARKER('');
#392=COLOUR_RGB('',0.800000011920929,0.800000011920929,0.800000011920929);
#393=DRAUGHTING_PRE_DEFINED_CURVE_FONT('continuous');
#394=COLOUR_RGB('',0.800000011920929,0.800000011920929,0.800000011920929);
#395=CARTESIAN_POINT('',(6.73527371570538E-016,-5.49995,-53.19));
#396=VECTOR('',#524,1.0);
#397=DRAUGHTING_PRE_DEFINED_CURVE_FONT('continuous');
#398=COLOUR_RGB('',0.498039215803146,0.498039215803146,0.498039215803146);
#399=CARTESIAN_POINT('',(-5.83218776007907E-016,4.7625,-16.337));
#400=VECTOR('',#525,1.0);
#401=SURFACE_SIDE_STYLE('',(#526));
#402=EDGE_LOOP('',(#527,#528));
#403=AXIS2_PLACEMENT_3D('',#529,#530,#531);
#404=DRAUGHTING_PRE_DEFINED_CURVE_FONT('continuous');
#405=COLOUR_RGB('',0.800000011920929,0.800000011920929,0.800000011920929);
#406=AXIS2_PLACEMENT_3D('',#532,#533,#534);
#407=SURFACE_SIDE_STYLE('',(#535));
#408=EDGE_LOOP('',(#536,#537,#538,#539));
#409=AXIS2_PLACEMENT_3D('',#540,#541,#542);
#410=PRE_DEFINED_MARKER('');
#411=COLOUR_RGB('',0.800000011920929,0.800000011920929,0.800000011920929);
#412=PRE_DEFINED_MARKER('');
#413=COLOUR_RGB('',0.498039215803146,0.498039215803146,0.498039215803146);
#414=SURFACE_SIDE_STYLE('',(#543));
#415=EDGE_LOOP('',(#544,#545,#546));
#416=AXIS2_PLACEMENT_3D('',#547,#548,#549);
#417=DRAUGHTING_PRE_DEFINED_CURVE_FONT('continuous');
#418=COLOUR_RGB('',0.800000011920929,0.800000011920929,0.800000011920929);
#419=CARTESIAN_POINT('',(3.36454472680929E-016,-2.74745,-42.895));
#420=VECTOR('',#550,1.0);
#421=SURFACE_SIDE_STYLE('',(#551));
#422=EDGE_LOOP('',(#552,#553,#554,#555));
#423=AXIS2_PLACEMENT_3D('',#556,#557,#558);
#424=DRAUGHTING_PRE_DEFINED_CURVE_FONT('continuous');
#425=COLOUR_RGB('',0.800000011920929,0.800000011920929,0.800000011920929);
#426=CARTESIAN_POINT('',(-3.36454472680929E-016,2.74745,-42.895));
#427=VECTOR('',#559,1.0);
#428=PRE_DEFINED_MARKER('');
#429=COLOUR_RGB('',0.800000011920929,0.800000011920929,0.800000011920929);
#430=DRAUGHTING_PRE_DEFINED_CURVE_FONT('continuous');
#431=COLOUR_RGB('',0.800000011920929,0.800000011920929,0.800000011920929);
#432=AXIS2_PLACEMENT_3D('',#560,#561,#562);
#433=SURFACE_SIDE_STYLE('',(#563));
#434=EDGE_LOOP('',(#564,#565,#566,#567));
#435=AXIS2_PLACEMENT_3D('',#568,#569,#570);
#436=SURFACE_SIDE_STYLE('',(#571));
#437=EDGE_LOOP('',(#572,#573));
#438=AXIS2_PLACEMENT_3D('',#574,#575,#576);
#439=DRAUGHTING_PRE_DEFINED_CURVE_FONT('continuous');
#440=COLOUR_RGB('',0.498039215803146,0.498039215803146,0.498039215803146);
#441=CARTESIAN_POINT('',(5.55149811729089E-016,-4.53329194313172,-0.387));
#442=VECTOR('',#577,1.0);
#444=SURFACE_STYLE_FILL_AREA(#578);
#445=ORIENTED_EDGE('',*,*,#118,.F.);
#446=ORIENTED_EDGE('',*,*,#166,.T.);
#447=ORIENTED_EDGE('',*,*,#142,.F.);
#448=ORIENTED_EDGE('',*,*,#98,.F.);
#449=CARTESIAN_POINT('',(0.0,0.0,-53.19));
#450=DIRECTION('',(0.0,-0.0,-1.0));
#451=DIRECTION('',(0.0,1.0,0.0));
#452=CARTESIAN_POINT('',(0.0,0.0,-42.89));
#453=DIRECTION('',(0.0,0.0,-1.0));
#454=DIRECTION('',(0.0,1.0,0.0));
#455=CARTESIAN_POINT('',(0.0,0.0,-42.89));
#456=DIRECTION('',(0.0,0.0,-1.0));
#457=DIRECTION('',(0.0,-1.0,0.0));
#458=CARTESIAN_POINT('',(0.0,0.0,0.0100000000000016));
#459=DIRECTION('',(0.0,0.0,-1.0));
#460=DIRECTION('',(0.0,1.0,0.0));
#461=SURFACE_STYLE_FILL_AREA(#579);
#462=DIRECTION('',(-0.0,-0.0,1.0));
#463=SURFACE_STYLE_FILL_AREA(#580);
#464=ORIENTED_EDGE('',*,*,#130,.T.);
#465=ORIENTED_EDGE('',*,*,#106,.F.);
#466=ORIENTED_EDGE('',*,*,#172,.T.);
#467=ORIENTED_EDGE('',*,*,#90,.T.);
#468=CARTESIAN_POINT('',(0.0,0.0,-0.387));
#469=DIRECTION('',(0.0,-0.0,-1.0));
#470=DIRECTION('',(0.0,1.0,0.0));
#471=CARTESIAN_POINT('',(0.0,0.0,-63.49));
#472=DIRECTION('',(0.0,0.0,-1.0));
#473=DIRECTION('',(0.0,1.0,0.0));
#474=CARTESIAN_POINT('',(0.0,0.0,-0.783999999999999));
#475=DIRECTION('',(0.0,0.0,-1.0));
#476=DIRECTION('',(0.0,1.0,0.0));
#477=CARTESIAN_POINT('',(0.0,0.0,-42.89));
#478=DIRECTION('',(0.0,0.0,-1.0));
#479=DIRECTION('',(0.0,1.0,0.0));
#480=SURFACE_STYLE_FILL_AREA(#581);
#481=ORIENTED_EDGE('',*,*,#166,.F.);
#482=ORIENTED_EDGE('',*,*,#84,.F.);
#483=ORIENTED_EDGE('',*,*,#108,.T.);
#484=ORIENTED_EDGE('',*,*,#120,.T.);
#485=CARTESIAN_POINT('',(0.0,5.4974,-42.89));
#486=DIRECTION('',(-0.0,0.0,1.0));
#487=DIRECTION('',(0.0,-1.0,0.0));
#488=SURFACE_STYLE_FILL_AREA(#582);
#489=ORIENTED_EDGE('',*,*,#98,.T.);
#490=ORIENTED_EDGE('',*,*,#148,.T.);
#491=CARTESIAN_POINT('',(0.0,2.7475,-63.49));
#492=DIRECTION('',(0.0,0.0,-1.0));
#493=DIRECTION('',(0.0,1.0,0.0));
#494=DIRECTION('',(-5.94469103788881E-022,4.85436893197033E-006,-0.999999999988218));
#495=CARTESIAN_POINT('',(0.0,0.0,-42.89));
#496=DIRECTION('',(0.0,0.0,-1.0));
#497=DIRECTION('',(0.0,1.0,0.0));
#498=CARTESIAN_POINT('',(0.0,0.0,-0.783999999999999));
#499=DIRECTION('',(0.0,0.0,-1.0));
#500=DIRECTION('',(0.0,1.0,0.0));
#501=CARTESIAN_POINT('',(0.0,0.0,0.0100000000000016));
#502=DIRECTION('',(0.0,0.0,-1.0));
#503=DIRECTION('',(0.0,1.0,0.0));
#504=SURFACE_STYLE_FILL_AREA(#583);
#505=ORIENTED_EDGE('',*,*,#144,.T.);
#506=ORIENTED_EDGE('',*,*,#86,.F.);
#507=ORIENTED_EDGE('',*,*,#94,.T.);
#508=ORIENTED_EDGE('',*,*,#106,.T.);
#509=CARTESIAN_POINT('',(0.0,0.0,-16.337));
#510=DIRECTION('',(-0.0,-0.0,1.0));
#511=DIRECTION('',(0.0,1.0,0.0));
#512=DIRECTION('',(-6.12303176911189E-017,0.5,-0.866025403784439));
#513=CARTESIAN_POINT('',(0.0,0.0,-42.89));
#514=DIRECTION('',(0.0,0.0,-1.0));
#515=DIRECTION('',(0.0,-1.0,0.0));
#516=SURFACE_STYLE_FILL_AREA(#584);
#517=SURFACE_STYLE_FILL_AREA(#585);
#518=ORIENTED_EDGE('',*,*,#158,.F.);
#519=ORIENTED_EDGE('',*,*,#162,.F.);
#520=ORIENTED_EDGE('',*,*,#120,.F.);
#521=CARTESIAN_POINT('',(0.0,0.0,-42.895));
#522=DIRECTION('',(-0.0,-0.0,1.0));
#523=DIRECTION('',(0.0,1.0,0.0));
#524=DIRECTION('',(-5.94469103788881E-022,4.85436893197033E-006,0.999999999988218));
#525=DIRECTION('',(0.0,0.0,-1.0));
#526=SURFACE_STYLE_FILL_AREA(#586);
#527=ORIENTED_EDGE('',*,*,#124,.F.);
#528=ORIENTED_EDGE('',*,*,#90,.F.);
#529=CARTESIAN_POINT('',(0.0,2.15204194313172,0.0100000000000016));
#530=DIRECTION('',(-0.0,0.0,1.0));
#531=DIRECTION('',(0.0,-1.0,0.0));
#532=CARTESIAN_POINT('',(0.0,0.0,-63.49));
#533=DIRECTION('',(0.0,0.0,-1.0));
#534=DIRECTION('',(0.0,1.0,0.0));
#535=SURFACE_STYLE_FILL_AREA(#587);
#536=ORIENTED_EDGE('',*,*,#118,.T.);
#537=ORIENTED_EDGE('',*,*,#148,.F.);
#538=ORIENTED_EDGE('',*,*,#142,.T.);
#539=ORIENTED_EDGE('',*,*,#84,.T.);
#540=CARTESIAN_POINT('',(0.0,0.0,-53.19));
#541=DIRECTION('',(0.0,-0.0,-1.0));
#542=DIRECTION('',(0.0,1.0,0.0));
#543=SURFACE_STYLE_FILL_AREA(#588);
#544=ORIENTED_EDGE('',*,*,#158,.T.);
#545=ORIENTED_EDGE('',*,*,#108,.F.);
#546=ORIENTED_EDGE('',*,*,#162,.T.);
#547=CARTESIAN_POINT('',(0.0,0.0,-42.895));
#548=DIRECTION('',(-0.0,-0.0,1.0));
#549=DIRECTION('',(0.0,1.0,0.0));
#550=DIRECTION('',(1.22460432592559E-016,-0.999998344041918,0.00181986631975479));
#551=SURFACE_STYLE_FILL_AREA(#589);
#552=ORIENTED_EDGE('',*,*,#130,.F.);
#553=ORIENTED_EDGE('',*,*,#124,.T.);
#554=ORIENTED_EDGE('',*,*,#172,.F.);
#555=ORIENTED_EDGE('',*,*,#122,.F.);
#556=CARTESIAN_POINT('',(0.0,0.0,-0.387));
#557=DIRECTION('',(0.0,-0.0,-1.0));
#558=DIRECTION('',(0.0,1.0,0.0));
#559=DIRECTION('',(1.22460432592559E-016,-0.999998344041918,-0.00181986631975479));
#560=CARTESIAN_POINT('',(0.0,0.0,-42.89));
#561=DIRECTION('',(0.0,0.0,-1.0));
#562=DIRECTION('',(0.0,1.0,0.0));
#563=SURFACE_STYLE_FILL_AREA(#590);
#564=ORIENTED_EDGE('',*,*,#144,.F.);
#565=ORIENTED_EDGE('',*,*,#122,.T.);
#566=ORIENTED_EDGE('',*,*,#94,.F.);
#567=ORIENTED_EDGE('',*,*,#134,.F.);
#568=CARTESIAN_POINT('',(0.0,0.0,-16.337));
#569=DIRECTION('',(-0.0,-0.0,1.0));
#570=DIRECTION('',(0.0,1.0,0.0));
#571=SURFACE_STYLE_FILL_AREA(#591);
#572=ORIENTED_EDGE('',*,*,#86,.T.);
#573=ORIENTED_EDGE('',*,*,#134,.T.);
#574=CARTESIAN_POINT('',(0.0,0.0,-42.89));
#575=DIRECTION('',(0.0,0.0,-1.0));
#576=DIRECTION('',(0.0,-1.0,0.0));
#577=DIRECTION('',(-6.12303176911189E-017,0.5,0.866025403784439));
#578=FILL_AREA_STYLE('',(#592));
#579=FILL_AREA_STYLE('',(#593));
#580=FILL_AREA_STYLE('',(#594));
#581=FILL_AREA_STYLE('',(#595));
#582=FILL_AREA_STYLE('',(#596));
#583=FILL_AREA_STYLE('',(#597));
#584=FILL_AREA_STYLE('',(#598));
#585=FILL_AREA_STYLE('',(#599));
#586=FILL_AREA_STYLE('',(#600));
#587=FILL_AREA_STYLE('',(#601));
#588=FILL_AREA_STYLE('',(#602));
#589=FILL_AREA_STYLE('',(#603));
#590=FILL_AREA_STYLE('',(#604));
#591=FILL_AREA_STYLE('',(#605));
#592=FILL_AREA_STYLE_COLOUR('',#606);
#593=FILL_AREA_STYLE_COLOUR('',#607);
#594=FILL_AREA_STYLE_COLOUR('',#608);
#595=FILL_AREA_STYLE_COLOUR('',#609);
#596=FILL_AREA_STYLE_COLOUR('',#610);
#597=FILL_AREA_STYLE_COLOUR('',#611);
#598=FILL_AREA_STYLE_COLOUR('',#612);
#599=FILL_AREA_STYLE_COLOUR('',#613);
#600=FILL_AREA_STYLE_COLOUR('',#614);
#601=FILL_AREA_STYLE_COLOUR('',#615);
#602=FILL_AREA_STYLE_COLOUR('',#616);
#603=FILL_AREA_STYLE_COLOUR('',#617);
#604=FILL_AREA_STYLE_COLOUR('',#618);
#605=FILL_AREA_STYLE_COLOUR('',#619);
#606=COLOUR_RGB('',0.800000011920929,0.800000011920929,0.800000011920929);
#607=COLOUR_RGB('',0.800000011920929,0.800000011920929,0.800000011920929);
#608=COLOUR_RGB('',0.498039215803146,0.498039215803146,0.498039215803146);
#609=COLOUR_RGB('',0.800000011920929,0.800000011920929,0.800000011920929);
#610=COLOUR_RGB('',0.800000011920929,0.800000011920929,0.800000011920929);
#611=COLOUR_RGB('',0.498039215803146,0.498039215803146,0.498039215803146);
#612=COLOUR_RGB('',0.800000011920929,0.800000011920929,0.800000011920929);
#613=COLOUR_RGB('',0.800000011920929,0.800000011920929,0.800000011920929);
#614=COLOUR_RGB('',0.498039215803146,0.498039215803146,0.498039215803146);
#615=COLOUR_RGB('',0.800000011920929,0.800000011920929,0.800000011920929);
#616=COLOUR_RGB('',0.800000011920929,0.800000011920929,0.800000011920929);
#617=COLOUR_RGB('',0.498039215803146,0.498039215803146,0.498039215803146);
#618=COLOUR_RGB('',0.498039215803146,0.498039215803146,0.498039215803146);
#619=COLOUR_RGB('',0.498039215803146,0.498039215803146,0.498039215803146);
#620=AXIS2_PLACEMENT_3D('PCS',#621,#622,#623);
#621=CARTESIAN_POINT('',(0.0,0.0,0.0));
#622=DIRECTION('',(0.0,0.0,1.0));
#623=DIRECTION('',(1.0,0.0,0.0));
#624=AXIS2_PLACEMENT_3D('CIP',#625,#626,#627);
#625=CARTESIAN_POINT('',(0.0,0.0,-63.5));
#626=DIRECTION('',(0.0,0.0,1.0));
#627=DIRECTION('',(1.0,0.0,0.0));
#628=AXIS2_PLACEMENT_3D('CRP',#629,#630,#631);
#629=CARTESIAN_POINT('',(-5.5,0.0,-63.5));
#630=DIRECTION('',(0.0,0.0,1.0));
#631=DIRECTION('',(1.0,0.0,0.0));
#632=AXIS2_PLACEMENT_3D('MCS',#633,#634,#635);
#633=CARTESIAN_POINT('',(0.0,0.0,-31.9));
#634=DIRECTION('',(0.0,0.0,1.0));
#635=DIRECTION('',(1.0,0.0,0.0));
#636=CONSTRUCTIVE_GEOMETRY_REPRESENTATION_RELATIONSHIP('coordinate systems',$,#65,#637);
#637=CONSTRUCTIVE_GEOMETRY_REPRESENTATION('coordinate systems',(#620,#624,#628,#632),#10);
ENDSEC;
END-ISO-10303-21;
