ISO-10303-21;
HEADER;
FILE_DESCRIPTION(('no description'),'unknown implementation level');
FILE_NAME('solidJlgBZykobAA8rnkmOuw0wwbIZHY_1.STP','  ',('CIMSOURCE GmbH'),('CADClick - KiM GmbH - www.kimweb.de'),'unknown preprocess','ACIS','unknown authorization');
FILE_SCHEMA(('automotive_design'));
ENDSEC;
DATA;
#1=MECHANICAL_DESIGN_GEOMETRIC_PRESENTATION_REPRESENTATION(' ',(#14,#15,#16,#17,#18,#19,#20,#21,#22,#23,#24,#25,#26,#27,#28,#29,#30,#31,#32,#33,#34,#35,#36,#37,#38,#39,#40,#41,#42,#43,#44,#45,#46,#47,#48,#49,#50,#51,#52,#53,#54,#55,#56,#57,#58,#59,#60),#10);
#2=PRODUCT_DEFINITION_CONTEXT('',#61,'design');
#3=APPLICATION_PROTOCOL_DEFINITION('INTERNATIONAL STANDARD','automotive_design',1994,#61);
#4=PRODUCT_CATEGORY_RELATIONSHIP('NONE','NONE',#62,#63);
#5=SHAPE_DEFINITION_REPRESENTATION(#64,#65);
#6=PRODUCT_DEFINITION_CONTEXT('',#66,'design');
#7=APPLICATION_PROTOCOL_DEFINITION('INTERNATIONAL STANDARD','automotive_design',1994,#66);
#8=PRODUCT_CATEGORY_RELATIONSHIP('NONE','NONE',#67,#68);
#9=SHAPE_DEFINITION_REPRESENTATION(#69,#70);
#10= (GEOMETRIC_REPRESENTATION_CONTEXT(3)GLOBAL_UNCERTAINTY_ASSIGNED_CONTEXT((#73))GLOBAL_UNIT_ASSIGNED_CONTEXT((#75,#76,#77))REPRESENTATION_CONTEXT('NONE','WORKSPACE'));
#14=STYLED_ITEM('',(#79),#80);
#15=STYLED_ITEM('',(#81),#82);
#16=STYLED_ITEM('',(#83),#84);
#17=STYLED_ITEM('',(#85),#86);
#18=STYLED_ITEM('',(#87),#88);
#19=STYLED_ITEM('',(#89),#90);
#20=STYLED_ITEM('',(#91),#92);
#21=STYLED_ITEM('',(#93),#94);
#22=STYLED_ITEM('',(#95),#96);
#23=STYLED_ITEM('',(#97),#98);
#24=STYLED_ITEM('',(#99),#100);
#25=STYLED_ITEM('',(#101),#102);
#26=STYLED_ITEM('',(#103),#104);
#27=STYLED_ITEM('',(#105),#106);
#28=STYLED_ITEM('',(#107),#108);
#29=STYLED_ITEM('',(#109),#110);
#30=STYLED_ITEM('',(#111),#112);
#31=STYLED_ITEM('',(#113),#114);
#32=STYLED_ITEM('',(#115),#116);
#33=STYLED_ITEM('',(#117),#118);
#34=STYLED_ITEM('',(#119),#120);
#35=STYLED_ITEM('',(#121),#122);
#36=STYLED_ITEM('',(#123),#124);
#37=STYLED_ITEM('',(#125),#126);
#38=STYLED_ITEM('',(#127),#128);
#39=STYLED_ITEM('',(#129),#130);
#40=STYLED_ITEM('',(#131),#132);
#41=STYLED_ITEM('',(#133),#134);
#42=STYLED_ITEM('',(#135),#136);
#43=STYLED_ITEM('',(#137),#138);
#44=STYLED_ITEM('',(#139),#140);
#45=STYLED_ITEM('',(#141),#142);
#46=STYLED_ITEM('',(#143),#144);
#47=STYLED_ITEM('',(#145),#146);
#48=STYLED_ITEM('',(#147),#148);
#49=STYLED_ITEM('',(#149),#150);
#50=STYLED_ITEM('',(#151),#152);
#51=STYLED_ITEM('',(#153),#154);
#52=STYLED_ITEM('',(#155),#156);
#53=STYLED_ITEM('',(#157),#158);
#54=STYLED_ITEM('',(#159),#160);
#55=STYLED_ITEM('',(#161),#162);
#56=STYLED_ITEM('',(#163),#164);
#57=STYLED_ITEM('',(#165),#166);
#58=STYLED_ITEM('',(#167),#168);
#59=STYLED_ITEM('',(#169),#170);
#60=STYLED_ITEM('',(#171),#172);
#61=APPLICATION_CONTEXT(' ');
#62=PRODUCT_CATEGORY('part','NONE');
#63=PRODUCT_RELATED_PRODUCT_CATEGORY('detail',' ',(#173));
#64=PRODUCT_DEFINITION_SHAPE('NONE','NONE',#174);
#65=ADVANCED_BREP_SHAPE_REPRESENTATION('1',(#92,#175),#10);
#66=APPLICATION_CONTEXT(' ');
#67=PRODUCT_CATEGORY('part','NONE');
#68=PRODUCT_RELATED_PRODUCT_CATEGORY('detail',' ',(#176));
#69=PRODUCT_DEFINITION_SHAPE('NONE','NONE',#177);
#70=ADVANCED_BREP_SHAPE_REPRESENTATION('2',(#142,#178),#10);
#73=UNCERTAINTY_MEASURE_WITH_UNIT(LENGTH_MEASURE(1.0E-006),#75,'','');
#75= (CONVERSION_BASED_UNIT('MILLIMETRE',#181)LENGTH_UNIT()NAMED_UNIT(#184));
#76= (NAMED_UNIT(#186)PLANE_ANGLE_UNIT()SI_UNIT($,.RADIAN.));
#77= (NAMED_UNIT(#186)SOLID_ANGLE_UNIT()SI_UNIT($,.STERADIAN.));
#79=PRESENTATION_STYLE_ASSIGNMENT((#192));
#80=ADVANCED_FACE('',(#193),#194,.T.);
#81=PRESENTATION_STYLE_ASSIGNMENT((#195));
#82=EDGE_CURVE('',#128,#102,#196,.T.);
#83=PRESENTATION_STYLE_ASSIGNMENT((#197));
#84=EDGE_CURVE('',#162,#112,#198,.T.);
#85=PRESENTATION_STYLE_ASSIGNMENT((#199));
#86=EDGE_CURVE('',#116,#114,#200,.T.);
#87=PRESENTATION_STYLE_ASSIGNMENT((#201));
#88=EDGE_CURVE('',#138,#94,#202,.T.);
#89=PRESENTATION_STYLE_ASSIGNMENT((#203));
#90=ADVANCED_FACE('',(#204),#205,.T.);
#91=PRESENTATION_STYLE_ASSIGNMENT((#206));
#92=MANIFOLD_SOLID_BREP('1',#207);
#93=PRESENTATION_STYLE_ASSIGNMENT((#208));
#94=VERTEX_POINT('',#209);
#95=PRESENTATION_STYLE_ASSIGNMENT((#210));
#96=ADVANCED_FACE('',(#211),#212,.T.);
#97=PRESENTATION_STYLE_ASSIGNMENT((#213));
#98=EDGE_CURVE('',#140,#166,#214,.T.);
#99=PRESENTATION_STYLE_ASSIGNMENT((#215));
#100=EDGE_CURVE('',#114,#116,#216,.T.);
#101=PRESENTATION_STYLE_ASSIGNMENT((#217));
#102=VERTEX_POINT('',#218);
#103=PRESENTATION_STYLE_ASSIGNMENT((#219));
#104=ADVANCED_FACE('',(#220),#221,.T.);
#105=PRESENTATION_STYLE_ASSIGNMENT((#222));
#106=EDGE_CURVE('',#94,#138,#223,.T.);
#107=PRESENTATION_STYLE_ASSIGNMENT((#224));
#108=ADVANCED_FACE('',(#225),#226,.F.);
#109=PRESENTATION_STYLE_ASSIGNMENT((#227));
#110=EDGE_CURVE('',#114,#162,#228,.T.);
#111=PRESENTATION_STYLE_ASSIGNMENT((#229));
#112=VERTEX_POINT('',#230);
#113=PRESENTATION_STYLE_ASSIGNMENT((#231));
#114=VERTEX_POINT('',#232);
#115=PRESENTATION_STYLE_ASSIGNMENT((#233));
#116=VERTEX_POINT('',#234);
#117=PRESENTATION_STYLE_ASSIGNMENT((#235));
#118=ADVANCED_FACE('',(#236,#237),#238,.T.);
#119=PRESENTATION_STYLE_ASSIGNMENT((#239));
#120=EDGE_CURVE('',#102,#128,#240,.T.);
#121=PRESENTATION_STYLE_ASSIGNMENT((#241));
#122=VERTEX_POINT('',#242);
#123=PRESENTATION_STYLE_ASSIGNMENT((#243));
#124=EDGE_CURVE('',#162,#140,#244,.T.);
#125=PRESENTATION_STYLE_ASSIGNMENT((#245));
#126=ADVANCED_FACE('',(#246),#247,.T.);
#127=PRESENTATION_STYLE_ASSIGNMENT((#248));
#128=VERTEX_POINT('',#249);
#129=PRESENTATION_STYLE_ASSIGNMENT((#250));
#130=VERTEX_POINT('',#251);
#131=PRESENTATION_STYLE_ASSIGNMENT((#252));
#132=EDGE_CURVE('',#138,#130,#253,.T.);
#133=PRESENTATION_STYLE_ASSIGNMENT((#254));
#134=ADVANCED_FACE('',(#255),#256,.T.);
#135=PRESENTATION_STYLE_ASSIGNMENT((#257));
#136=VERTEX_POINT('',#258);
#137=PRESENTATION_STYLE_ASSIGNMENT((#259));
#138=VERTEX_POINT('',#260);
#139=PRESENTATION_STYLE_ASSIGNMENT((#261));
#140=VERTEX_POINT('',#262);
#141=PRESENTATION_STYLE_ASSIGNMENT((#263));
#142=MANIFOLD_SOLID_BREP('2',#264);
#143=PRESENTATION_STYLE_ASSIGNMENT((#265));
#144=ADVANCED_FACE('',(#266),#267,.T.);
#145=PRESENTATION_STYLE_ASSIGNMENT((#268));
#146=EDGE_CURVE('',#128,#136,#269,.T.);
#147=PRESENTATION_STYLE_ASSIGNMENT((#270));
#148=EDGE_CURVE('',#166,#140,#271,.T.);
#149=PRESENTATION_STYLE_ASSIGNMENT((#272));
#150=EDGE_CURVE('',#166,#112,#273,.T.);
#151=PRESENTATION_STYLE_ASSIGNMENT((#274));
#152=EDGE_CURVE('',#122,#102,#275,.T.);
#153=PRESENTATION_STYLE_ASSIGNMENT((#276));
#154=EDGE_CURVE('',#112,#116,#277,.T.);
#155=PRESENTATION_STYLE_ASSIGNMENT((#278));
#156=ADVANCED_FACE('',(#279),#280,.T.);
#157=PRESENTATION_STYLE_ASSIGNMENT((#281));
#158=EDGE_CURVE('',#130,#94,#282,.T.);
#159=PRESENTATION_STYLE_ASSIGNMENT((#283));
#160=EDGE_CURVE('',#112,#162,#284,.T.);
#161=PRESENTATION_STYLE_ASSIGNMENT((#285));
#162=VERTEX_POINT('',#286);
#163=PRESENTATION_STYLE_ASSIGNMENT((#287));
#164=ADVANCED_FACE('',(#288),#289,.T.);
#165=PRESENTATION_STYLE_ASSIGNMENT((#290));
#166=VERTEX_POINT('',#291);
#167=PRESENTATION_STYLE_ASSIGNMENT((#292));
#168=EDGE_CURVE('',#122,#136,#293,.T.);
#169=PRESENTATION_STYLE_ASSIGNMENT((#294));
#170=EDGE_CURVE('',#136,#122,#295,.T.);
#171=PRESENTATION_STYLE_ASSIGNMENT((#296));
#172=ADVANCED_FACE('',(#297),#298,.F.);
#173=PRODUCT('1','1','PART-1-DESC',(#299));
#174=PRODUCT_DEFINITION('NONE','NONE',#300,#2);
#175=AXIS2_PLACEMENT_3D('',#301,#302,#303);
#176=PRODUCT('2','2','PART-2-DESC',(#304));
#177=PRODUCT_DEFINITION('NONE','NONE',#305,#6);
#178=AXIS2_PLACEMENT_3D('',#306,#307,#308);
#181=LENGTH_MEASURE_WITH_UNIT(LENGTH_MEASURE(1.0),#309);
#184=DIMENSIONAL_EXPONENTS(1.0,0.0,0.0,0.0,0.0,0.0,0.0);
#186=DIMENSIONAL_EXPONENTS(0.0,0.0,0.0,0.0,0.0,0.0,0.0);
#192=SURFACE_STYLE_USAGE(.BOTH.,#310);
#193=FACE_OUTER_BOUND('',#311,.T.);
#194=PLANE('',#312);
#195=CURVE_STYLE('',#313,POSITIVE_LENGTH_MEASURE(1.0E-006),#314);
#196=CIRCLE('',#315,7.0);
#197=CURVE_STYLE('',#316,POSITIVE_LENGTH_MEASURE(1.0E-006),#317);
#198=CIRCLE('',#318,6.35);
#199=CURVE_STYLE('',#319,POSITIVE_LENGTH_MEASURE(1.0E-006),#320);
#200=CIRCLE('',#321,5.89158388626344);
#201=CURVE_STYLE('',#322,POSITIVE_LENGTH_MEASURE(1.0E-006),#323);
#202=CIRCLE('',#324,6.9949);
#203=SURFACE_STYLE_USAGE(.BOTH.,#325);
#204=FACE_OUTER_BOUND('',#326,.T.);
#205=CONICAL_SURFACE('',#327,6.12079194313172,0.523598775598301);
#206=SURFACE_STYLE_USAGE(.BOTH.,#328);
#207=CLOSED_SHELL('',(#134,#108,#172,#118,#126,#104));
#208=POINT_STYLE(' ',#329,POSITIVE_LENGTH_MEASURE(1.0E-006),#330);
#209=CARTESIAN_POINT('',(8.56599898435215E-016,-6.9949,-50.79));
#210=SURFACE_STYLE_USAGE(.BOTH.,#331);
#211=FACE_OUTER_BOUND('',#332,.T.);
#212=CONICAL_SURFACE('',#333,6.12079194313172,0.523598775598301);
#213=CURVE_STYLE('',#334,POSITIVE_LENGTH_MEASURE(1.0E-006),#335);
#214=CIRCLE('',#336,6.35);
#215=CURVE_STYLE('',#337,POSITIVE_LENGTH_MEASURE(1.0E-006),#338);
#216=CIRCLE('',#339,5.89158388626344);
#217=POINT_STYLE(' ',#340,POSITIVE_LENGTH_MEASURE(1.0E-006),#341);
#218=CARTESIAN_POINT('',(0.0,7.0,-79.39));
#219=SURFACE_STYLE_USAGE(.BOTH.,#342);
#220=FACE_OUTER_BOUND('',#343,.T.);
#221=PLANE('',#344);
#222=CURVE_STYLE('',#345,POSITIVE_LENGTH_MEASURE(1.0E-006),#346);
#223=CIRCLE('',#347,6.9949);
#224=SURFACE_STYLE_USAGE(.BOTH.,#348);
#225=FACE_OUTER_BOUND('',#349,.T.);
#226=CONICAL_SURFACE('',#350,3.49745,1.56936671476508);
#227=CURVE_STYLE('',#351,POSITIVE_LENGTH_MEASURE(1.0E-006),#352);
#228=LINE('',#353,#354);
#229=POINT_STYLE(' ',#355,POSITIVE_LENGTH_MEASURE(1.0E-006),#356);
#230=CARTESIAN_POINT('',(7.7762503467721E-016,-6.35,-0.784000000000006));
#231=POINT_STYLE(' ',#357,POSITIVE_LENGTH_MEASURE(1.0E-006),#358);
#232=CARTESIAN_POINT('',(0.0,5.89158388626344,0.00999999999999091));
#233=POINT_STYLE(' ',#359,POSITIVE_LENGTH_MEASURE(1.0E-006),#360);
#234=CARTESIAN_POINT('',(7.21487106119574E-016,-5.89158388626344,0.00999999999999091));
#235=SURFACE_STYLE_USAGE(.BOTH.,#361);
#236=FACE_OUTER_BOUND('',#362,.T.);
#237=FACE_BOUND('',#363,.T.);
#238=PLANE('',#364);
#239=CURVE_STYLE('',#365,POSITIVE_LENGTH_MEASURE(1.0E-006),#366);
#240=CIRCLE('',#367,7.0);
#241=POINT_STYLE(' ',#368,POSITIVE_LENGTH_MEASURE(1.0E-006),#369);
#242=CARTESIAN_POINT('',(0.0,6.9999,-50.79));
#243=CURVE_STYLE('',#370,POSITIVE_LENGTH_MEASURE(1.0E-006),#371);
#244=LINE('',#372,#373);
#245=SURFACE_STYLE_USAGE(.BOTH.,#374);
#246=FACE_OUTER_BOUND('',#375,.T.);
#247=CONICAL_SURFACE('',#376,6.99995,3.4965034964811E-006);
#248=POINT_STYLE(' ',#377,POSITIVE_LENGTH_MEASURE(1.0E-006),#378);
#249=CARTESIAN_POINT('',(8.57224447675664E-016,-7.0,-79.39));
#250=POINT_STYLE(' ',#379,POSITIVE_LENGTH_MEASURE(1.0E-006),#380);
#251=CARTESIAN_POINT('',(0.0,0.0,-50.8));
#252=CURVE_STYLE('',#381,POSITIVE_LENGTH_MEASURE(1.0E-006),#382);
#253=LINE('',#383,#384);
#254=SURFACE_STYLE_USAGE(.BOTH.,#385);
#255=FACE_OUTER_BOUND('',#386,.T.);
#256=CONICAL_SURFACE('',#387,6.99995,3.4965034964811E-006);
#257=POINT_STYLE(' ',#388,POSITIVE_LENGTH_MEASURE(1.0E-006),#389);
#258=CARTESIAN_POINT('',(8.57212201612126E-016,-6.9999,-50.79));
#259=POINT_STYLE(' ',#390,POSITIVE_LENGTH_MEASURE(1.0E-006),#391);
#260=CARTESIAN_POINT('',(0.0,6.9949,-50.79));
#261=POINT_STYLE(' ',#392,POSITIVE_LENGTH_MEASURE(1.0E-006),#393);
#262=CARTESIAN_POINT('',(-7.7762503467721E-016,6.35,-50.79));
#263=SURFACE_STYLE_USAGE(.BOTH.,#394);
#264=CLOSED_SHELL('',(#164,#96,#80,#144,#90,#156));
#265=SURFACE_STYLE_USAGE(.BOTH.,#395);
#266=FACE_OUTER_BOUND('',#396,.T.);
#267=PLANE('',#397);
#268=CURVE_STYLE('',#398,POSITIVE_LENGTH_MEASURE(1.0E-006),#399);
#269=LINE('',#400,#401);
#270=CURVE_STYLE('',#402,POSITIVE_LENGTH_MEASURE(1.0E-006),#403);
#271=CIRCLE('',#404,6.35);
#272=CURVE_STYLE('',#405,POSITIVE_LENGTH_MEASURE(1.0E-006),#406);
#273=LINE('',#407,#408);
#274=CURVE_STYLE('',#409,POSITIVE_LENGTH_MEASURE(1.0E-006),#410);
#275=LINE('',#411,#412);
#276=CURVE_STYLE('',#413,POSITIVE_LENGTH_MEASURE(1.0E-006),#414);
#277=LINE('',#415,#416);
#278=SURFACE_STYLE_USAGE(.BOTH.,#417);
#279=FACE_OUTER_BOUND('',#418,.T.);
#280=CYLINDRICAL_SURFACE('',#419,6.35);
#281=CURVE_STYLE('',#420,POSITIVE_LENGTH_MEASURE(1.0E-006),#421);
#282=LINE('',#422,#423);
#283=CURVE_STYLE('',#424,POSITIVE_LENGTH_MEASURE(1.0E-006),#425);
#284=CIRCLE('',#426,6.35);
#285=POINT_STYLE(' ',#427,POSITIVE_LENGTH_MEASURE(1.0E-006),#428);
#286=CARTESIAN_POINT('',(0.0,6.35,-0.784000000000006));
#287=SURFACE_STYLE_USAGE(.BOTH.,#429);
#288=FACE_OUTER_BOUND('',#430,.T.);
#289=CYLINDRICAL_SURFACE('',#431,6.35);
#290=POINT_STYLE(' ',#432,POSITIVE_LENGTH_MEASURE(1.0E-006),#433);
#291=CARTESIAN_POINT('',(0.0,-6.35,-50.79));
#292=CURVE_STYLE('',#434,POSITIVE_LENGTH_MEASURE(1.0E-006),#435);
#293=CIRCLE('',#436,6.9999);
#294=CURVE_STYLE('',#437,POSITIVE_LENGTH_MEASURE(1.0E-006),#438);
#295=CIRCLE('',#439,6.9999);
#296=SURFACE_STYLE_USAGE(.BOTH.,#440);
#297=FACE_OUTER_BOUND('',#441,.T.);
#298=CONICAL_SURFACE('',#442,3.49745,1.56936671476508);
#299=PRODUCT_CONTEXT('',#61,'mechanical');
#300=PRODUCT_DEFINITION_FORMATION_WITH_SPECIFIED_SOURCE(' ','NONE',#173,.NOT_KNOWN.);
#301=CARTESIAN_POINT('',(0.0,0.0,0.0));
#302=DIRECTION('',(0.0,0.0,1.0));
#303=DIRECTION('',(1.0,0.0,0.0));
#304=PRODUCT_CONTEXT('',#66,'mechanical');
#305=PRODUCT_DEFINITION_FORMATION_WITH_SPECIFIED_SOURCE(' ','NONE',#176,.NOT_KNOWN.);
#306=CARTESIAN_POINT('',(0.0,0.0,0.0));
#307=DIRECTION('',(0.0,0.0,1.0));
#308=DIRECTION('',(1.0,0.0,0.0));
#309= (NAMED_UNIT(#184)LENGTH_UNIT()SI_UNIT(.MILLI.,.METRE.));
#310=SURFACE_SIDE_STYLE('',(#444));
#311=EDGE_LOOP('',(#445,#446));
#312=AXIS2_PLACEMENT_3D('',#447,#448,#449);
#313=DRAUGHTING_PRE_DEFINED_CURVE_FONT('continuous');
#314=COLOUR_RGB('',0.800000011920929,0.800000011920929,0.800000011920929);
#315=AXIS2_PLACEMENT_3D('',#450,#451,#452);
#316=DRAUGHTING_PRE_DEFINED_CURVE_FONT('continuous');
#317=COLOUR_RGB('',0.498039215803146,0.498039215803146,0.498039215803146);
#318=AXIS2_PLACEMENT_3D('',#453,#454,#455);
#319=DRAUGHTING_PRE_DEFINED_CURVE_FONT('continuous');
#320=COLOUR_RGB('',0.498039215803146,0.498039215803146,0.498039215803146);
#321=AXIS2_PLACEMENT_3D('',#456,#457,#458);
#322=DRAUGHTING_PRE_DEFINED_CURVE_FONT('continuous');
#323=COLOUR_RGB('',0.800000011920929,0.800000011920929,0.800000011920929);
#324=AXIS2_PLACEMENT_3D('',#459,#460,#461);
#325=SURFACE_SIDE_STYLE('',(#462));
#326=EDGE_LOOP('',(#463,#464,#465,#466));
#327=AXIS2_PLACEMENT_3D('',#467,#468,#469);
#328=SURFACE_SIDE_STYLE('',(#470));
#329=PRE_DEFINED_MARKER('');
#330=COLOUR_RGB('',0.800000011920929,0.800000011920929,0.800000011920929);
#331=SURFACE_SIDE_STYLE('',(#471));
#332=EDGE_LOOP('',(#472,#473,#474,#475));
#333=AXIS2_PLACEMENT_3D('',#476,#477,#478);
#334=DRAUGHTING_PRE_DEFINED_CURVE_FONT('continuous');
#335=COLOUR_RGB('',0.498039215803146,0.498039215803146,0.498039215803146);
#336=AXIS2_PLACEMENT_3D('',#479,#480,#481);
#337=DRAUGHTING_PRE_DEFINED_CURVE_FONT('continuous');
#338=COLOUR_RGB('',0.498039215803146,0.498039215803146,0.498039215803146);
#339=AXIS2_PLACEMENT_3D('',#482,#483,#484);
#340=PRE_DEFINED_MARKER('');
#341=COLOUR_RGB('',0.800000011920929,0.800000011920929,0.800000011920929);
#342=SURFACE_SIDE_STYLE('',(#485));
#343=EDGE_LOOP('',(#486,#487));
#344=AXIS2_PLACEMENT_3D('',#488,#489,#490);
#345=DRAUGHTING_PRE_DEFINED_CURVE_FONT('continuous');
#346=COLOUR_RGB('',0.800000011920929,0.800000011920929,0.800000011920929);
#347=AXIS2_PLACEMENT_3D('',#491,#492,#493);
#348=SURFACE_SIDE_STYLE('',(#494));
#349=EDGE_LOOP('',(#495,#496,#497));
#350=AXIS2_PLACEMENT_3D('',#498,#499,#500);
#351=DRAUGHTING_PRE_DEFINED_CURVE_FONT('continuous');
#352=COLOUR_RGB('',0.498039215803146,0.498039215803146,0.498039215803146);
#353=CARTESIAN_POINT('',(-7.49556070398392E-016,6.12079194313172,-0.387000000000008));
#354=VECTOR('',#501,1.0);
#355=PRE_DEFINED_MARKER('');
#356=COLOUR_RGB('',0.498039215803146,0.498039215803146,0.498039215803146);
#357=PRE_DEFINED_MARKER('');
#358=COLOUR_RGB('',0.498039215803146,0.498039215803146,0.498039215803146);
#359=PRE_DEFINED_MARKER('');
#360=COLOUR_RGB('',0.498039215803146,0.498039215803146,0.498039215803146);
#361=SURFACE_SIDE_STYLE('',(#502));
#362=EDGE_LOOP('',(#503,#504));
#363=EDGE_LOOP('',(#505,#506));
#364=AXIS2_PLACEMENT_3D('',#507,#508,#509);
#365=DRAUGHTING_PRE_DEFINED_CURVE_FONT('continuous');
#366=COLOUR_RGB('',0.800000011920929,0.800000011920929,0.800000011920929);
#367=AXIS2_PLACEMENT_3D('',#510,#511,#512);
#368=PRE_DEFINED_MARKER('');
#369=COLOUR_RGB('',0.800000011920929,0.800000011920929,0.800000011920929);
#370=DRAUGHTING_PRE_DEFINED_CURVE_FONT('continuous');
#371=COLOUR_RGB('',0.498039215803146,0.498039215803146,0.498039215803146);
#372=CARTESIAN_POINT('',(-7.7762503467721E-016,6.35,-18.787));
#373=VECTOR('',#513,1.0);
#374=SURFACE_SIDE_STYLE('',(#514));
#375=EDGE_LOOP('',(#515,#516,#517,#518));
#376=AXIS2_PLACEMENT_3D('',#519,#520,#521);
#377=PRE_DEFINED_MARKER('');
#378=COLOUR_RGB('',0.800000011920929,0.800000011920929,0.800000011920929);
#379=PRE_DEFINED_MARKER('');
#380=COLOUR_RGB('',0.800000011920929,0.800000011920929,0.800000011920929);
#381=DRAUGHTING_PRE_DEFINED_CURVE_FONT('continuous');
#382=COLOUR_RGB('',0.800000011920929,0.800000011920929,0.800000011920929);
#383=CARTESIAN_POINT('',(-4.28299949217607E-016,3.49745,-50.795));
#384=VECTOR('',#522,1.0);
#385=SURFACE_SIDE_STYLE('',(#523));
#386=EDGE_LOOP('',(#524,#525,#526,#527));
#387=AXIS2_PLACEMENT_3D('',#528,#529,#530);
#388=PRE_DEFINED_MARKER('');
#389=COLOUR_RGB('',0.800000011920929,0.800000011920929,0.800000011920929);
#390=PRE_DEFINED_MARKER('');
#391=COLOUR_RGB('',0.800000011920929,0.800000011920929,0.800000011920929);
#392=PRE_DEFINED_MARKER('');
#393=COLOUR_RGB('',0.498039215803146,0.498039215803146,0.498039215803146);
#394=SURFACE_SIDE_STYLE('',(#531));
#395=SURFACE_SIDE_STYLE('',(#532));
#396=EDGE_LOOP('',(#533,#534));
#397=AXIS2_PLACEMENT_3D('',#535,#536,#537);
#398=DRAUGHTING_PRE_DEFINED_CURVE_FONT('continuous');
#399=COLOUR_RGB('',0.800000011920929,0.800000011920929,0.800000011920929);
#400=CARTESIAN_POINT('',(8.57218324643895E-016,-6.99995,-65.09));
#401=VECTOR('',#538,1.0);
#402=DRAUGHTING_PRE_DEFINED_CURVE_FONT('continuous');
#403=COLOUR_RGB('',0.498039215803146,0.498039215803146,0.498039215803146);
#404=AXIS2_PLACEMENT_3D('',#539,#540,#541);
#405=DRAUGHTING_PRE_DEFINED_CURVE_FONT('continuous');
#406=COLOUR_RGB('',0.498039215803146,0.498039215803146,0.498039215803146);
#407=CARTESIAN_POINT('',(7.7762503467721E-016,-6.35,-18.787));
#408=VECTOR('',#542,1.0);
#409=DRAUGHTING_PRE_DEFINED_CURVE_FONT('continuous');
#410=COLOUR_RGB('',0.800000011920929,0.800000011920929,0.800000011920929);
#411=CARTESIAN_POINT('',(-8.57218324643895E-016,6.99995,-65.09));
#412=VECTOR('',#543,1.0);
#413=DRAUGHTING_PRE_DEFINED_CURVE_FONT('continuous');
#414=COLOUR_RGB('',0.498039215803146,0.498039215803146,0.498039215803146);
#415=CARTESIAN_POINT('',(7.49556070398392E-016,-6.12079194313172,-0.387000000000008));
#416=VECTOR('',#544,1.0);
#417=SURFACE_SIDE_STYLE('',(#545));
#418=EDGE_LOOP('',(#546,#547,#548,#549));
#419=AXIS2_PLACEMENT_3D('',#550,#551,#552);
#420=DRAUGHTING_PRE_DEFINED_CURVE_FONT('continuous');
#421=COLOUR_RGB('',0.800000011920929,0.800000011920929,0.800000011920929);
#422=CARTESIAN_POINT('',(4.28299949217607E-016,-3.49745,-50.795));
#423=VECTOR('',#553,1.0);
#424=DRAUGHTING_PRE_DEFINED_CURVE_FONT('continuous');
#425=COLOUR_RGB('',0.498039215803146,0.498039215803146,0.498039215803146);
#426=AXIS2_PLACEMENT_3D('',#554,#555,#556);
#427=PRE_DEFINED_MARKER('');
#428=COLOUR_RGB('',0.498039215803146,0.498039215803146,0.498039215803146);
#429=SURFACE_SIDE_STYLE('',(#557));
#430=EDGE_LOOP('',(#558,#559,#560,#561));
#431=AXIS2_PLACEMENT_3D('',#562,#563,#564);
#432=PRE_DEFINED_MARKER('');
#433=COLOUR_RGB('',0.498039215803146,0.498039215803146,0.498039215803146);
#434=DRAUGHTING_PRE_DEFINED_CURVE_FONT('continuous');
#435=COLOUR_RGB('',0.800000011920929,0.800000011920929,0.800000011920929);
#436=AXIS2_PLACEMENT_3D('',#565,#566,#567);
#437=DRAUGHTING_PRE_DEFINED_CURVE_FONT('continuous');
#438=COLOUR_RGB('',0.800000011920929,0.800000011920929,0.800000011920929);
#439=AXIS2_PLACEMENT_3D('',#568,#569,#570);
#440=SURFACE_SIDE_STYLE('',(#571));
#441=EDGE_LOOP('',(#572,#573,#574));
#442=AXIS2_PLACEMENT_3D('',#575,#576,#577);
#444=SURFACE_STYLE_FILL_AREA(#578);
#445=ORIENTED_EDGE('',*,*,#148,.T.);
#446=ORIENTED_EDGE('',*,*,#98,.T.);
#447=CARTESIAN_POINT('',(0.0,0.0,-50.79));
#448=DIRECTION('',(0.0,0.0,-1.0));
#449=DIRECTION('',(0.0,-1.0,0.0));
#450=CARTESIAN_POINT('',(0.0,0.0,-79.39));
#451=DIRECTION('',(0.0,0.0,-1.0));
#452=DIRECTION('',(0.0,1.0,0.0));
#453=CARTESIAN_POINT('',(0.0,0.0,-0.784000000000006));
#454=DIRECTION('',(0.0,0.0,-1.0));
#455=DIRECTION('',(0.0,1.0,0.0));
#456=CARTESIAN_POINT('',(0.0,0.0,0.00999999999999091));
#457=DIRECTION('',(0.0,0.0,-1.0));
#458=DIRECTION('',(0.0,1.0,0.0));
#459=CARTESIAN_POINT('',(0.0,0.0,-50.79));
#460=DIRECTION('',(0.0,0.0,-1.0));
#461=DIRECTION('',(0.0,1.0,0.0));
#462=SURFACE_STYLE_FILL_AREA(#579);
#463=ORIENTED_EDGE('',*,*,#110,.T.);
#464=ORIENTED_EDGE('',*,*,#160,.F.);
#465=ORIENTED_EDGE('',*,*,#154,.T.);
#466=ORIENTED_EDGE('',*,*,#86,.T.);
#467=CARTESIAN_POINT('',(0.0,0.0,-0.387000000000008));
#468=DIRECTION('',(0.0,-0.0,-1.0));
#469=DIRECTION('',(0.0,1.0,0.0));
#470=SURFACE_STYLE_FILL_AREA(#580);
#471=SURFACE_STYLE_FILL_AREA(#581);
#472=ORIENTED_EDGE('',*,*,#110,.F.);
#473=ORIENTED_EDGE('',*,*,#100,.T.);
#474=ORIENTED_EDGE('',*,*,#154,.F.);
#475=ORIENTED_EDGE('',*,*,#84,.F.);
#476=CARTESIAN_POINT('',(0.0,0.0,-0.387000000000008));
#477=DIRECTION('',(0.0,-0.0,-1.0));
#478=DIRECTION('',(0.0,1.0,0.0));
#479=CARTESIAN_POINT('',(0.0,0.0,-50.79));
#480=DIRECTION('',(0.0,0.0,-1.0));
#481=DIRECTION('',(0.0,-1.0,0.0));
#482=CARTESIAN_POINT('',(0.0,0.0,0.00999999999999091));
#483=DIRECTION('',(0.0,0.0,-1.0));
#484=DIRECTION('',(0.0,1.0,0.0));
#485=SURFACE_STYLE_FILL_AREA(#582);
#486=ORIENTED_EDGE('',*,*,#120,.T.);
#487=ORIENTED_EDGE('',*,*,#82,.T.);
#488=CARTESIAN_POINT('',(0.0,3.4975,-79.39));
#489=DIRECTION('',(0.0,0.0,-1.0));
#490=DIRECTION('',(0.0,1.0,0.0));
#491=CARTESIAN_POINT('',(0.0,0.0,-50.79));
#492=DIRECTION('',(0.0,0.0,-1.0));
#493=DIRECTION('',(0.0,1.0,0.0));
#494=SURFACE_STYLE_FILL_AREA(#583);
#495=ORIENTED_EDGE('',*,*,#158,.F.);
#496=ORIENTED_EDGE('',*,*,#132,.F.);
#497=ORIENTED_EDGE('',*,*,#106,.F.);
#498=CARTESIAN_POINT('',(0.0,0.0,-50.795));
#499=DIRECTION('',(-0.0,-0.0,1.0));
#500=DIRECTION('',(0.0,1.0,0.0));
#501=DIRECTION('',(-6.12303176911191E-017,0.500000000000002,-0.866025403784438));
#502=SURFACE_STYLE_FILL_AREA(#584);
#503=ORIENTED_EDGE('',*,*,#168,.F.);
#504=ORIENTED_EDGE('',*,*,#170,.F.);
#505=ORIENTED_EDGE('',*,*,#88,.T.);
#506=ORIENTED_EDGE('',*,*,#106,.T.);
#507=CARTESIAN_POINT('',(0.0,6.9974,-50.79));
#508=DIRECTION('',(-0.0,0.0,1.0));
#509=DIRECTION('',(0.0,-1.0,0.0));
#510=CARTESIAN_POINT('',(0.0,0.0,-79.39));
#511=DIRECTION('',(0.0,0.0,-1.0));
#512=DIRECTION('',(0.0,1.0,0.0));
#513=DIRECTION('',(0.0,0.0,-1.0));
#514=SURFACE_STYLE_FILL_AREA(#585);
#515=ORIENTED_EDGE('',*,*,#152,.T.);
#516=ORIENTED_EDGE('',*,*,#82,.F.);
#517=ORIENTED_EDGE('',*,*,#146,.T.);
#518=ORIENTED_EDGE('',*,*,#170,.T.);
#519=CARTESIAN_POINT('',(0.0,0.0,-65.09));
#520=DIRECTION('',(0.0,-0.0,-1.0));
#521=DIRECTION('',(0.0,1.0,0.0));
#522=DIRECTION('',(1.22460510240314E-016,-0.999998978104896,-0.0014296115428458));
#523=SURFACE_STYLE_FILL_AREA(#586);
#524=ORIENTED_EDGE('',*,*,#152,.F.);
#525=ORIENTED_EDGE('',*,*,#168,.T.);
#526=ORIENTED_EDGE('',*,*,#146,.F.);
#527=ORIENTED_EDGE('',*,*,#120,.F.);
#528=CARTESIAN_POINT('',(0.0,0.0,-65.09));
#529=DIRECTION('',(0.0,-0.0,-1.0));
#530=DIRECTION('',(0.0,1.0,0.0));
#531=SURFACE_STYLE_FILL_AREA(#587);
#532=SURFACE_STYLE_FILL_AREA(#588);
#533=ORIENTED_EDGE('',*,*,#100,.F.);
#534=ORIENTED_EDGE('',*,*,#86,.F.);
#535=CARTESIAN_POINT('',(0.0,2.94579194313172,0.00999999999999091));
#536=DIRECTION('',(-0.0,0.0,1.0));
#537=DIRECTION('',(0.0,-1.0,0.0));
#538=DIRECTION('',(-4.28184039794419E-022,3.49650349647397E-006,0.999999999993887));
#539=CARTESIAN_POINT('',(0.0,0.0,-50.79));
#540=DIRECTION('',(0.0,0.0,-1.0));
#541=DIRECTION('',(0.0,-1.0,0.0));
#542=DIRECTION('',(-0.0,-0.0,1.0));
#543=DIRECTION('',(-4.28184039794419E-022,3.49650349647397E-006,-0.999999999993887));
#544=DIRECTION('',(-6.12303176911191E-017,0.500000000000002,0.866025403784438));
#545=SURFACE_STYLE_FILL_AREA(#589);
#546=ORIENTED_EDGE('',*,*,#124,.T.);
#547=ORIENTED_EDGE('',*,*,#148,.F.);
#548=ORIENTED_EDGE('',*,*,#150,.T.);
#549=ORIENTED_EDGE('',*,*,#160,.T.);
#550=CARTESIAN_POINT('',(0.0,0.0,-18.787));
#551=DIRECTION('',(-0.0,-0.0,1.0));
#552=DIRECTION('',(0.0,1.0,0.0));
#553=DIRECTION('',(1.22460510240314E-016,-0.999998978104896,0.0014296115428458));
#554=CARTESIAN_POINT('',(0.0,0.0,-0.784000000000006));
#555=DIRECTION('',(0.0,0.0,-1.0));
#556=DIRECTION('',(0.0,1.0,0.0));
#557=SURFACE_STYLE_FILL_AREA(#590);
#558=ORIENTED_EDGE('',*,*,#124,.F.);
#559=ORIENTED_EDGE('',*,*,#84,.T.);
#560=ORIENTED_EDGE('',*,*,#150,.F.);
#561=ORIENTED_EDGE('',*,*,#98,.F.);
#562=CARTESIAN_POINT('',(0.0,0.0,-18.787));
#563=DIRECTION('',(-0.0,-0.0,1.0));
#564=DIRECTION('',(0.0,1.0,0.0));
#565=CARTESIAN_POINT('',(0.0,0.0,-50.79));
#566=DIRECTION('',(0.0,0.0,-1.0));
#567=DIRECTION('',(0.0,1.0,0.0));
#568=CARTESIAN_POINT('',(0.0,0.0,-50.79));
#569=DIRECTION('',(0.0,0.0,-1.0));
#570=DIRECTION('',(0.0,1.0,0.0));
#571=SURFACE_STYLE_FILL_AREA(#591);
#572=ORIENTED_EDGE('',*,*,#158,.T.);
#573=ORIENTED_EDGE('',*,*,#88,.F.);
#574=ORIENTED_EDGE('',*,*,#132,.T.);
#575=CARTESIAN_POINT('',(0.0,0.0,-50.795));
#576=DIRECTION('',(-0.0,-0.0,1.0));
#577=DIRECTION('',(0.0,1.0,0.0));
#578=FILL_AREA_STYLE('',(#592));
#579=FILL_AREA_STYLE('',(#593));
#580=FILL_AREA_STYLE('',(#594));
#581=FILL_AREA_STYLE('',(#595));
#582=FILL_AREA_STYLE('',(#596));
#583=FILL_AREA_STYLE('',(#597));
#584=FILL_AREA_STYLE('',(#598));
#585=FILL_AREA_STYLE('',(#599));
#586=FILL_AREA_STYLE('',(#600));
#587=FILL_AREA_STYLE('',(#601));
#588=FILL_AREA_STYLE('',(#602));
#589=FILL_AREA_STYLE('',(#603));
#590=FILL_AREA_STYLE('',(#604));
#591=FILL_AREA_STYLE('',(#605));
#592=FILL_AREA_STYLE_COLOUR('',#606);
#593=FILL_AREA_STYLE_COLOUR('',#607);
#594=FILL_AREA_STYLE_COLOUR('',#608);
#595=FILL_AREA_STYLE_COLOUR('',#609);
#596=FILL_AREA_STYLE_COLOUR('',#610);
#597=FILL_AREA_STYLE_COLOUR('',#611);
#598=FILL_AREA_STYLE_COLOUR('',#612);
#599=FILL_AREA_STYLE_COLOUR('',#613);
#600=FILL_AREA_STYLE_COLOUR('',#614);
#601=FILL_AREA_STYLE_COLOUR('',#615);
#602=FILL_AREA_STYLE_COLOUR('',#616);
#603=FILL_AREA_STYLE_COLOUR('',#617);
#604=FILL_AREA_STYLE_COLOUR('',#618);
#605=FILL_AREA_STYLE_COLOUR('',#619);
#606=COLOUR_RGB('',0.498039215803146,0.498039215803146,0.498039215803146);
#607=COLOUR_RGB('',0.498039215803146,0.498039215803146,0.498039215803146);
#608=COLOUR_RGB('',0.800000011920929,0.800000011920929,0.800000011920929);
#609=COLOUR_RGB('',0.498039215803146,0.498039215803146,0.498039215803146);
#610=COLOUR_RGB('',0.800000011920929,0.800000011920929,0.800000011920929);
#611=COLOUR_RGB('',0.800000011920929,0.800000011920929,0.800000011920929);
#612=COLOUR_RGB('',0.800000011920929,0.800000011920929,0.800000011920929);
#613=COLOUR_RGB('',0.800000011920929,0.800000011920929,0.800000011920929);
#614=COLOUR_RGB('',0.800000011920929,0.800000011920929,0.800000011920929);
#615=COLOUR_RGB('',0.800000011920929,0.800000011920929,0.800000011920929);
#616=COLOUR_RGB('',0.498039215803146,0.498039215803146,0.498039215803146);
#617=COLOUR_RGB('',0.498039215803146,0.498039215803146,0.498039215803146);
#618=COLOUR_RGB('',0.498039215803146,0.498039215803146,0.498039215803146);
#619=COLOUR_RGB('',0.800000011920929,0.800000011920929,0.800000011920929);
#620=AXIS2_PLACEMENT_3D('PCS',#621,#622,#623);
#621=CARTESIAN_POINT('',(0.0,0.0,0.0));
#622=DIRECTION('',(0.0,0.0,1.0));
#623=DIRECTION('',(1.0,0.0,0.0));
#624=AXIS2_PLACEMENT_3D('CIP',#625,#626,#627);
#625=CARTESIAN_POINT('',(0.0,0.0,-79.4));
#626=DIRECTION('',(0.0,0.0,1.0));
#627=DIRECTION('',(1.0,0.0,0.0));
#628=AXIS2_PLACEMENT_3D('CRP',#629,#630,#631);
#629=CARTESIAN_POINT('',(-7.0,0.0,-79.4));
#630=DIRECTION('',(0.0,0.0,1.0));
#631=DIRECTION('',(1.0,0.0,0.0));
#632=AXIS2_PLACEMENT_3D('MCS',#633,#634,#635);
#633=CARTESIAN_POINT('',(0.0,0.0,-36.8));
#634=DIRECTION('',(0.0,0.0,1.0));
#635=DIRECTION('',(1.0,0.0,0.0));
#636=CONSTRUCTIVE_GEOMETRY_REPRESENTATION_RELATIONSHIP('coordinate systems',$,#65,#637);
#637=CONSTRUCTIVE_GEOMETRY_REPRESENTATION('coordinate systems',(#620,#624,#628,#632),#10);
ENDSEC;
END-ISO-10303-21;
