ISO-10303-21;
HEADER;
FILE_DESCRIPTION(('no description'),'unknown implementation level');
FILE_NAME('solidHGOwx6zyHY74nLlGL5l4ojM_RBA_1.STP','  ',('CIMSOURCE GmbH'),('CADClick - KiM GmbH - www.kimweb.de'),'unknown preprocess','ACIS','unknown authorization');
FILE_SCHEMA(('automotive_design'));
ENDSEC;
DATA;
#1=MECHANICAL_DESIGN_GEOMETRIC_PRESENTATION_REPRESENTATION(' ',(#14,#15,#16,#17,#18,#19,#20,#21,#22,#23,#24,#25,#26,#27,#28,#29,#30,#31,#32,#33,#34,#35,#36,#37,#38,#39,#40,#41,#42,#43,#44,#45,#46,#47,#48,#49,#50,#51,#52,#53,#54,#55,#56,#57,#58,#59,#60),#10);
#2=PRODUCT_DEFINITION_CONTEXT('',#61,'design');
#3=APPLICATION_PROTOCOL_DEFINITION('INTERNATIONAL STANDARD','automotive_design',1994,#61);
#4=PRODUCT_CATEGORY_RELATIONSHIP('NONE','NONE',#62,#63);
#5=SHAPE_DEFINITION_REPRESENTATION(#64,#65);
#6=PRODUCT_DEFINITION_CONTEXT('',#66,'design');
#7=APPLICATION_PROTOCOL_DEFINITION('INTERNATIONAL STANDARD','automotive_design',1994,#66);
#8=PRODUCT_CATEGORY_RELATIONSHIP('NONE','NONE',#67,#68);
#9=SHAPE_DEFINITION_REPRESENTATION(#69,#70);
#10= (GEOMETRIC_REPRESENTATION_CONTEXT(3)GLOBAL_UNCERTAINTY_ASSIGNED_CONTEXT((#73))GLOBAL_UNIT_ASSIGNED_CONTEXT((#75,#76,#77))REPRESENTATION_CONTEXT('NONE','WORKSPACE'));
#14=STYLED_ITEM('',(#79),#80);
#15=STYLED_ITEM('',(#81),#82);
#16=STYLED_ITEM('',(#83),#84);
#17=STYLED_ITEM('',(#85),#86);
#18=STYLED_ITEM('',(#87),#88);
#19=STYLED_ITEM('',(#89),#90);
#20=STYLED_ITEM('',(#91),#92);
#21=STYLED_ITEM('',(#93),#94);
#22=STYLED_ITEM('',(#95),#96);
#23=STYLED_ITEM('',(#97),#98);
#24=STYLED_ITEM('',(#99),#100);
#25=STYLED_ITEM('',(#101),#102);
#26=STYLED_ITEM('',(#103),#104);
#27=STYLED_ITEM('',(#105),#106);
#28=STYLED_ITEM('',(#107),#108);
#29=STYLED_ITEM('',(#109),#110);
#30=STYLED_ITEM('',(#111),#112);
#31=STYLED_ITEM('',(#113),#114);
#32=STYLED_ITEM('',(#115),#116);
#33=STYLED_ITEM('',(#117),#118);
#34=STYLED_ITEM('',(#119),#120);
#35=STYLED_ITEM('',(#121),#122);
#36=STYLED_ITEM('',(#123),#124);
#37=STYLED_ITEM('',(#125),#126);
#38=STYLED_ITEM('',(#127),#128);
#39=STYLED_ITEM('',(#129),#130);
#40=STYLED_ITEM('',(#131),#132);
#41=STYLED_ITEM('',(#133),#134);
#42=STYLED_ITEM('',(#135),#136);
#43=STYLED_ITEM('',(#137),#138);
#44=STYLED_ITEM('',(#139),#140);
#45=STYLED_ITEM('',(#141),#142);
#46=STYLED_ITEM('',(#143),#144);
#47=STYLED_ITEM('',(#145),#146);
#48=STYLED_ITEM('',(#147),#148);
#49=STYLED_ITEM('',(#149),#150);
#50=STYLED_ITEM('',(#151),#152);
#51=STYLED_ITEM('',(#153),#154);
#52=STYLED_ITEM('',(#155),#156);
#53=STYLED_ITEM('',(#157),#158);
#54=STYLED_ITEM('',(#159),#160);
#55=STYLED_ITEM('',(#161),#162);
#56=STYLED_ITEM('',(#163),#164);
#57=STYLED_ITEM('',(#165),#166);
#58=STYLED_ITEM('',(#167),#168);
#59=STYLED_ITEM('',(#169),#170);
#60=STYLED_ITEM('',(#171),#172);
#61=APPLICATION_CONTEXT(' ');
#62=PRODUCT_CATEGORY('part','NONE');
#63=PRODUCT_RELATED_PRODUCT_CATEGORY('detail',' ',(#173));
#64=PRODUCT_DEFINITION_SHAPE('NONE','NONE',#174);
#65=ADVANCED_BREP_SHAPE_REPRESENTATION('1',(#114,#175),#10);
#66=APPLICATION_CONTEXT(' ');
#67=PRODUCT_CATEGORY('part','NONE');
#68=PRODUCT_RELATED_PRODUCT_CATEGORY('detail',' ',(#176));
#69=PRODUCT_DEFINITION_SHAPE('NONE','NONE',#177);
#70=ADVANCED_BREP_SHAPE_REPRESENTATION('2',(#106,#178),#10);
#73=UNCERTAINTY_MEASURE_WITH_UNIT(LENGTH_MEASURE(1.0E-006),#75,'','');
#75= (CONVERSION_BASED_UNIT('MILLIMETRE',#181)LENGTH_UNIT()NAMED_UNIT(#184));
#76= (NAMED_UNIT(#186)PLANE_ANGLE_UNIT()SI_UNIT($,.RADIAN.));
#77= (NAMED_UNIT(#186)SOLID_ANGLE_UNIT()SI_UNIT($,.STERADIAN.));
#79=PRESENTATION_STYLE_ASSIGNMENT((#192));
#80=EDGE_CURVE('',#148,#116,#193,.T.);
#81=PRESENTATION_STYLE_ASSIGNMENT((#194));
#82=ADVANCED_FACE('',(#195),#196,.T.);
#83=PRESENTATION_STYLE_ASSIGNMENT((#197));
#84=EDGE_CURVE('',#160,#86,#198,.T.);
#85=PRESENTATION_STYLE_ASSIGNMENT((#199));
#86=VERTEX_POINT('',#200);
#87=PRESENTATION_STYLE_ASSIGNMENT((#201));
#88=VERTEX_POINT('',#202);
#89=PRESENTATION_STYLE_ASSIGNMENT((#203));
#90=EDGE_CURVE('',#150,#160,#204,.T.);
#91=PRESENTATION_STYLE_ASSIGNMENT((#205));
#92=EDGE_CURVE('',#140,#112,#206,.T.);
#93=PRESENTATION_STYLE_ASSIGNMENT((#207));
#94=EDGE_CURVE('',#116,#148,#208,.T.);
#95=PRESENTATION_STYLE_ASSIGNMENT((#209));
#96=EDGE_CURVE('',#140,#162,#210,.T.);
#97=PRESENTATION_STYLE_ASSIGNMENT((#211));
#98=EDGE_CURVE('',#160,#150,#212,.T.);
#99=PRESENTATION_STYLE_ASSIGNMENT((#213));
#100=EDGE_CURVE('',#146,#148,#214,.T.);
#101=PRESENTATION_STYLE_ASSIGNMENT((#215));
#102=EDGE_CURVE('',#86,#112,#216,.T.);
#103=PRESENTATION_STYLE_ASSIGNMENT((#217));
#104=EDGE_CURVE('',#110,#122,#218,.T.);
#105=PRESENTATION_STYLE_ASSIGNMENT((#219));
#106=MANIFOLD_SOLID_BREP('2',#220);
#107=PRESENTATION_STYLE_ASSIGNMENT((#221));
#108=ADVANCED_FACE('',(#222),#223,.T.);
#109=PRESENTATION_STYLE_ASSIGNMENT((#224));
#110=VERTEX_POINT('',#225);
#111=PRESENTATION_STYLE_ASSIGNMENT((#226));
#112=VERTEX_POINT('',#227);
#113=PRESENTATION_STYLE_ASSIGNMENT((#228));
#114=MANIFOLD_SOLID_BREP('1',#229);
#115=PRESENTATION_STYLE_ASSIGNMENT((#230));
#116=VERTEX_POINT('',#231);
#117=PRESENTATION_STYLE_ASSIGNMENT((#232));
#118=ADVANCED_FACE('',(#233),#234,.T.);
#119=PRESENTATION_STYLE_ASSIGNMENT((#235));
#120=ADVANCED_FACE('',(#236),#237,.T.);
#121=PRESENTATION_STYLE_ASSIGNMENT((#238));
#122=VERTEX_POINT('',#239);
#123=PRESENTATION_STYLE_ASSIGNMENT((#240));
#124=EDGE_CURVE('',#86,#162,#241,.T.);
#125=PRESENTATION_STYLE_ASSIGNMENT((#242));
#126=ADVANCED_FACE('',(#243),#244,.T.);
#127=PRESENTATION_STYLE_ASSIGNMENT((#245));
#128=ADVANCED_FACE('',(#246,#247),#248,.T.);
#129=PRESENTATION_STYLE_ASSIGNMENT((#249));
#130=EDGE_CURVE('',#122,#88,#250,.T.);
#131=PRESENTATION_STYLE_ASSIGNMENT((#251));
#132=ADVANCED_FACE('',(#252),#253,.T.);
#133=PRESENTATION_STYLE_ASSIGNMENT((#254));
#134=ADVANCED_FACE('',(#255),#256,.F.);
#135=PRESENTATION_STYLE_ASSIGNMENT((#257));
#136=EDGE_CURVE('',#116,#146,#258,.T.);
#137=PRESENTATION_STYLE_ASSIGNMENT((#259));
#138=EDGE_CURVE('',#112,#150,#260,.T.);
#139=PRESENTATION_STYLE_ASSIGNMENT((#261));
#140=VERTEX_POINT('',#262);
#141=PRESENTATION_STYLE_ASSIGNMENT((#263));
#142=EDGE_CURVE('',#158,#110,#264,.T.);
#143=PRESENTATION_STYLE_ASSIGNMENT((#265));
#144=EDGE_CURVE('',#112,#86,#266,.T.);
#145=PRESENTATION_STYLE_ASSIGNMENT((#267));
#146=VERTEX_POINT('',#268);
#147=PRESENTATION_STYLE_ASSIGNMENT((#269));
#148=VERTEX_POINT('',#270);
#149=PRESENTATION_STYLE_ASSIGNMENT((#271));
#150=VERTEX_POINT('',#272);
#151=PRESENTATION_STYLE_ASSIGNMENT((#273));
#152=EDGE_CURVE('',#162,#140,#274,.T.);
#153=PRESENTATION_STYLE_ASSIGNMENT((#275));
#154=EDGE_CURVE('',#110,#158,#276,.T.);
#155=PRESENTATION_STYLE_ASSIGNMENT((#277));
#156=ADVANCED_FACE('',(#278),#279,.T.);
#157=PRESENTATION_STYLE_ASSIGNMENT((#280));
#158=VERTEX_POINT('',#281);
#159=PRESENTATION_STYLE_ASSIGNMENT((#282));
#160=VERTEX_POINT('',#283);
#161=PRESENTATION_STYLE_ASSIGNMENT((#284));
#162=VERTEX_POINT('',#285);
#163=PRESENTATION_STYLE_ASSIGNMENT((#286));
#164=EDGE_CURVE('',#88,#122,#287,.T.);
#165=PRESENTATION_STYLE_ASSIGNMENT((#288));
#166=ADVANCED_FACE('',(#289),#290,.F.);
#167=PRESENTATION_STYLE_ASSIGNMENT((#291));
#168=ADVANCED_FACE('',(#292),#293,.T.);
#169=PRESENTATION_STYLE_ASSIGNMENT((#294));
#170=EDGE_CURVE('',#88,#158,#295,.T.);
#171=PRESENTATION_STYLE_ASSIGNMENT((#296));
#172=ADVANCED_FACE('',(#297),#298,.T.);
#173=PRODUCT('1','1','PART-1-DESC',(#299));
#174=PRODUCT_DEFINITION('NONE','NONE',#300,#2);
#175=AXIS2_PLACEMENT_3D('',#301,#302,#303);
#176=PRODUCT('2','2','PART-2-DESC',(#304));
#177=PRODUCT_DEFINITION('NONE','NONE',#305,#6);
#178=AXIS2_PLACEMENT_3D('',#306,#307,#308);
#181=LENGTH_MEASURE_WITH_UNIT(LENGTH_MEASURE(1.0),#309);
#184=DIMENSIONAL_EXPONENTS(1.0,0.0,0.0,0.0,0.0,0.0,0.0);
#186=DIMENSIONAL_EXPONENTS(0.0,0.0,0.0,0.0,0.0,0.0,0.0);
#192=CURVE_STYLE('',#310,POSITIVE_LENGTH_MEASURE(1.0E-006),#311);
#193=CIRCLE('',#312,7.4949);
#194=SURFACE_STYLE_USAGE(.BOTH.,#313);
#195=FACE_OUTER_BOUND('',#314,.T.);
#196=PLANE('',#315);
#197=CURVE_STYLE('',#316,POSITIVE_LENGTH_MEASURE(1.0E-006),#317);
#198=LINE('',#318,#319);
#199=POINT_STYLE(' ',#320,POSITIVE_LENGTH_MEASURE(1.0E-006),#321);
#200=CARTESIAN_POINT('',(7.7762503467721E-016,-6.35,-0.784000000000006));
#201=POINT_STYLE(' ',#322,POSITIVE_LENGTH_MEASURE(1.0E-006),#323);
#202=CARTESIAN_POINT('',(9.18454765366783E-016,-7.5,-79.39));
#203=CURVE_STYLE('',#324,POSITIVE_LENGTH_MEASURE(1.0E-006),#325);
#204=CIRCLE('',#326,6.35);
#205=CURVE_STYLE('',#327,POSITIVE_LENGTH_MEASURE(1.0E-006),#328);
#206=LINE('',#329,#330);
#207=CURVE_STYLE('',#331,POSITIVE_LENGTH_MEASURE(1.0E-006),#332);
#208=CIRCLE('',#333,7.4949);
#209=CURVE_STYLE('',#334,POSITIVE_LENGTH_MEASURE(1.0E-006),#335);
#210=CIRCLE('',#336,5.89158388626344);
#211=CURVE_STYLE('',#337,POSITIVE_LENGTH_MEASURE(1.0E-006),#338);
#212=CIRCLE('',#339,6.35);
#213=CURVE_STYLE('',#340,POSITIVE_LENGTH_MEASURE(1.0E-006),#341);
#214=LINE('',#342,#343);
#215=CURVE_STYLE('',#344,POSITIVE_LENGTH_MEASURE(1.0E-006),#345);
#216=CIRCLE('',#346,6.35);
#217=CURVE_STYLE('',#347,POSITIVE_LENGTH_MEASURE(1.0E-006),#348);
#218=LINE('',#349,#350);
#219=SURFACE_STYLE_USAGE(.BOTH.,#351);
#220=CLOSED_SHELL('',(#126,#108,#132,#82,#156,#172));
#221=SURFACE_STYLE_USAGE(.BOTH.,#352);
#222=FACE_OUTER_BOUND('',#353,.T.);
#223=CONICAL_SURFACE('',#354,6.12079194313172,0.523598775598301);
#224=POINT_STYLE(' ',#355,POSITIVE_LENGTH_MEASURE(1.0E-006),#356);
#225=CARTESIAN_POINT('',(0.0,7.4999,-50.79));
#226=POINT_STYLE(' ',#357,POSITIVE_LENGTH_MEASURE(1.0E-006),#358);
#227=CARTESIAN_POINT('',(0.0,6.35,-0.784000000000006));
#228=SURFACE_STYLE_USAGE(.BOTH.,#359);
#229=CLOSED_SHELL('',(#118,#166,#134,#128,#168,#120));
#230=POINT_STYLE(' ',#360,POSITIVE_LENGTH_MEASURE(1.0E-006),#361);
#231=CARTESIAN_POINT('',(0.0,7.4949,-50.79));
#232=SURFACE_STYLE_USAGE(.BOTH.,#362);
#233=FACE_OUTER_BOUND('',#363,.T.);
#234=CONICAL_SURFACE('',#364,7.49995,3.4965034964811E-006);
#235=SURFACE_STYLE_USAGE(.BOTH.,#365);
#236=FACE_OUTER_BOUND('',#366,.T.);
#237=PLANE('',#367);
#238=POINT_STYLE(' ',#368,POSITIVE_LENGTH_MEASURE(1.0E-006),#369);
#239=CARTESIAN_POINT('',(0.0,7.5,-79.39));
#240=CURVE_STYLE('',#370,POSITIVE_LENGTH_MEASURE(1.0E-006),#371);
#241=LINE('',#372,#373);
#242=SURFACE_STYLE_USAGE(.BOTH.,#374);
#243=FACE_OUTER_BOUND('',#375,.T.);
#244=CYLINDRICAL_SURFACE('',#376,6.35);
#245=SURFACE_STYLE_USAGE(.BOTH.,#377);
#246=FACE_OUTER_BOUND('',#378,.T.);
#247=FACE_BOUND('',#379,.T.);
#248=PLANE('',#380);
#249=CURVE_STYLE('',#381,POSITIVE_LENGTH_MEASURE(1.0E-006),#382);
#250=CIRCLE('',#383,7.5);
#251=SURFACE_STYLE_USAGE(.BOTH.,#384);
#252=FACE_OUTER_BOUND('',#385,.T.);
#253=PLANE('',#386);
#254=SURFACE_STYLE_USAGE(.BOTH.,#387);
#255=FACE_OUTER_BOUND('',#388,.T.);
#256=CONICAL_SURFACE('',#389,3.74745,1.56946208696968);
#257=CURVE_STYLE('',#390,POSITIVE_LENGTH_MEASURE(1.0E-006),#391);
#258=LINE('',#392,#393);
#259=CURVE_STYLE('',#394,POSITIVE_LENGTH_MEASURE(1.0E-006),#395);
#260=LINE('',#396,#397);
#261=POINT_STYLE(' ',#398,POSITIVE_LENGTH_MEASURE(1.0E-006),#399);
#262=CARTESIAN_POINT('',(0.0,5.89158388626344,0.00999999999999091));
#263=CURVE_STYLE('',#400,POSITIVE_LENGTH_MEASURE(1.0E-006),#401);
#264=CIRCLE('',#402,7.4999);
#265=CURVE_STYLE('',#403,POSITIVE_LENGTH_MEASURE(1.0E-006),#404);
#266=CIRCLE('',#405,6.35);
#267=POINT_STYLE(' ',#406,POSITIVE_LENGTH_MEASURE(1.0E-006),#407);
#268=CARTESIAN_POINT('',(0.0,0.0,-50.8));
#269=POINT_STYLE(' ',#408,POSITIVE_LENGTH_MEASURE(1.0E-006),#409);
#270=CARTESIAN_POINT('',(9.17830216126334E-016,-7.4949,-50.79));
#271=POINT_STYLE(' ',#410,POSITIVE_LENGTH_MEASURE(1.0E-006),#411);
#272=CARTESIAN_POINT('',(-7.7762503467721E-016,6.35,-50.79));
#273=CURVE_STYLE('',#412,POSITIVE_LENGTH_MEASURE(1.0E-006),#413);
#274=CIRCLE('',#414,5.89158388626344);
#275=CURVE_STYLE('',#415,POSITIVE_LENGTH_MEASURE(1.0E-006),#416);
#276=CIRCLE('',#417,7.4999);
#277=SURFACE_STYLE_USAGE(.BOTH.,#418);
#278=FACE_OUTER_BOUND('',#419,.T.);
#279=CONICAL_SURFACE('',#420,6.12079194313172,0.523598775598301);
#280=POINT_STYLE(' ',#421,POSITIVE_LENGTH_MEASURE(1.0E-006),#422);
#281=CARTESIAN_POINT('',(9.18442519303245E-016,-7.4999,-50.79));
#282=POINT_STYLE(' ',#423,POSITIVE_LENGTH_MEASURE(1.0E-006),#424);
#283=CARTESIAN_POINT('',(0.0,-6.35,-50.79));
#284=POINT_STYLE(' ',#425,POSITIVE_LENGTH_MEASURE(1.0E-006),#426);
#285=CARTESIAN_POINT('',(7.21487106119574E-016,-5.89158388626344,0.00999999999999091));
#286=CURVE_STYLE('',#427,POSITIVE_LENGTH_MEASURE(1.0E-006),#428);
#287=CIRCLE('',#429,7.5);
#288=SURFACE_STYLE_USAGE(.BOTH.,#430);
#289=FACE_OUTER_BOUND('',#431,.T.);
#290=CONICAL_SURFACE('',#432,3.74745,1.56946208696968);
#291=SURFACE_STYLE_USAGE(.BOTH.,#433);
#292=FACE_OUTER_BOUND('',#434,.T.);
#293=CONICAL_SURFACE('',#435,7.49995,3.4965034964811E-006);
#294=CURVE_STYLE('',#436,POSITIVE_LENGTH_MEASURE(1.0E-006),#437);
#295=LINE('',#438,#439);
#296=SURFACE_STYLE_USAGE(.BOTH.,#440);
#297=FACE_OUTER_BOUND('',#441,.T.);
#298=CYLINDRICAL_SURFACE('',#442,6.35);
#299=PRODUCT_CONTEXT('',#61,'mechanical');
#300=PRODUCT_DEFINITION_FORMATION_WITH_SPECIFIED_SOURCE(' ','NONE',#173,.NOT_KNOWN.);
#301=CARTESIAN_POINT('',(0.0,0.0,0.0));
#302=DIRECTION('',(0.0,0.0,1.0));
#303=DIRECTION('',(1.0,0.0,0.0));
#304=PRODUCT_CONTEXT('',#66,'mechanical');
#305=PRODUCT_DEFINITION_FORMATION_WITH_SPECIFIED_SOURCE(' ','NONE',#176,.NOT_KNOWN.);
#306=CARTESIAN_POINT('',(0.0,0.0,0.0));
#307=DIRECTION('',(0.0,0.0,1.0));
#308=DIRECTION('',(1.0,0.0,0.0));
#309= (NAMED_UNIT(#184)LENGTH_UNIT()SI_UNIT(.MILLI.,.METRE.));
#310=DRAUGHTING_PRE_DEFINED_CURVE_FONT('continuous');
#311=COLOUR_RGB('',0.800000011920929,0.800000011920929,0.800000011920929);
#312=AXIS2_PLACEMENT_3D('',#444,#445,#446);
#313=SURFACE_SIDE_STYLE('',(#447));
#314=EDGE_LOOP('',(#448,#449));
#315=AXIS2_PLACEMENT_3D('',#450,#451,#452);
#316=DRAUGHTING_PRE_DEFINED_CURVE_FONT('continuous');
#317=COLOUR_RGB('',0.498039215803146,0.498039215803146,0.498039215803146);
#318=CARTESIAN_POINT('',(7.7762503467721E-016,-6.35,-18.287));
#319=VECTOR('',#453,1.0);
#320=PRE_DEFINED_MARKER('');
#321=COLOUR_RGB('',0.498039215803146,0.498039215803146,0.498039215803146);
#322=PRE_DEFINED_MARKER('');
#323=COLOUR_RGB('',0.800000011920929,0.800000011920929,0.800000011920929);
#324=DRAUGHTING_PRE_DEFINED_CURVE_FONT('continuous');
#325=COLOUR_RGB('',0.498039215803146,0.498039215803146,0.498039215803146);
#326=AXIS2_PLACEMENT_3D('',#454,#455,#456);
#327=DRAUGHTING_PRE_DEFINED_CURVE_FONT('continuous');
#328=COLOUR_RGB('',0.498039215803146,0.498039215803146,0.498039215803146);
#329=CARTESIAN_POINT('',(-7.49556070398392E-016,6.12079194313172,-0.387000000000008));
#330=VECTOR('',#457,1.0);
#331=DRAUGHTING_PRE_DEFINED_CURVE_FONT('continuous');
#332=COLOUR_RGB('',0.800000011920929,0.800000011920929,0.800000011920929);
#333=AXIS2_PLACEMENT_3D('',#458,#459,#460);
#334=DRAUGHTING_PRE_DEFINED_CURVE_FONT('continuous');
#335=COLOUR_RGB('',0.498039215803146,0.498039215803146,0.498039215803146);
#336=AXIS2_PLACEMENT_3D('',#461,#462,#463);
#337=DRAUGHTING_PRE_DEFINED_CURVE_FONT('continuous');
#338=COLOUR_RGB('',0.498039215803146,0.498039215803146,0.498039215803146);
#339=AXIS2_PLACEMENT_3D('',#464,#465,#466);
#340=DRAUGHTING_PRE_DEFINED_CURVE_FONT('continuous');
#341=COLOUR_RGB('',0.800000011920929,0.800000011920929,0.800000011920929);
#342=CARTESIAN_POINT('',(4.58915108063167E-016,-3.74745,-50.795));
#343=VECTOR('',#467,1.0);
#344=DRAUGHTING_PRE_DEFINED_CURVE_FONT('continuous');
#345=COLOUR_RGB('',0.498039215803146,0.498039215803146,0.498039215803146);
#346=AXIS2_PLACEMENT_3D('',#468,#469,#470);
#347=DRAUGHTING_PRE_DEFINED_CURVE_FONT('continuous');
#348=COLOUR_RGB('',0.800000011920929,0.800000011920929,0.800000011920929);
#349=CARTESIAN_POINT('',(-9.18448642335014E-016,7.49995,-65.09));
#350=VECTOR('',#471,1.0);
#351=SURFACE_SIDE_STYLE('',(#472));
#352=SURFACE_SIDE_STYLE('',(#473));
#353=EDGE_LOOP('',(#474,#475,#476,#477));
#354=AXIS2_PLACEMENT_3D('',#478,#479,#480);
#355=PRE_DEFINED_MARKER('');
#356=COLOUR_RGB('',0.800000011920929,0.800000011920929,0.800000011920929);
#357=PRE_DEFINED_MARKER('');
#358=COLOUR_RGB('',0.498039215803146,0.498039215803146,0.498039215803146);
#359=SURFACE_SIDE_STYLE('',(#481));
#360=PRE_DEFINED_MARKER('');
#361=COLOUR_RGB('',0.800000011920929,0.800000011920929,0.800000011920929);
#362=SURFACE_SIDE_STYLE('',(#482));
#363=EDGE_LOOP('',(#483,#484,#485,#486));
#364=AXIS2_PLACEMENT_3D('',#487,#488,#489);
#365=SURFACE_SIDE_STYLE('',(#490));
#366=EDGE_LOOP('',(#491,#492));
#367=AXIS2_PLACEMENT_3D('',#493,#494,#495);
#368=PRE_DEFINED_MARKER('');
#369=COLOUR_RGB('',0.800000011920929,0.800000011920929,0.800000011920929);
#370=DRAUGHTING_PRE_DEFINED_CURVE_FONT('continuous');
#371=COLOUR_RGB('',0.498039215803146,0.498039215803146,0.498039215803146);
#372=CARTESIAN_POINT('',(7.49556070398392E-016,-6.12079194313172,-0.387000000000008));
#373=VECTOR('',#496,1.0);
#374=SURFACE_SIDE_STYLE('',(#497));
#375=EDGE_LOOP('',(#498,#499,#500,#501));
#376=AXIS2_PLACEMENT_3D('',#502,#503,#504);
#377=SURFACE_SIDE_STYLE('',(#505));
#378=EDGE_LOOP('',(#506,#507));
#379=EDGE_LOOP('',(#508,#509));
#380=AXIS2_PLACEMENT_3D('',#510,#511,#512);
#381=DRAUGHTING_PRE_DEFINED_CURVE_FONT('continuous');
#382=COLOUR_RGB('',0.800000011920929,0.800000011920929,0.800000011920929);
#383=AXIS2_PLACEMENT_3D('',#513,#514,#515);
#384=SURFACE_SIDE_STYLE('',(#516));
#385=EDGE_LOOP('',(#517,#518));
#386=AXIS2_PLACEMENT_3D('',#519,#520,#521);
#387=SURFACE_SIDE_STYLE('',(#522));
#388=EDGE_LOOP('',(#523,#524,#525));
#389=AXIS2_PLACEMENT_3D('',#526,#527,#528);
#390=DRAUGHTING_PRE_DEFINED_CURVE_FONT('continuous');
#391=COLOUR_RGB('',0.800000011920929,0.800000011920929,0.800000011920929);
#392=CARTESIAN_POINT('',(-4.58915108063167E-016,3.74745,-50.795));
#393=VECTOR('',#529,1.0);
#394=DRAUGHTING_PRE_DEFINED_CURVE_FONT('continuous');
#395=COLOUR_RGB('',0.498039215803146,0.498039215803146,0.498039215803146);
#396=CARTESIAN_POINT('',(-7.7762503467721E-016,6.35,-18.287));
#397=VECTOR('',#530,1.0);
#398=PRE_DEFINED_MARKER('');
#399=COLOUR_RGB('',0.498039215803146,0.498039215803146,0.498039215803146);
#400=DRAUGHTING_PRE_DEFINED_CURVE_FONT('continuous');
#401=COLOUR_RGB('',0.800000011920929,0.800000011920929,0.800000011920929);
#402=AXIS2_PLACEMENT_3D('',#531,#532,#533);
#403=DRAUGHTING_PRE_DEFINED_CURVE_FONT('continuous');
#404=COLOUR_RGB('',0.498039215803146,0.498039215803146,0.498039215803146);
#405=AXIS2_PLACEMENT_3D('',#534,#535,#536);
#406=PRE_DEFINED_MARKER('');
#407=COLOUR_RGB('',0.800000011920929,0.800000011920929,0.800000011920929);
#408=PRE_DEFINED_MARKER('');
#409=COLOUR_RGB('',0.800000011920929,0.800000011920929,0.800000011920929);
#410=PRE_DEFINED_MARKER('');
#411=COLOUR_RGB('',0.498039215803146,0.498039215803146,0.498039215803146);
#412=DRAUGHTING_PRE_DEFINED_CURVE_FONT('continuous');
#413=COLOUR_RGB('',0.498039215803146,0.498039215803146,0.498039215803146);
#414=AXIS2_PLACEMENT_3D('',#537,#538,#539);
#415=DRAUGHTING_PRE_DEFINED_CURVE_FONT('continuous');
#416=COLOUR_RGB('',0.800000011920929,0.800000011920929,0.800000011920929);
#417=AXIS2_PLACEMENT_3D('',#540,#541,#542);
#418=SURFACE_SIDE_STYLE('',(#543));
#419=EDGE_LOOP('',(#544,#545,#546,#547));
#420=AXIS2_PLACEMENT_3D('',#548,#549,#550);
#421=PRE_DEFINED_MARKER('');
#422=COLOUR_RGB('',0.800000011920929,0.800000011920929,0.800000011920929);
#423=PRE_DEFINED_MARKER('');
#424=COLOUR_RGB('',0.498039215803146,0.498039215803146,0.498039215803146);
#425=PRE_DEFINED_MARKER('');
#426=COLOUR_RGB('',0.498039215803146,0.498039215803146,0.498039215803146);
#427=DRAUGHTING_PRE_DEFINED_CURVE_FONT('continuous');
#428=COLOUR_RGB('',0.800000011920929,0.800000011920929,0.800000011920929);
#429=AXIS2_PLACEMENT_3D('',#551,#552,#553);
#430=SURFACE_SIDE_STYLE('',(#554));
#431=EDGE_LOOP('',(#555,#556,#557));
#432=AXIS2_PLACEMENT_3D('',#558,#559,#560);
#433=SURFACE_SIDE_STYLE('',(#561));
#434=EDGE_LOOP('',(#562,#563,#564,#565));
#435=AXIS2_PLACEMENT_3D('',#566,#567,#568);
#436=DRAUGHTING_PRE_DEFINED_CURVE_FONT('continuous');
#437=COLOUR_RGB('',0.800000011920929,0.800000011920929,0.800000011920929);
#438=CARTESIAN_POINT('',(9.18448642335014E-016,-7.49995,-65.09));
#439=VECTOR('',#569,1.0);
#440=SURFACE_SIDE_STYLE('',(#570));
#441=EDGE_LOOP('',(#571,#572,#573,#574));
#442=AXIS2_PLACEMENT_3D('',#575,#576,#577);
#444=CARTESIAN_POINT('',(0.0,0.0,-50.79));
#445=DIRECTION('',(0.0,0.0,-1.0));
#446=DIRECTION('',(0.0,1.0,0.0));
#447=SURFACE_STYLE_FILL_AREA(#578);
#448=ORIENTED_EDGE('',*,*,#96,.F.);
#449=ORIENTED_EDGE('',*,*,#152,.F.);
#450=CARTESIAN_POINT('',(0.0,2.94579194313172,0.00999999999999091));
#451=DIRECTION('',(-0.0,0.0,1.0));
#452=DIRECTION('',(0.0,-1.0,0.0));
#453=DIRECTION('',(-0.0,-0.0,1.0));
#454=CARTESIAN_POINT('',(0.0,0.0,-50.79));
#455=DIRECTION('',(0.0,0.0,-1.0));
#456=DIRECTION('',(0.0,-1.0,0.0));
#457=DIRECTION('',(-6.12303176911191E-017,0.500000000000002,-0.866025403784438));
#458=CARTESIAN_POINT('',(0.0,0.0,-50.79));
#459=DIRECTION('',(0.0,0.0,-1.0));
#460=DIRECTION('',(0.0,1.0,0.0));
#461=CARTESIAN_POINT('',(0.0,0.0,0.00999999999999091));
#462=DIRECTION('',(0.0,0.0,-1.0));
#463=DIRECTION('',(0.0,1.0,0.0));
#464=CARTESIAN_POINT('',(0.0,0.0,-50.79));
#465=DIRECTION('',(0.0,0.0,-1.0));
#466=DIRECTION('',(0.0,-1.0,0.0));
#467=DIRECTION('',(1.22460526380293E-016,-0.999999109902176,0.00133423942934857));
#468=CARTESIAN_POINT('',(0.0,0.0,-0.784000000000006));
#469=DIRECTION('',(0.0,0.0,-1.0));
#470=DIRECTION('',(0.0,1.0,0.0));
#471=DIRECTION('',(-4.28184039794419E-022,3.49650349647397E-006,-0.999999999993887));
#472=SURFACE_STYLE_FILL_AREA(#579);
#473=SURFACE_STYLE_FILL_AREA(#580);
#474=ORIENTED_EDGE('',*,*,#92,.F.);
#475=ORIENTED_EDGE('',*,*,#96,.T.);
#476=ORIENTED_EDGE('',*,*,#124,.F.);
#477=ORIENTED_EDGE('',*,*,#144,.F.);
#478=CARTESIAN_POINT('',(0.0,0.0,-0.387000000000008));
#479=DIRECTION('',(0.0,-0.0,-1.0));
#480=DIRECTION('',(0.0,1.0,0.0));
#481=SURFACE_STYLE_FILL_AREA(#581);
#482=SURFACE_STYLE_FILL_AREA(#582);
#483=ORIENTED_EDGE('',*,*,#104,.F.);
#484=ORIENTED_EDGE('',*,*,#154,.T.);
#485=ORIENTED_EDGE('',*,*,#170,.F.);
#486=ORIENTED_EDGE('',*,*,#130,.F.);
#487=CARTESIAN_POINT('',(0.0,0.0,-65.09));
#488=DIRECTION('',(0.0,-0.0,-1.0));
#489=DIRECTION('',(0.0,1.0,0.0));
#490=SURFACE_STYLE_FILL_AREA(#583);
#491=ORIENTED_EDGE('',*,*,#130,.T.);
#492=ORIENTED_EDGE('',*,*,#164,.T.);
#493=CARTESIAN_POINT('',(0.0,3.7475,-79.39));
#494=DIRECTION('',(0.0,0.0,-1.0));
#495=DIRECTION('',(0.0,1.0,0.0));
#496=DIRECTION('',(-6.12303176911191E-017,0.500000000000002,0.866025403784438));
#497=SURFACE_STYLE_FILL_AREA(#584);
#498=ORIENTED_EDGE('',*,*,#138,.F.);
#499=ORIENTED_EDGE('',*,*,#144,.T.);
#500=ORIENTED_EDGE('',*,*,#84,.F.);
#501=ORIENTED_EDGE('',*,*,#90,.F.);
#502=CARTESIAN_POINT('',(0.0,0.0,-18.287));
#503=DIRECTION('',(-0.0,-0.0,1.0));
#504=DIRECTION('',(0.0,1.0,0.0));
#505=SURFACE_STYLE_FILL_AREA(#585);
#506=ORIENTED_EDGE('',*,*,#154,.F.);
#507=ORIENTED_EDGE('',*,*,#142,.F.);
#508=ORIENTED_EDGE('',*,*,#94,.T.);
#509=ORIENTED_EDGE('',*,*,#80,.T.);
#510=CARTESIAN_POINT('',(0.0,7.4974,-50.79));
#511=DIRECTION('',(-0.0,0.0,1.0));
#512=DIRECTION('',(0.0,-1.0,0.0));
#513=CARTESIAN_POINT('',(0.0,0.0,-79.39));
#514=DIRECTION('',(0.0,0.0,-1.0));
#515=DIRECTION('',(0.0,1.0,0.0));
#516=SURFACE_STYLE_FILL_AREA(#586);
#517=ORIENTED_EDGE('',*,*,#98,.T.);
#518=ORIENTED_EDGE('',*,*,#90,.T.);
#519=CARTESIAN_POINT('',(0.0,0.0,-50.79));
#520=DIRECTION('',(0.0,0.0,-1.0));
#521=DIRECTION('',(0.0,-1.0,0.0));
#522=SURFACE_STYLE_FILL_AREA(#587);
#523=ORIENTED_EDGE('',*,*,#100,.T.);
#524=ORIENTED_EDGE('',*,*,#94,.F.);
#525=ORIENTED_EDGE('',*,*,#136,.T.);
#526=CARTESIAN_POINT('',(0.0,0.0,-50.795));
#527=DIRECTION('',(-0.0,-0.0,1.0));
#528=DIRECTION('',(0.0,1.0,0.0));
#529=DIRECTION('',(1.22460526380293E-016,-0.999999109902176,-0.00133423942934857));
#530=DIRECTION('',(0.0,0.0,-1.0));
#531=CARTESIAN_POINT('',(0.0,0.0,-50.79));
#532=DIRECTION('',(0.0,0.0,-1.0));
#533=DIRECTION('',(0.0,1.0,0.0));
#534=CARTESIAN_POINT('',(0.0,0.0,-0.784000000000006));
#535=DIRECTION('',(0.0,0.0,-1.0));
#536=DIRECTION('',(0.0,1.0,0.0));
#537=CARTESIAN_POINT('',(0.0,0.0,0.00999999999999091));
#538=DIRECTION('',(0.0,0.0,-1.0));
#539=DIRECTION('',(0.0,1.0,0.0));
#540=CARTESIAN_POINT('',(0.0,0.0,-50.79));
#541=DIRECTION('',(0.0,0.0,-1.0));
#542=DIRECTION('',(0.0,1.0,0.0));
#543=SURFACE_STYLE_FILL_AREA(#588);
#544=ORIENTED_EDGE('',*,*,#92,.T.);
#545=ORIENTED_EDGE('',*,*,#102,.F.);
#546=ORIENTED_EDGE('',*,*,#124,.T.);
#547=ORIENTED_EDGE('',*,*,#152,.T.);
#548=CARTESIAN_POINT('',(0.0,0.0,-0.387000000000008));
#549=DIRECTION('',(0.0,-0.0,-1.0));
#550=DIRECTION('',(0.0,1.0,0.0));
#551=CARTESIAN_POINT('',(0.0,0.0,-79.39));
#552=DIRECTION('',(0.0,0.0,-1.0));
#553=DIRECTION('',(0.0,1.0,0.0));
#554=SURFACE_STYLE_FILL_AREA(#589);
#555=ORIENTED_EDGE('',*,*,#100,.F.);
#556=ORIENTED_EDGE('',*,*,#136,.F.);
#557=ORIENTED_EDGE('',*,*,#80,.F.);
#558=CARTESIAN_POINT('',(0.0,0.0,-50.795));
#559=DIRECTION('',(-0.0,-0.0,1.0));
#560=DIRECTION('',(0.0,1.0,0.0));
#561=SURFACE_STYLE_FILL_AREA(#590);
#562=ORIENTED_EDGE('',*,*,#104,.T.);
#563=ORIENTED_EDGE('',*,*,#164,.F.);
#564=ORIENTED_EDGE('',*,*,#170,.T.);
#565=ORIENTED_EDGE('',*,*,#142,.T.);
#566=CARTESIAN_POINT('',(0.0,0.0,-65.09));
#567=DIRECTION('',(0.0,-0.0,-1.0));
#568=DIRECTION('',(0.0,1.0,0.0));
#569=DIRECTION('',(-4.28184039794419E-022,3.49650349647397E-006,0.999999999993887));
#570=SURFACE_STYLE_FILL_AREA(#591);
#571=ORIENTED_EDGE('',*,*,#138,.T.);
#572=ORIENTED_EDGE('',*,*,#98,.F.);
#573=ORIENTED_EDGE('',*,*,#84,.T.);
#574=ORIENTED_EDGE('',*,*,#102,.T.);
#575=CARTESIAN_POINT('',(0.0,0.0,-18.287));
#576=DIRECTION('',(-0.0,-0.0,1.0));
#577=DIRECTION('',(0.0,1.0,0.0));
#578=FILL_AREA_STYLE('',(#592));
#579=FILL_AREA_STYLE('',(#593));
#580=FILL_AREA_STYLE('',(#594));
#581=FILL_AREA_STYLE('',(#595));
#582=FILL_AREA_STYLE('',(#596));
#583=FILL_AREA_STYLE('',(#597));
#584=FILL_AREA_STYLE('',(#598));
#585=FILL_AREA_STYLE('',(#599));
#586=FILL_AREA_STYLE('',(#600));
#587=FILL_AREA_STYLE('',(#601));
#588=FILL_AREA_STYLE('',(#602));
#589=FILL_AREA_STYLE('',(#603));
#590=FILL_AREA_STYLE('',(#604));
#591=FILL_AREA_STYLE('',(#605));
#592=FILL_AREA_STYLE_COLOUR('',#606);
#593=FILL_AREA_STYLE_COLOUR('',#607);
#594=FILL_AREA_STYLE_COLOUR('',#608);
#595=FILL_AREA_STYLE_COLOUR('',#609);
#596=FILL_AREA_STYLE_COLOUR('',#610);
#597=FILL_AREA_STYLE_COLOUR('',#611);
#598=FILL_AREA_STYLE_COLOUR('',#612);
#599=FILL_AREA_STYLE_COLOUR('',#613);
#600=FILL_AREA_STYLE_COLOUR('',#614);
#601=FILL_AREA_STYLE_COLOUR('',#615);
#602=FILL_AREA_STYLE_COLOUR('',#616);
#603=FILL_AREA_STYLE_COLOUR('',#617);
#604=FILL_AREA_STYLE_COLOUR('',#618);
#605=FILL_AREA_STYLE_COLOUR('',#619);
#606=COLOUR_RGB('',0.498039215803146,0.498039215803146,0.498039215803146);
#607=COLOUR_RGB('',0.800000011920929,0.800000011920929,0.800000011920929);
#608=COLOUR_RGB('',0.498039215803146,0.498039215803146,0.498039215803146);
#609=COLOUR_RGB('',0.800000011920929,0.800000011920929,0.800000011920929);
#610=COLOUR_RGB('',0.800000011920929,0.800000011920929,0.800000011920929);
#611=COLOUR_RGB('',0.800000011920929,0.800000011920929,0.800000011920929);
#612=COLOUR_RGB('',0.498039215803146,0.498039215803146,0.498039215803146);
#613=COLOUR_RGB('',0.800000011920929,0.800000011920929,0.800000011920929);
#614=COLOUR_RGB('',0.498039215803146,0.498039215803146,0.498039215803146);
#615=COLOUR_RGB('',0.800000011920929,0.800000011920929,0.800000011920929);
#616=COLOUR_RGB('',0.498039215803146,0.498039215803146,0.498039215803146);
#617=COLOUR_RGB('',0.800000011920929,0.800000011920929,0.800000011920929);
#618=COLOUR_RGB('',0.800000011920929,0.800000011920929,0.800000011920929);
#619=COLOUR_RGB('',0.498039215803146,0.498039215803146,0.498039215803146);
#620=AXIS2_PLACEMENT_3D('PCS',#621,#622,#623);
#621=CARTESIAN_POINT('',(0.0,0.0,0.0));
#622=DIRECTION('',(0.0,0.0,1.0));
#623=DIRECTION('',(1.0,0.0,0.0));
#624=AXIS2_PLACEMENT_3D('CIP',#625,#626,#627);
#625=CARTESIAN_POINT('',(0.0,0.0,-79.4));
#626=DIRECTION('',(0.0,0.0,1.0));
#627=DIRECTION('',(1.0,0.0,0.0));
#628=AXIS2_PLACEMENT_3D('CRP',#629,#630,#631);
#629=CARTESIAN_POINT('',(-7.5,0.0,-79.4));
#630=DIRECTION('',(0.0,0.0,1.0));
#631=DIRECTION('',(1.0,0.0,0.0));
#632=AXIS2_PLACEMENT_3D('MCS',#633,#634,#635);
#633=CARTESIAN_POINT('',(0.0,0.0,-35.8));
#634=DIRECTION('',(0.0,0.0,1.0));
#635=DIRECTION('',(1.0,0.0,0.0));
#636=CONSTRUCTIVE_GEOMETRY_REPRESENTATION_RELATIONSHIP('coordinate systems',$,#65,#637);
#637=CONSTRUCTIVE_GEOMETRY_REPRESENTATION('coordinate systems',(#620,#624,#628,#632),#10);
ENDSEC;
END-ISO-10303-21;
