ISO-10303-21;
HEADER;
FILE_DESCRIPTION(('no description'),'unknown implementation level');
FILE_NAME('solidg4M_mnEcyWqzI0_63diN9hpWNp0_1.STP','  ',('CIMSOURCE GmbH'),('CADClick - KiM GmbH - www.kimweb.de'),'unknown preprocess','ACIS','unknown authorization');
FILE_SCHEMA(('automotive_design'));
ENDSEC;
DATA;
#1=MECHANICAL_DESIGN_GEOMETRIC_PRESENTATION_REPRESENTATION(' ',(#14,#15,#16,#17,#18,#19,#20,#21,#22,#23,#24,#25,#26,#27,#28,#29,#30,#31,#32,#33,#34,#35,#36,#37,#38,#39,#40,#41,#42,#43,#44,#45,#46,#47,#48,#49,#50,#51,#52,#53,#54,#55,#56,#57,#58,#59,#60),#10);
#2=PRODUCT_DEFINITION_CONTEXT('',#61,'design');
#3=APPLICATION_PROTOCOL_DEFINITION('INTERNATIONAL STANDARD','automotive_design',1994,#61);
#4=PRODUCT_CATEGORY_RELATIONSHIP('NONE','NONE',#62,#63);
#5=SHAPE_DEFINITION_REPRESENTATION(#64,#65);
#6=PRODUCT_DEFINITION_CONTEXT('',#66,'design');
#7=APPLICATION_PROTOCOL_DEFINITION('INTERNATIONAL STANDARD','automotive_design',1994,#66);
#8=PRODUCT_CATEGORY_RELATIONSHIP('NONE','NONE',#67,#68);
#9=SHAPE_DEFINITION_REPRESENTATION(#69,#70);
#10= (GEOMETRIC_REPRESENTATION_CONTEXT(3)GLOBAL_UNCERTAINTY_ASSIGNED_CONTEXT((#73))GLOBAL_UNIT_ASSIGNED_CONTEXT((#75,#76,#77))REPRESENTATION_CONTEXT('NONE','WORKSPACE'));
#14=STYLED_ITEM('',(#79),#80);
#15=STYLED_ITEM('',(#81),#82);
#16=STYLED_ITEM('',(#83),#84);
#17=STYLED_ITEM('',(#85),#86);
#18=STYLED_ITEM('',(#87),#88);
#19=STYLED_ITEM('',(#89),#90);
#20=STYLED_ITEM('',(#91),#92);
#21=STYLED_ITEM('',(#93),#94);
#22=STYLED_ITEM('',(#95),#96);
#23=STYLED_ITEM('',(#97),#98);
#24=STYLED_ITEM('',(#99),#100);
#25=STYLED_ITEM('',(#101),#102);
#26=STYLED_ITEM('',(#103),#104);
#27=STYLED_ITEM('',(#105),#106);
#28=STYLED_ITEM('',(#107),#108);
#29=STYLED_ITEM('',(#109),#110);
#30=STYLED_ITEM('',(#111),#112);
#31=STYLED_ITEM('',(#113),#114);
#32=STYLED_ITEM('',(#115),#116);
#33=STYLED_ITEM('',(#117),#118);
#34=STYLED_ITEM('',(#119),#120);
#35=STYLED_ITEM('',(#121),#122);
#36=STYLED_ITEM('',(#123),#124);
#37=STYLED_ITEM('',(#125),#126);
#38=STYLED_ITEM('',(#127),#128);
#39=STYLED_ITEM('',(#129),#130);
#40=STYLED_ITEM('',(#131),#132);
#41=STYLED_ITEM('',(#133),#134);
#42=STYLED_ITEM('',(#135),#136);
#43=STYLED_ITEM('',(#137),#138);
#44=STYLED_ITEM('',(#139),#140);
#45=STYLED_ITEM('',(#141),#142);
#46=STYLED_ITEM('',(#143),#144);
#47=STYLED_ITEM('',(#145),#146);
#48=STYLED_ITEM('',(#147),#148);
#49=STYLED_ITEM('',(#149),#150);
#50=STYLED_ITEM('',(#151),#152);
#51=STYLED_ITEM('',(#153),#154);
#52=STYLED_ITEM('',(#155),#156);
#53=STYLED_ITEM('',(#157),#158);
#54=STYLED_ITEM('',(#159),#160);
#55=STYLED_ITEM('',(#161),#162);
#56=STYLED_ITEM('',(#163),#164);
#57=STYLED_ITEM('',(#165),#166);
#58=STYLED_ITEM('',(#167),#168);
#59=STYLED_ITEM('',(#169),#170);
#60=STYLED_ITEM('',(#171),#172);
#61=APPLICATION_CONTEXT(' ');
#62=PRODUCT_CATEGORY('part','NONE');
#63=PRODUCT_RELATED_PRODUCT_CATEGORY('detail',' ',(#173));
#64=PRODUCT_DEFINITION_SHAPE('NONE','NONE',#174);
#65=ADVANCED_BREP_SHAPE_REPRESENTATION('1',(#138,#175),#10);
#66=APPLICATION_CONTEXT(' ');
#67=PRODUCT_CATEGORY('part','NONE');
#68=PRODUCT_RELATED_PRODUCT_CATEGORY('detail',' ',(#176));
#69=PRODUCT_DEFINITION_SHAPE('NONE','NONE',#177);
#70=ADVANCED_BREP_SHAPE_REPRESENTATION('2',(#158,#178),#10);
#73=UNCERTAINTY_MEASURE_WITH_UNIT(LENGTH_MEASURE(1.0E-006),#75,'','');
#75= (CONVERSION_BASED_UNIT('MILLIMETRE',#181)LENGTH_UNIT()NAMED_UNIT(#184));
#76= (NAMED_UNIT(#186)PLANE_ANGLE_UNIT()SI_UNIT($,.RADIAN.));
#77= (NAMED_UNIT(#186)SOLID_ANGLE_UNIT()SI_UNIT($,.STERADIAN.));
#79=PRESENTATION_STYLE_ASSIGNMENT((#192));
#80=EDGE_CURVE('',#162,#132,#193,.T.);
#81=PRESENTATION_STYLE_ASSIGNMENT((#194));
#82=VERTEX_POINT('',#195);
#83=PRESENTATION_STYLE_ASSIGNMENT((#196));
#84=EDGE_CURVE('',#150,#122,#197,.T.);
#85=PRESENTATION_STYLE_ASSIGNMENT((#198));
#86=VERTEX_POINT('',#199);
#87=PRESENTATION_STYLE_ASSIGNMENT((#200));
#88=EDGE_CURVE('',#162,#124,#201,.T.);
#89=PRESENTATION_STYLE_ASSIGNMENT((#202));
#90=ADVANCED_FACE('',(#203),#204,.F.);
#91=PRESENTATION_STYLE_ASSIGNMENT((#205));
#92=ADVANCED_FACE('',(#206),#207,.T.);
#93=PRESENTATION_STYLE_ASSIGNMENT((#208));
#94=EDGE_CURVE('',#86,#124,#209,.T.);
#95=PRESENTATION_STYLE_ASSIGNMENT((#210));
#96=EDGE_CURVE('',#134,#150,#211,.T.);
#97=PRESENTATION_STYLE_ASSIGNMENT((#212));
#98=EDGE_CURVE('',#110,#118,#213,.T.);
#99=PRESENTATION_STYLE_ASSIGNMENT((#214));
#100=EDGE_CURVE('',#82,#144,#215,.T.);
#101=PRESENTATION_STYLE_ASSIGNMENT((#216));
#102=ADVANCED_FACE('',(#217),#218,.T.);
#103=PRESENTATION_STYLE_ASSIGNMENT((#219));
#104=VERTEX_POINT('',#220);
#105=PRESENTATION_STYLE_ASSIGNMENT((#221));
#106=ADVANCED_FACE('',(#222),#223,.T.);
#107=PRESENTATION_STYLE_ASSIGNMENT((#224));
#108=EDGE_CURVE('',#148,#104,#225,.T.);
#109=PRESENTATION_STYLE_ASSIGNMENT((#226));
#110=VERTEX_POINT('',#227);
#111=PRESENTATION_STYLE_ASSIGNMENT((#228));
#112=EDGE_CURVE('',#122,#134,#229,.T.);
#113=PRESENTATION_STYLE_ASSIGNMENT((#230));
#114=ADVANCED_FACE('',(#231),#232,.T.);
#115=PRESENTATION_STYLE_ASSIGNMENT((#233));
#116=EDGE_CURVE('',#124,#86,#234,.T.);
#117=PRESENTATION_STYLE_ASSIGNMENT((#235));
#118=VERTEX_POINT('',#236);
#119=PRESENTATION_STYLE_ASSIGNMENT((#237));
#120=ADVANCED_FACE('',(#238),#239,.T.);
#121=PRESENTATION_STYLE_ASSIGNMENT((#240));
#122=VERTEX_POINT('',#241);
#123=PRESENTATION_STYLE_ASSIGNMENT((#242));
#124=VERTEX_POINT('',#243);
#125=PRESENTATION_STYLE_ASSIGNMENT((#244));
#126=ADVANCED_FACE('',(#245),#246,.T.);
#127=PRESENTATION_STYLE_ASSIGNMENT((#247));
#128=ADVANCED_FACE('',(#248),#249,.F.);
#129=PRESENTATION_STYLE_ASSIGNMENT((#250));
#130=EDGE_CURVE('',#144,#82,#251,.T.);
#131=PRESENTATION_STYLE_ASSIGNMENT((#252));
#132=VERTEX_POINT('',#253);
#133=PRESENTATION_STYLE_ASSIGNMENT((#254));
#134=VERTEX_POINT('',#255);
#135=PRESENTATION_STYLE_ASSIGNMENT((#256));
#136=EDGE_CURVE('',#132,#162,#257,.T.);
#137=PRESENTATION_STYLE_ASSIGNMENT((#258));
#138=MANIFOLD_SOLID_BREP('1',#259);
#139=PRESENTATION_STYLE_ASSIGNMENT((#260));
#140=ADVANCED_FACE('',(#261),#262,.T.);
#141=PRESENTATION_STYLE_ASSIGNMENT((#263));
#142=EDGE_CURVE('',#118,#110,#264,.T.);
#143=PRESENTATION_STYLE_ASSIGNMENT((#265));
#144=VERTEX_POINT('',#266);
#145=PRESENTATION_STYLE_ASSIGNMENT((#267));
#146=EDGE_CURVE('',#148,#86,#268,.T.);
#147=PRESENTATION_STYLE_ASSIGNMENT((#269));
#148=VERTEX_POINT('',#270);
#149=PRESENTATION_STYLE_ASSIGNMENT((#271));
#150=VERTEX_POINT('',#272);
#151=PRESENTATION_STYLE_ASSIGNMENT((#273));
#152=EDGE_CURVE('',#86,#132,#274,.T.);
#153=PRESENTATION_STYLE_ASSIGNMENT((#275));
#154=ADVANCED_FACE('',(#276,#277),#278,.T.);
#155=PRESENTATION_STYLE_ASSIGNMENT((#279));
#156=ADVANCED_FACE('',(#280),#281,.T.);
#157=PRESENTATION_STYLE_ASSIGNMENT((#282));
#158=MANIFOLD_SOLID_BREP('2',#283);
#159=PRESENTATION_STYLE_ASSIGNMENT((#284));
#160=EDGE_CURVE('',#104,#148,#285,.T.);
#161=PRESENTATION_STYLE_ASSIGNMENT((#286));
#162=VERTEX_POINT('',#287);
#163=PRESENTATION_STYLE_ASSIGNMENT((#288));
#164=EDGE_CURVE('',#82,#118,#289,.T.);
#165=PRESENTATION_STYLE_ASSIGNMENT((#290));
#166=EDGE_CURVE('',#110,#144,#291,.T.);
#167=PRESENTATION_STYLE_ASSIGNMENT((#292));
#168=ADVANCED_FACE('',(#293),#294,.T.);
#169=PRESENTATION_STYLE_ASSIGNMENT((#295));
#170=EDGE_CURVE('',#124,#104,#296,.T.);
#171=PRESENTATION_STYLE_ASSIGNMENT((#297));
#172=EDGE_CURVE('',#122,#150,#298,.T.);
#173=PRODUCT('1','1','PART-1-DESC',(#299));
#174=PRODUCT_DEFINITION('NONE','NONE',#300,#2);
#175=AXIS2_PLACEMENT_3D('',#301,#302,#303);
#176=PRODUCT('2','2','PART-2-DESC',(#304));
#177=PRODUCT_DEFINITION('NONE','NONE',#305,#6);
#178=AXIS2_PLACEMENT_3D('',#306,#307,#308);
#181=LENGTH_MEASURE_WITH_UNIT(LENGTH_MEASURE(1.0),#309);
#184=DIMENSIONAL_EXPONENTS(1.0,0.0,0.0,0.0,0.0,0.0,0.0);
#186=DIMENSIONAL_EXPONENTS(0.0,0.0,0.0,0.0,0.0,0.0,0.0);
#192=CURVE_STYLE('',#310,POSITIVE_LENGTH_MEASURE(1.0E-006),#311);
#193=CIRCLE('',#312,7.47908388626344);
#194=POINT_STYLE(' ',#313,POSITIVE_LENGTH_MEASURE(1.0E-006),#314);
#195=CARTESIAN_POINT('',(0.0,7.9999,-53.99));
#196=CURVE_STYLE('',#315,POSITIVE_LENGTH_MEASURE(1.0E-006),#316);
#197=CIRCLE('',#317,7.9949);
#198=POINT_STYLE(' ',#318,POSITIVE_LENGTH_MEASURE(1.0E-006),#319);
#199=CARTESIAN_POINT('',(9.72031293346512E-016,-7.9375,-0.783999999999999));
#200=CURVE_STYLE('',#320,POSITIVE_LENGTH_MEASURE(1.0E-006),#321);
#201=LINE('',#322,#323);
#202=SURFACE_STYLE_USAGE(.BOTH.,#324);
#203=FACE_OUTER_BOUND('',#325,.T.);
#204=CONICAL_SURFACE('',#326,3.99745,1.56954553006385);
#205=SURFACE_STYLE_USAGE(.BOTH.,#327);
#206=FACE_OUTER_BOUND('',#328,.T.);
#207=PLANE('',#329);
#208=CURVE_STYLE('',#330,POSITIVE_LENGTH_MEASURE(1.0E-006),#331);
#209=CIRCLE('',#332,7.9375);
#210=CURVE_STYLE('',#333,POSITIVE_LENGTH_MEASURE(1.0E-006),#334);
#211=LINE('',#335,#336);
#212=CURVE_STYLE('',#337,POSITIVE_LENGTH_MEASURE(1.0E-006),#338);
#213=CIRCLE('',#339,8.0);
#214=CURVE_STYLE('',#340,POSITIVE_LENGTH_MEASURE(1.0E-006),#341);
#215=CIRCLE('',#342,7.9999);
#216=SURFACE_STYLE_USAGE(.BOTH.,#343);
#217=FACE_OUTER_BOUND('',#344,.T.);
#218=PLANE('',#345);
#219=POINT_STYLE(' ',#346,POSITIVE_LENGTH_MEASURE(1.0E-006),#347);
#220=CARTESIAN_POINT('',(-9.72031293346512E-016,7.9375,-53.99));
#221=SURFACE_STYLE_USAGE(.BOTH.,#348);
#222=FACE_OUTER_BOUND('',#349,.T.);
#223=CONICAL_SURFACE('',#350,7.99995,3.00300300298698E-006);
#224=CURVE_STYLE('',#351,POSITIVE_LENGTH_MEASURE(1.0E-006),#352);
#225=CIRCLE('',#353,7.9375);
#226=POINT_STYLE(' ',#354,POSITIVE_LENGTH_MEASURE(1.0E-006),#355);
#227=CARTESIAN_POINT('',(9.79685083057902E-016,-8.0,-87.29));
#228=CURVE_STYLE('',#356,POSITIVE_LENGTH_MEASURE(1.0E-006),#357);
#229=LINE('',#358,#359);
#230=SURFACE_STYLE_USAGE(.BOTH.,#360);
#231=FACE_OUTER_BOUND('',#361,.T.);
#232=CONICAL_SURFACE('',#362,7.70829194313172,0.523598775598301);
#233=CURVE_STYLE('',#363,POSITIVE_LENGTH_MEASURE(1.0E-006),#364);
#234=CIRCLE('',#365,7.9375);
#235=POINT_STYLE(' ',#366,POSITIVE_LENGTH_MEASURE(1.0E-006),#367);
#236=CARTESIAN_POINT('',(0.0,8.0,-87.29));
#237=SURFACE_STYLE_USAGE(.BOTH.,#368);
#238=FACE_OUTER_BOUND('',#369,.T.);
#239=CYLINDRICAL_SURFACE('',#370,7.9375);
#240=POINT_STYLE(' ',#371,POSITIVE_LENGTH_MEASURE(1.0E-006),#372);
#241=CARTESIAN_POINT('',(0.0,7.9949,-53.99));
#242=POINT_STYLE(' ',#373,POSITIVE_LENGTH_MEASURE(1.0E-006),#374);
#243=CARTESIAN_POINT('',(0.0,7.9375,-0.783999999999999));
#244=SURFACE_STYLE_USAGE(.BOTH.,#375);
#245=FACE_OUTER_BOUND('',#376,.T.);
#246=CYLINDRICAL_SURFACE('',#377,7.9375);
#247=SURFACE_STYLE_USAGE(.BOTH.,#378);
#248=FACE_OUTER_BOUND('',#379,.T.);
#249=CONICAL_SURFACE('',#380,3.99745,1.56954553006385);
#250=CURVE_STYLE('',#381,POSITIVE_LENGTH_MEASURE(1.0E-006),#382);
#251=CIRCLE('',#383,7.9999);
#252=POINT_STYLE(' ',#384,POSITIVE_LENGTH_MEASURE(1.0E-006),#385);
#253=CARTESIAN_POINT('',(9.15893364788876E-016,-7.47908388626344,0.00999999999999801));
#254=POINT_STYLE(' ',#386,POSITIVE_LENGTH_MEASURE(1.0E-006),#387);
#255=CARTESIAN_POINT('',(0.0,0.0,-54.0));
#256=CURVE_STYLE('',#388,POSITIVE_LENGTH_MEASURE(1.0E-006),#389);
#257=CIRCLE('',#390,7.47908388626344);
#258=SURFACE_STYLE_USAGE(.BOTH.,#391);
#259=CLOSED_SHELL('',(#106,#90,#128,#154,#140,#102));
#260=SURFACE_STYLE_USAGE(.BOTH.,#392);
#261=FACE_OUTER_BOUND('',#393,.T.);
#262=CONICAL_SURFACE('',#394,7.99995,3.00300300298698E-006);
#263=CURVE_STYLE('',#395,POSITIVE_LENGTH_MEASURE(1.0E-006),#396);
#264=CIRCLE('',#397,8.0);
#265=POINT_STYLE(' ',#398,POSITIVE_LENGTH_MEASURE(1.0E-006),#399);
#266=CARTESIAN_POINT('',(9.79672836994364E-016,-7.9999,-53.99));
#267=CURVE_STYLE('',#400,POSITIVE_LENGTH_MEASURE(1.0E-006),#401);
#268=LINE('',#402,#403);
#269=POINT_STYLE(' ',#404,POSITIVE_LENGTH_MEASURE(1.0E-006),#405);
#270=CARTESIAN_POINT('',(0.0,-7.9375,-53.99));
#271=POINT_STYLE(' ',#406,POSITIVE_LENGTH_MEASURE(1.0E-006),#407);
#272=CARTESIAN_POINT('',(9.79060533817452E-016,-7.9949,-53.99));
#273=CURVE_STYLE('',#408,POSITIVE_LENGTH_MEASURE(1.0E-006),#409);
#274=LINE('',#410,#411);
#275=SURFACE_STYLE_USAGE(.BOTH.,#412);
#276=FACE_OUTER_BOUND('',#413,.T.);
#277=FACE_BOUND('',#414,.T.);
#278=PLANE('',#415);
#279=SURFACE_STYLE_USAGE(.BOTH.,#416);
#280=FACE_OUTER_BOUND('',#417,.T.);
#281=PLANE('',#418);
#282=SURFACE_STYLE_USAGE(.BOTH.,#419);
#283=CLOSED_SHELL('',(#120,#168,#156,#92,#114,#126));
#284=CURVE_STYLE('',#420,POSITIVE_LENGTH_MEASURE(1.0E-006),#421);
#285=CIRCLE('',#422,7.9375);
#286=POINT_STYLE(' ',#423,POSITIVE_LENGTH_MEASURE(1.0E-006),#424);
#287=CARTESIAN_POINT('',(0.0,7.47908388626344,0.00999999999999801));
#288=CURVE_STYLE('',#425,POSITIVE_LENGTH_MEASURE(1.0E-006),#426);
#289=LINE('',#427,#428);
#290=CURVE_STYLE('',#429,POSITIVE_LENGTH_MEASURE(1.0E-006),#430);
#291=LINE('',#431,#432);
#292=SURFACE_STYLE_USAGE(.BOTH.,#433);
#293=FACE_OUTER_BOUND('',#434,.T.);
#294=CONICAL_SURFACE('',#435,7.70829194313172,0.523598775598301);
#295=CURVE_STYLE('',#436,POSITIVE_LENGTH_MEASURE(1.0E-006),#437);
#296=LINE('',#438,#439);
#297=CURVE_STYLE('',#440,POSITIVE_LENGTH_MEASURE(1.0E-006),#441);
#298=CIRCLE('',#442,7.9949);
#299=PRODUCT_CONTEXT('',#61,'mechanical');
#300=PRODUCT_DEFINITION_FORMATION_WITH_SPECIFIED_SOURCE(' ','NONE',#173,.NOT_KNOWN.);
#301=CARTESIAN_POINT('',(0.0,0.0,0.0));
#302=DIRECTION('',(0.0,0.0,1.0));
#303=DIRECTION('',(1.0,0.0,0.0));
#304=PRODUCT_CONTEXT('',#66,'mechanical');
#305=PRODUCT_DEFINITION_FORMATION_WITH_SPECIFIED_SOURCE(' ','NONE',#176,.NOT_KNOWN.);
#306=CARTESIAN_POINT('',(0.0,0.0,0.0));
#307=DIRECTION('',(0.0,0.0,1.0));
#308=DIRECTION('',(1.0,0.0,0.0));
#309= (NAMED_UNIT(#184)LENGTH_UNIT()SI_UNIT(.MILLI.,.METRE.));
#310=DRAUGHTING_PRE_DEFINED_CURVE_FONT('continuous');
#311=COLOUR_RGB('',0.498039215803146,0.498039215803146,0.498039215803146);
#312=AXIS2_PLACEMENT_3D('',#444,#445,#446);
#313=PRE_DEFINED_MARKER('');
#314=COLOUR_RGB('',0.800000011920929,0.800000011920929,0.800000011920929);
#315=DRAUGHTING_PRE_DEFINED_CURVE_FONT('continuous');
#316=COLOUR_RGB('',0.800000011920929,0.800000011920929,0.800000011920929);
#317=AXIS2_PLACEMENT_3D('',#447,#448,#449);
#318=PRE_DEFINED_MARKER('');
#319=COLOUR_RGB('',0.498039215803146,0.498039215803146,0.498039215803146);
#320=DRAUGHTING_PRE_DEFINED_CURVE_FONT('continuous');
#321=COLOUR_RGB('',0.498039215803146,0.498039215803146,0.498039215803146);
#322=CARTESIAN_POINT('',(-9.43962329067694E-016,7.70829194313172,-0.387));
#323=VECTOR('',#450,1.0);
#324=SURFACE_SIDE_STYLE('',(#451));
#325=EDGE_LOOP('',(#452,#453,#454));
#326=AXIS2_PLACEMENT_3D('',#455,#456,#457);
#327=SURFACE_SIDE_STYLE('',(#458));
#328=EDGE_LOOP('',(#459,#460));
#329=AXIS2_PLACEMENT_3D('',#461,#462,#463);
#330=DRAUGHTING_PRE_DEFINED_CURVE_FONT('continuous');
#331=COLOUR_RGB('',0.498039215803146,0.498039215803146,0.498039215803146);
#332=AXIS2_PLACEMENT_3D('',#464,#465,#466);
#333=DRAUGHTING_PRE_DEFINED_CURVE_FONT('continuous');
#334=COLOUR_RGB('',0.800000011920929,0.800000011920929,0.800000011920929);
#335=CARTESIAN_POINT('',(4.89530266908726E-016,-3.99745,-53.995));
#336=VECTOR('',#467,1.0);
#337=DRAUGHTING_PRE_DEFINED_CURVE_FONT('continuous');
#338=COLOUR_RGB('',0.800000011920929,0.800000011920929,0.800000011920929);
#339=AXIS2_PLACEMENT_3D('',#468,#469,#470);
#340=DRAUGHTING_PRE_DEFINED_CURVE_FONT('continuous');
#341=COLOUR_RGB('',0.800000011920929,0.800000011920929,0.800000011920929);
#342=AXIS2_PLACEMENT_3D('',#471,#472,#473);
#343=SURFACE_SIDE_STYLE('',(#474));
#344=EDGE_LOOP('',(#475,#476));
#345=AXIS2_PLACEMENT_3D('',#477,#478,#479);
#346=PRE_DEFINED_MARKER('');
#347=COLOUR_RGB('',0.498039215803146,0.498039215803146,0.498039215803146);
#348=SURFACE_SIDE_STYLE('',(#480));
#349=EDGE_LOOP('',(#481,#482,#483,#484));
#350=AXIS2_PLACEMENT_3D('',#485,#486,#487);
#351=DRAUGHTING_PRE_DEFINED_CURVE_FONT('continuous');
#352=COLOUR_RGB('',0.498039215803146,0.498039215803146,0.498039215803146);
#353=AXIS2_PLACEMENT_3D('',#488,#489,#490);
#354=PRE_DEFINED_MARKER('');
#355=COLOUR_RGB('',0.800000011920929,0.800000011920929,0.800000011920929);
#356=DRAUGHTING_PRE_DEFINED_CURVE_FONT('continuous');
#357=COLOUR_RGB('',0.800000011920929,0.800000011920929,0.800000011920929);
#358=CARTESIAN_POINT('',(-4.89530266908726E-016,3.99745,-53.995));
#359=VECTOR('',#491,1.0);
#360=SURFACE_SIDE_STYLE('',(#492));
#361=EDGE_LOOP('',(#493,#494,#495,#496));
#362=AXIS2_PLACEMENT_3D('',#497,#498,#499);
#363=DRAUGHTING_PRE_DEFINED_CURVE_FONT('continuous');
#364=COLOUR_RGB('',0.498039215803146,0.498039215803146,0.498039215803146);
#365=AXIS2_PLACEMENT_3D('',#500,#501,#502);
#366=PRE_DEFINED_MARKER('');
#367=COLOUR_RGB('',0.800000011920929,0.800000011920929,0.800000011920929);
#368=SURFACE_SIDE_STYLE('',(#503));
#369=EDGE_LOOP('',(#504,#505,#506,#507));
#370=AXIS2_PLACEMENT_3D('',#508,#509,#510);
#371=PRE_DEFINED_MARKER('');
#372=COLOUR_RGB('',0.800000011920929,0.800000011920929,0.800000011920929);
#373=PRE_DEFINED_MARKER('');
#374=COLOUR_RGB('',0.498039215803146,0.498039215803146,0.498039215803146);
#375=SURFACE_SIDE_STYLE('',(#511));
#376=EDGE_LOOP('',(#512,#513,#514,#515));
#377=AXIS2_PLACEMENT_3D('',#516,#517,#518);
#378=SURFACE_SIDE_STYLE('',(#519));
#379=EDGE_LOOP('',(#520,#521,#522));
#380=AXIS2_PLACEMENT_3D('',#523,#524,#525);
#381=DRAUGHTING_PRE_DEFINED_CURVE_FONT('continuous');
#382=COLOUR_RGB('',0.800000011920929,0.800000011920929,0.800000011920929);
#383=AXIS2_PLACEMENT_3D('',#526,#527,#528);
#384=PRE_DEFINED_MARKER('');
#385=COLOUR_RGB('',0.498039215803146,0.498039215803146,0.498039215803146);
#386=PRE_DEFINED_MARKER('');
#387=COLOUR_RGB('',0.800000011920929,0.800000011920929,0.800000011920929);
#388=DRAUGHTING_PRE_DEFINED_CURVE_FONT('continuous');
#389=COLOUR_RGB('',0.498039215803146,0.498039215803146,0.498039215803146);
#390=AXIS2_PLACEMENT_3D('',#529,#530,#531);
#391=SURFACE_SIDE_STYLE('',(#532));
#392=SURFACE_SIDE_STYLE('',(#533));
#393=EDGE_LOOP('',(#534,#535,#536,#537));
#394=AXIS2_PLACEMENT_3D('',#538,#539,#540);
#395=DRAUGHTING_PRE_DEFINED_CURVE_FONT('continuous');
#396=COLOUR_RGB('',0.800000011920929,0.800000011920929,0.800000011920929);
#397=AXIS2_PLACEMENT_3D('',#541,#542,#543);
#398=PRE_DEFINED_MARKER('');
#399=COLOUR_RGB('',0.800000011920929,0.800000011920929,0.800000011920929);
#400=DRAUGHTING_PRE_DEFINED_CURVE_FONT('continuous');
#401=COLOUR_RGB('',0.498039215803146,0.498039215803146,0.498039215803146);
#402=CARTESIAN_POINT('',(9.72031293346512E-016,-7.9375,-19.387));
#403=VECTOR('',#544,1.0);
#404=PRE_DEFINED_MARKER('');
#405=COLOUR_RGB('',0.498039215803146,0.498039215803146,0.498039215803146);
#406=PRE_DEFINED_MARKER('');
#407=COLOUR_RGB('',0.800000011920929,0.800000011920929,0.800000011920929);
#408=DRAUGHTING_PRE_DEFINED_CURVE_FONT('continuous');
#409=COLOUR_RGB('',0.498039215803146,0.498039215803146,0.498039215803146);
#410=CARTESIAN_POINT('',(9.43962329067694E-016,-7.70829194313172,-0.387));
#411=VECTOR('',#545,1.0);
#412=SURFACE_SIDE_STYLE('',(#546));
#413=EDGE_LOOP('',(#547,#548));
#414=EDGE_LOOP('',(#549,#550));
#415=AXIS2_PLACEMENT_3D('',#551,#552,#553);
#416=SURFACE_SIDE_STYLE('',(#554));
#417=EDGE_LOOP('',(#555,#556));
#418=AXIS2_PLACEMENT_3D('',#557,#558,#559);
#419=SURFACE_SIDE_STYLE('',(#560));
#420=DRAUGHTING_PRE_DEFINED_CURVE_FONT('continuous');
#421=COLOUR_RGB('',0.498039215803146,0.498039215803146,0.498039215803146);
#422=AXIS2_PLACEMENT_3D('',#561,#562,#563);
#423=PRE_DEFINED_MARKER('');
#424=COLOUR_RGB('',0.498039215803146,0.498039215803146,0.498039215803146);
#425=DRAUGHTING_PRE_DEFINED_CURVE_FONT('continuous');
#426=COLOUR_RGB('',0.800000011920929,0.800000011920929,0.800000011920929);
#427=CARTESIAN_POINT('',(-9.79678960026133E-016,7.99995,-70.64));
#428=VECTOR('',#564,1.0);
#429=DRAUGHTING_PRE_DEFINED_CURVE_FONT('continuous');
#430=COLOUR_RGB('',0.800000011920929,0.800000011920929,0.800000011920929);
#431=CARTESIAN_POINT('',(9.79678960026133E-016,-7.99995,-70.64));
#432=VECTOR('',#565,1.0);
#433=SURFACE_SIDE_STYLE('',(#566));
#434=EDGE_LOOP('',(#567,#568,#569,#570));
#435=AXIS2_PLACEMENT_3D('',#571,#572,#573);
#436=DRAUGHTING_PRE_DEFINED_CURVE_FONT('continuous');
#437=COLOUR_RGB('',0.498039215803146,0.498039215803146,0.498039215803146);
#438=CARTESIAN_POINT('',(-9.72031293346512E-016,7.9375,-19.387));
#439=VECTOR('',#574,1.0);
#440=DRAUGHTING_PRE_DEFINED_CURVE_FONT('continuous');
#441=COLOUR_RGB('',0.800000011920929,0.800000011920929,0.800000011920929);
#442=AXIS2_PLACEMENT_3D('',#575,#576,#577);
#444=CARTESIAN_POINT('',(0.0,0.0,0.00999999999999801));
#445=DIRECTION('',(0.0,0.0,-1.0));
#446=DIRECTION('',(0.0,1.0,0.0));
#447=CARTESIAN_POINT('',(0.0,0.0,-53.99));
#448=DIRECTION('',(0.0,0.0,-1.0));
#449=DIRECTION('',(0.0,1.0,0.0));
#450=DIRECTION('',(-6.12303176911191E-017,0.500000000000002,-0.866025403784438));
#451=SURFACE_STYLE_FILL_AREA(#578);
#452=ORIENTED_EDGE('',*,*,#96,.F.);
#453=ORIENTED_EDGE('',*,*,#112,.F.);
#454=ORIENTED_EDGE('',*,*,#84,.F.);
#455=CARTESIAN_POINT('',(0.0,0.0,-53.995));
#456=DIRECTION('',(-0.0,-0.0,1.0));
#457=DIRECTION('',(0.0,1.0,0.0));
#458=SURFACE_STYLE_FILL_AREA(#579);
#459=ORIENTED_EDGE('',*,*,#80,.F.);
#460=ORIENTED_EDGE('',*,*,#136,.F.);
#461=CARTESIAN_POINT('',(0.0,3.73954194313172,0.00999999999999801));
#462=DIRECTION('',(-0.0,0.0,1.0));
#463=DIRECTION('',(0.0,-1.0,0.0));
#464=CARTESIAN_POINT('',(0.0,0.0,-0.783999999999999));
#465=DIRECTION('',(0.0,0.0,-1.0));
#466=DIRECTION('',(0.0,1.0,0.0));
#467=DIRECTION('',(1.2246053958788E-016,-0.999999217753871,0.00125079640489997));
#468=CARTESIAN_POINT('',(0.0,0.0,-87.29));
#469=DIRECTION('',(0.0,0.0,-1.0));
#470=DIRECTION('',(0.0,1.0,0.0));
#471=CARTESIAN_POINT('',(0.0,0.0,-53.99));
#472=DIRECTION('',(0.0,0.0,-1.0));
#473=DIRECTION('',(0.0,1.0,0.0));
#474=SURFACE_STYLE_FILL_AREA(#580);
#475=ORIENTED_EDGE('',*,*,#142,.T.);
#476=ORIENTED_EDGE('',*,*,#98,.T.);
#477=CARTESIAN_POINT('',(0.0,3.9975,-87.29));
#478=DIRECTION('',(0.0,0.0,-1.0));
#479=DIRECTION('',(0.0,1.0,0.0));
#480=SURFACE_STYLE_FILL_AREA(#581);
#481=ORIENTED_EDGE('',*,*,#164,.F.);
#482=ORIENTED_EDGE('',*,*,#100,.T.);
#483=ORIENTED_EDGE('',*,*,#166,.F.);
#484=ORIENTED_EDGE('',*,*,#142,.F.);
#485=CARTESIAN_POINT('',(0.0,0.0,-70.64));
#486=DIRECTION('',(0.0,-0.0,-1.0));
#487=DIRECTION('',(0.0,1.0,0.0));
#488=CARTESIAN_POINT('',(0.0,0.0,-53.99));
#489=DIRECTION('',(0.0,0.0,-1.0));
#490=DIRECTION('',(0.0,-1.0,0.0));
#491=DIRECTION('',(1.2246053958788E-016,-0.999999217753871,-0.00125079640489997));
#492=SURFACE_STYLE_FILL_AREA(#582);
#493=ORIENTED_EDGE('',*,*,#88,.T.);
#494=ORIENTED_EDGE('',*,*,#94,.F.);
#495=ORIENTED_EDGE('',*,*,#152,.T.);
#496=ORIENTED_EDGE('',*,*,#136,.T.);
#497=CARTESIAN_POINT('',(0.0,0.0,-0.387));
#498=DIRECTION('',(0.0,-0.0,-1.0));
#499=DIRECTION('',(0.0,1.0,0.0));
#500=CARTESIAN_POINT('',(0.0,0.0,-0.783999999999999));
#501=DIRECTION('',(0.0,0.0,-1.0));
#502=DIRECTION('',(0.0,1.0,0.0));
#503=SURFACE_STYLE_FILL_AREA(#583);
#504=ORIENTED_EDGE('',*,*,#170,.F.);
#505=ORIENTED_EDGE('',*,*,#116,.T.);
#506=ORIENTED_EDGE('',*,*,#146,.F.);
#507=ORIENTED_EDGE('',*,*,#160,.F.);
#508=CARTESIAN_POINT('',(0.0,0.0,-19.387));
#509=DIRECTION('',(-0.0,-0.0,1.0));
#510=DIRECTION('',(0.0,1.0,0.0));
#511=SURFACE_STYLE_FILL_AREA(#584);
#512=ORIENTED_EDGE('',*,*,#170,.T.);
#513=ORIENTED_EDGE('',*,*,#108,.F.);
#514=ORIENTED_EDGE('',*,*,#146,.T.);
#515=ORIENTED_EDGE('',*,*,#94,.T.);
#516=CARTESIAN_POINT('',(0.0,0.0,-19.387));
#517=DIRECTION('',(-0.0,-0.0,1.0));
#518=DIRECTION('',(0.0,1.0,0.0));
#519=SURFACE_STYLE_FILL_AREA(#585);
#520=ORIENTED_EDGE('',*,*,#96,.T.);
#521=ORIENTED_EDGE('',*,*,#172,.F.);
#522=ORIENTED_EDGE('',*,*,#112,.T.);
#523=CARTESIAN_POINT('',(0.0,0.0,-53.995));
#524=DIRECTION('',(-0.0,-0.0,1.0));
#525=DIRECTION('',(0.0,1.0,0.0));
#526=CARTESIAN_POINT('',(0.0,0.0,-53.99));
#527=DIRECTION('',(0.0,0.0,-1.0));
#528=DIRECTION('',(0.0,1.0,0.0));
#529=CARTESIAN_POINT('',(0.0,0.0,0.00999999999999801));
#530=DIRECTION('',(0.0,0.0,-1.0));
#531=DIRECTION('',(0.0,1.0,0.0));
#532=SURFACE_STYLE_FILL_AREA(#586);
#533=SURFACE_STYLE_FILL_AREA(#587);
#534=ORIENTED_EDGE('',*,*,#164,.T.);
#535=ORIENTED_EDGE('',*,*,#98,.F.);
#536=ORIENTED_EDGE('',*,*,#166,.T.);
#537=ORIENTED_EDGE('',*,*,#130,.T.);
#538=CARTESIAN_POINT('',(0.0,0.0,-70.64));
#539=DIRECTION('',(0.0,-0.0,-1.0));
#540=DIRECTION('',(0.0,1.0,0.0));
#541=CARTESIAN_POINT('',(0.0,0.0,-87.29));
#542=DIRECTION('',(0.0,0.0,-1.0));
#543=DIRECTION('',(0.0,1.0,0.0));
#544=DIRECTION('',(-0.0,-0.0,1.0));
#545=DIRECTION('',(-6.12303176911191E-017,0.500000000000002,0.866025403784438));
#546=SURFACE_STYLE_FILL_AREA(#588);
#547=ORIENTED_EDGE('',*,*,#100,.F.);
#548=ORIENTED_EDGE('',*,*,#130,.F.);
#549=ORIENTED_EDGE('',*,*,#172,.T.);
#550=ORIENTED_EDGE('',*,*,#84,.T.);
#551=CARTESIAN_POINT('',(0.0,7.9974,-53.99));
#552=DIRECTION('',(-0.0,0.0,1.0));
#553=DIRECTION('',(0.0,-1.0,0.0));
#554=SURFACE_STYLE_FILL_AREA(#589);
#555=ORIENTED_EDGE('',*,*,#108,.T.);
#556=ORIENTED_EDGE('',*,*,#160,.T.);
#557=CARTESIAN_POINT('',(0.0,0.0,-53.99));
#558=DIRECTION('',(0.0,0.0,-1.0));
#559=DIRECTION('',(0.0,-1.0,0.0));
#560=SURFACE_STYLE_FILL_AREA(#590);
#561=CARTESIAN_POINT('',(0.0,0.0,-53.99));
#562=DIRECTION('',(0.0,0.0,-1.0));
#563=DIRECTION('',(0.0,-1.0,0.0));
#564=DIRECTION('',(-3.677496558E-022,3.00300300298246E-006,-0.999999999995491));
#565=DIRECTION('',(-3.67749655800001E-022,3.00300300298246E-006,0.999999999995491));
#566=SURFACE_STYLE_FILL_AREA(#591);
#567=ORIENTED_EDGE('',*,*,#88,.F.);
#568=ORIENTED_EDGE('',*,*,#80,.T.);
#569=ORIENTED_EDGE('',*,*,#152,.F.);
#570=ORIENTED_EDGE('',*,*,#116,.F.);
#571=CARTESIAN_POINT('',(0.0,0.0,-0.387));
#572=DIRECTION('',(0.0,-0.0,-1.0));
#573=DIRECTION('',(0.0,1.0,0.0));
#574=DIRECTION('',(0.0,0.0,-1.0));
#575=CARTESIAN_POINT('',(0.0,0.0,-53.99));
#576=DIRECTION('',(0.0,0.0,-1.0));
#577=DIRECTION('',(0.0,1.0,0.0));
#578=FILL_AREA_STYLE('',(#592));
#579=FILL_AREA_STYLE('',(#593));
#580=FILL_AREA_STYLE('',(#594));
#581=FILL_AREA_STYLE('',(#595));
#582=FILL_AREA_STYLE('',(#596));
#583=FILL_AREA_STYLE('',(#597));
#584=FILL_AREA_STYLE('',(#598));
#585=FILL_AREA_STYLE('',(#599));
#586=FILL_AREA_STYLE('',(#600));
#587=FILL_AREA_STYLE('',(#601));
#588=FILL_AREA_STYLE('',(#602));
#589=FILL_AREA_STYLE('',(#603));
#590=FILL_AREA_STYLE('',(#604));
#591=FILL_AREA_STYLE('',(#605));
#592=FILL_AREA_STYLE_COLOUR('',#606);
#593=FILL_AREA_STYLE_COLOUR('',#607);
#594=FILL_AREA_STYLE_COLOUR('',#608);
#595=FILL_AREA_STYLE_COLOUR('',#609);
#596=FILL_AREA_STYLE_COLOUR('',#610);
#597=FILL_AREA_STYLE_COLOUR('',#611);
#598=FILL_AREA_STYLE_COLOUR('',#612);
#599=FILL_AREA_STYLE_COLOUR('',#613);
#600=FILL_AREA_STYLE_COLOUR('',#614);
#601=FILL_AREA_STYLE_COLOUR('',#615);
#602=FILL_AREA_STYLE_COLOUR('',#616);
#603=FILL_AREA_STYLE_COLOUR('',#617);
#604=FILL_AREA_STYLE_COLOUR('',#618);
#605=FILL_AREA_STYLE_COLOUR('',#619);
#606=COLOUR_RGB('',0.800000011920929,0.800000011920929,0.800000011920929);
#607=COLOUR_RGB('',0.498039215803146,0.498039215803146,0.498039215803146);
#608=COLOUR_RGB('',0.800000011920929,0.800000011920929,0.800000011920929);
#609=COLOUR_RGB('',0.800000011920929,0.800000011920929,0.800000011920929);
#610=COLOUR_RGB('',0.498039215803146,0.498039215803146,0.498039215803146);
#611=COLOUR_RGB('',0.498039215803146,0.498039215803146,0.498039215803146);
#612=COLOUR_RGB('',0.498039215803146,0.498039215803146,0.498039215803146);
#613=COLOUR_RGB('',0.800000011920929,0.800000011920929,0.800000011920929);
#614=COLOUR_RGB('',0.800000011920929,0.800000011920929,0.800000011920929);
#615=COLOUR_RGB('',0.800000011920929,0.800000011920929,0.800000011920929);
#616=COLOUR_RGB('',0.800000011920929,0.800000011920929,0.800000011920929);
#617=COLOUR_RGB('',0.498039215803146,0.498039215803146,0.498039215803146);
#618=COLOUR_RGB('',0.800000011920929,0.800000011920929,0.800000011920929);
#619=COLOUR_RGB('',0.498039215803146,0.498039215803146,0.498039215803146);
#620=AXIS2_PLACEMENT_3D('PCS',#621,#622,#623);
#621=CARTESIAN_POINT('',(0.0,0.0,0.0));
#622=DIRECTION('',(0.0,0.0,1.0));
#623=DIRECTION('',(1.0,0.0,0.0));
#624=AXIS2_PLACEMENT_3D('CIP',#625,#626,#627);
#625=CARTESIAN_POINT('',(0.0,0.0,-87.3));
#626=DIRECTION('',(0.0,0.0,1.0));
#627=DIRECTION('',(1.0,0.0,0.0));
#628=AXIS2_PLACEMENT_3D('CRP',#629,#630,#631);
#629=CARTESIAN_POINT('',(-8.0,0.0,-87.3));
#630=DIRECTION('',(0.0,0.0,1.0));
#631=DIRECTION('',(1.0,0.0,0.0));
#632=AXIS2_PLACEMENT_3D('MCS',#633,#634,#635);
#633=CARTESIAN_POINT('',(0.0,0.0,-38.0));
#634=DIRECTION('',(0.0,0.0,1.0));
#635=DIRECTION('',(1.0,0.0,0.0));
#636=CONSTRUCTIVE_GEOMETRY_REPRESENTATION_RELATIONSHIP('coordinate systems',$,#65,#637);
#637=CONSTRUCTIVE_GEOMETRY_REPRESENTATION('coordinate systems',(#620,#624,#628,#632),#10);
ENDSEC;
END-ISO-10303-21;
