ISO-10303-21;
HEADER;
FILE_DESCRIPTION(('no description'),'unknown implementation level');
FILE_NAME('solid6cau7s2A_akJqjirlBROJZwHy40_1.STP','  ',('CIMSOURCE GmbH'),('CADClick - KiM GmbH - www.kimweb.de'),'unknown preprocess','ACIS','unknown authorization');
FILE_SCHEMA(('automotive_design'));
ENDSEC;
DATA;
#1=MECHANICAL_DESIGN_GEOMETRIC_PRESENTATION_REPRESENTATION(' ',(#14,#15,#16,#17,#18,#19,#20,#21,#22,#23,#24,#25,#26,#27,#28,#29,#30,#31,#32,#33,#34,#35,#36,#37,#38,#39,#40,#41,#42,#43,#44,#45,#46,#47,#48,#49,#50,#51,#52,#53,#54,#55,#56,#57,#58,#59,#60),#10);
#2=PRODUCT_DEFINITION_CONTEXT('',#61,'design');
#3=APPLICATION_PROTOCOL_DEFINITION('INTERNATIONAL STANDARD','automotive_design',1994,#61);
#4=PRODUCT_CATEGORY_RELATIONSHIP('NONE','NONE',#62,#63);
#5=SHAPE_DEFINITION_REPRESENTATION(#64,#65);
#6=PRODUCT_DEFINITION_CONTEXT('',#66,'design');
#7=APPLICATION_PROTOCOL_DEFINITION('INTERNATIONAL STANDARD','automotive_design',1994,#66);
#8=PRODUCT_CATEGORY_RELATIONSHIP('NONE','NONE',#67,#68);
#9=SHAPE_DEFINITION_REPRESENTATION(#69,#70);
#10= (GEOMETRIC_REPRESENTATION_CONTEXT(3)GLOBAL_UNCERTAINTY_ASSIGNED_CONTEXT((#73))GLOBAL_UNIT_ASSIGNED_CONTEXT((#75,#76,#77))REPRESENTATION_CONTEXT('NONE','WORKSPACE'));
#14=STYLED_ITEM('',(#79),#80);
#15=STYLED_ITEM('',(#81),#82);
#16=STYLED_ITEM('',(#83),#84);
#17=STYLED_ITEM('',(#85),#86);
#18=STYLED_ITEM('',(#87),#88);
#19=STYLED_ITEM('',(#89),#90);
#20=STYLED_ITEM('',(#91),#92);
#21=STYLED_ITEM('',(#93),#94);
#22=STYLED_ITEM('',(#95),#96);
#23=STYLED_ITEM('',(#97),#98);
#24=STYLED_ITEM('',(#99),#100);
#25=STYLED_ITEM('',(#101),#102);
#26=STYLED_ITEM('',(#103),#104);
#27=STYLED_ITEM('',(#105),#106);
#28=STYLED_ITEM('',(#107),#108);
#29=STYLED_ITEM('',(#109),#110);
#30=STYLED_ITEM('',(#111),#112);
#31=STYLED_ITEM('',(#113),#114);
#32=STYLED_ITEM('',(#115),#116);
#33=STYLED_ITEM('',(#117),#118);
#34=STYLED_ITEM('',(#119),#120);
#35=STYLED_ITEM('',(#121),#122);
#36=STYLED_ITEM('',(#123),#124);
#37=STYLED_ITEM('',(#125),#126);
#38=STYLED_ITEM('',(#127),#128);
#39=STYLED_ITEM('',(#129),#130);
#40=STYLED_ITEM('',(#131),#132);
#41=STYLED_ITEM('',(#133),#134);
#42=STYLED_ITEM('',(#135),#136);
#43=STYLED_ITEM('',(#137),#138);
#44=STYLED_ITEM('',(#139),#140);
#45=STYLED_ITEM('',(#141),#142);
#46=STYLED_ITEM('',(#143),#144);
#47=STYLED_ITEM('',(#145),#146);
#48=STYLED_ITEM('',(#147),#148);
#49=STYLED_ITEM('',(#149),#150);
#50=STYLED_ITEM('',(#151),#152);
#51=STYLED_ITEM('',(#153),#154);
#52=STYLED_ITEM('',(#155),#156);
#53=STYLED_ITEM('',(#157),#158);
#54=STYLED_ITEM('',(#159),#160);
#55=STYLED_ITEM('',(#161),#162);
#56=STYLED_ITEM('',(#163),#164);
#57=STYLED_ITEM('',(#165),#166);
#58=STYLED_ITEM('',(#167),#168);
#59=STYLED_ITEM('',(#169),#170);
#60=STYLED_ITEM('',(#171),#172);
#61=APPLICATION_CONTEXT(' ');
#62=PRODUCT_CATEGORY('part','NONE');
#63=PRODUCT_RELATED_PRODUCT_CATEGORY('detail',' ',(#173));
#64=PRODUCT_DEFINITION_SHAPE('NONE','NONE',#174);
#65=ADVANCED_BREP_SHAPE_REPRESENTATION('1',(#132,#175),#10);
#66=APPLICATION_CONTEXT(' ');
#67=PRODUCT_CATEGORY('part','NONE');
#68=PRODUCT_RELATED_PRODUCT_CATEGORY('detail',' ',(#176));
#69=PRODUCT_DEFINITION_SHAPE('NONE','NONE',#177);
#70=ADVANCED_BREP_SHAPE_REPRESENTATION('2',(#150,#178),#10);
#73=UNCERTAINTY_MEASURE_WITH_UNIT(LENGTH_MEASURE(1.0E-006),#75,'','');
#75= (CONVERSION_BASED_UNIT('MILLIMETRE',#181)LENGTH_UNIT()NAMED_UNIT(#184));
#76= (NAMED_UNIT(#186)PLANE_ANGLE_UNIT()SI_UNIT($,.RADIAN.));
#77= (NAMED_UNIT(#186)SOLID_ANGLE_UNIT()SI_UNIT($,.STERADIAN.));
#79=PRESENTATION_STYLE_ASSIGNMENT((#192));
#80=EDGE_CURVE('',#86,#154,#193,.T.);
#81=PRESENTATION_STYLE_ASSIGNMENT((#194));
#82=EDGE_CURVE('',#88,#134,#195,.T.);
#83=PRESENTATION_STYLE_ASSIGNMENT((#196));
#84=VERTEX_POINT('',#197);
#85=PRESENTATION_STYLE_ASSIGNMENT((#198));
#86=VERTEX_POINT('',#199);
#87=PRESENTATION_STYLE_ASSIGNMENT((#200));
#88=VERTEX_POINT('',#201);
#89=PRESENTATION_STYLE_ASSIGNMENT((#202));
#90=VERTEX_POINT('',#203);
#91=PRESENTATION_STYLE_ASSIGNMENT((#204));
#92=EDGE_CURVE('',#88,#142,#205,.T.);
#93=PRESENTATION_STYLE_ASSIGNMENT((#206));
#94=EDGE_CURVE('',#86,#136,#207,.T.);
#95=PRESENTATION_STYLE_ASSIGNMENT((#208));
#96=EDGE_CURVE('',#166,#84,#209,.T.);
#97=PRESENTATION_STYLE_ASSIGNMENT((#210));
#98=EDGE_CURVE('',#102,#162,#211,.T.);
#99=PRESENTATION_STYLE_ASSIGNMENT((#212));
#100=EDGE_CURVE('',#154,#134,#213,.T.);
#101=PRESENTATION_STYLE_ASSIGNMENT((#214));
#102=VERTEX_POINT('',#215);
#103=PRESENTATION_STYLE_ASSIGNMENT((#216));
#104=ADVANCED_FACE('',(#217),#218,.T.);
#105=PRESENTATION_STYLE_ASSIGNMENT((#219));
#106=VERTEX_POINT('',#220);
#107=PRESENTATION_STYLE_ASSIGNMENT((#221));
#108=ADVANCED_FACE('',(#222),#223,.T.);
#109=PRESENTATION_STYLE_ASSIGNMENT((#224));
#110=ADVANCED_FACE('',(#225),#226,.T.);
#111=PRESENTATION_STYLE_ASSIGNMENT((#227));
#112=EDGE_CURVE('',#162,#102,#228,.T.);
#113=PRESENTATION_STYLE_ASSIGNMENT((#229));
#114=EDGE_CURVE('',#134,#136,#230,.T.);
#115=PRESENTATION_STYLE_ASSIGNMENT((#231));
#116=EDGE_CURVE('',#84,#106,#232,.T.);
#117=PRESENTATION_STYLE_ASSIGNMENT((#233));
#118=EDGE_CURVE('',#136,#86,#234,.T.);
#119=PRESENTATION_STYLE_ASSIGNMENT((#235));
#120=ADVANCED_FACE('',(#236),#237,.F.);
#121=PRESENTATION_STYLE_ASSIGNMENT((#238));
#122=ADVANCED_FACE('',(#239),#240,.T.);
#123=PRESENTATION_STYLE_ASSIGNMENT((#241));
#124=EDGE_CURVE('',#90,#158,#242,.T.);
#125=PRESENTATION_STYLE_ASSIGNMENT((#243));
#126=EDGE_CURVE('',#154,#142,#244,.T.);
#127=PRESENTATION_STYLE_ASSIGNMENT((#245));
#128=EDGE_CURVE('',#162,#158,#246,.T.);
#129=PRESENTATION_STYLE_ASSIGNMENT((#247));
#130=EDGE_CURVE('',#142,#88,#248,.T.);
#131=PRESENTATION_STYLE_ASSIGNMENT((#249));
#132=MANIFOLD_SOLID_BREP('1',#250);
#133=PRESENTATION_STYLE_ASSIGNMENT((#251));
#134=VERTEX_POINT('',#252);
#135=PRESENTATION_STYLE_ASSIGNMENT((#253));
#136=VERTEX_POINT('',#254);
#137=PRESENTATION_STYLE_ASSIGNMENT((#255));
#138=EDGE_CURVE('',#106,#166,#256,.T.);
#139=PRESENTATION_STYLE_ASSIGNMENT((#257));
#140=EDGE_CURVE('',#84,#166,#258,.T.);
#141=PRESENTATION_STYLE_ASSIGNMENT((#259));
#142=VERTEX_POINT('',#260);
#143=PRESENTATION_STYLE_ASSIGNMENT((#261));
#144=EDGE_CURVE('',#134,#154,#262,.T.);
#145=PRESENTATION_STYLE_ASSIGNMENT((#263));
#146=ADVANCED_FACE('',(#264),#265,.F.);
#147=PRESENTATION_STYLE_ASSIGNMENT((#266));
#148=ADVANCED_FACE('',(#267),#268,.T.);
#149=PRESENTATION_STYLE_ASSIGNMENT((#269));
#150=MANIFOLD_SOLID_BREP('2',#270);
#151=PRESENTATION_STYLE_ASSIGNMENT((#271));
#152=EDGE_CURVE('',#90,#102,#272,.T.);
#153=PRESENTATION_STYLE_ASSIGNMENT((#273));
#154=VERTEX_POINT('',#274);
#155=PRESENTATION_STYLE_ASSIGNMENT((#275));
#156=ADVANCED_FACE('',(#276,#277),#278,.T.);
#157=PRESENTATION_STYLE_ASSIGNMENT((#279));
#158=VERTEX_POINT('',#280);
#159=PRESENTATION_STYLE_ASSIGNMENT((#281));
#160=ADVANCED_FACE('',(#282),#283,.T.);
#161=PRESENTATION_STYLE_ASSIGNMENT((#284));
#162=VERTEX_POINT('',#285);
#163=PRESENTATION_STYLE_ASSIGNMENT((#286));
#164=EDGE_CURVE('',#158,#90,#287,.T.);
#165=PRESENTATION_STYLE_ASSIGNMENT((#288));
#166=VERTEX_POINT('',#289);
#167=PRESENTATION_STYLE_ASSIGNMENT((#290));
#168=ADVANCED_FACE('',(#291),#292,.T.);
#169=PRESENTATION_STYLE_ASSIGNMENT((#293));
#170=ADVANCED_FACE('',(#294),#295,.T.);
#171=PRESENTATION_STYLE_ASSIGNMENT((#296));
#172=ADVANCED_FACE('',(#297),#298,.T.);
#173=PRODUCT('1','1','PART-1-DESC',(#299));
#174=PRODUCT_DEFINITION('NONE','NONE',#300,#2);
#175=AXIS2_PLACEMENT_3D('',#301,#302,#303);
#176=PRODUCT('2','2','PART-2-DESC',(#304));
#177=PRODUCT_DEFINITION('NONE','NONE',#305,#6);
#178=AXIS2_PLACEMENT_3D('',#306,#307,#308);
#181=LENGTH_MEASURE_WITH_UNIT(LENGTH_MEASURE(1.0),#309);
#184=DIMENSIONAL_EXPONENTS(1.0,0.0,0.0,0.0,0.0,0.0,0.0);
#186=DIMENSIONAL_EXPONENTS(0.0,0.0,0.0,0.0,0.0,0.0,0.0);
#192=CURVE_STYLE('',#310,POSITIVE_LENGTH_MEASURE(1.0E-006),#311);
#193=LINE('',#312,#313);
#194=CURVE_STYLE('',#314,POSITIVE_LENGTH_MEASURE(1.0E-006),#315);
#195=LINE('',#316,#317);
#196=POINT_STYLE(' ',#318,POSITIVE_LENGTH_MEASURE(1.0E-006),#319);
#197=CARTESIAN_POINT('',(0.0,8.4949,-53.99));
#198=POINT_STYLE(' ',#320,POSITIVE_LENGTH_MEASURE(1.0E-006),#321);
#199=CARTESIAN_POINT('',(0.0,-7.9375,-53.99));
#200=POINT_STYLE(' ',#322,POSITIVE_LENGTH_MEASURE(1.0E-006),#323);
#201=CARTESIAN_POINT('',(0.0,7.47908388626344,0.00999999999999801));
#202=POINT_STYLE(' ',#324,POSITIVE_LENGTH_MEASURE(1.0E-006),#325);
#203=CARTESIAN_POINT('',(1.04091540074902E-015,-8.5,-87.29));
#204=CURVE_STYLE('',#326,POSITIVE_LENGTH_MEASURE(1.0E-006),#327);
#205=CIRCLE('',#328,7.47908388626344);
#206=CURVE_STYLE('',#329,POSITIVE_LENGTH_MEASURE(1.0E-006),#330);
#207=CIRCLE('',#331,7.9375);
#208=CURVE_STYLE('',#332,POSITIVE_LENGTH_MEASURE(1.0E-006),#333);
#209=CIRCLE('',#334,8.4949);
#210=CURVE_STYLE('',#335,POSITIVE_LENGTH_MEASURE(1.0E-006),#336);
#211=CIRCLE('',#337,8.4999);
#212=CURVE_STYLE('',#338,POSITIVE_LENGTH_MEASURE(1.0E-006),#339);
#213=CIRCLE('',#340,7.9375);
#214=POINT_STYLE(' ',#341,POSITIVE_LENGTH_MEASURE(1.0E-006),#342);
#215=CARTESIAN_POINT('',(1.04090315468548E-015,-8.4999,-53.99));
#216=SURFACE_STYLE_USAGE(.BOTH.,#343);
#217=FACE_OUTER_BOUND('',#344,.T.);
#218=CONICAL_SURFACE('',#345,7.70829194313172,0.523598775598301);
#219=POINT_STYLE(' ',#346,POSITIVE_LENGTH_MEASURE(1.0E-006),#347);
#220=CARTESIAN_POINT('',(0.0,0.0,-54.0));
#221=SURFACE_STYLE_USAGE(.BOTH.,#348);
#222=FACE_OUTER_BOUND('',#349,.T.);
#223=PLANE('',#350);
#224=SURFACE_STYLE_USAGE(.BOTH.,#351);
#225=FACE_OUTER_BOUND('',#352,.T.);
#226=PLANE('',#353);
#227=CURVE_STYLE('',#354,POSITIVE_LENGTH_MEASURE(1.0E-006),#355);
#228=CIRCLE('',#356,8.4999);
#229=CURVE_STYLE('',#357,POSITIVE_LENGTH_MEASURE(1.0E-006),#358);
#230=LINE('',#359,#360);
#231=CURVE_STYLE('',#361,POSITIVE_LENGTH_MEASURE(1.0E-006),#362);
#232=LINE('',#363,#364);
#233=CURVE_STYLE('',#365,POSITIVE_LENGTH_MEASURE(1.0E-006),#366);
#234=CIRCLE('',#367,7.9375);
#235=SURFACE_STYLE_USAGE(.BOTH.,#368);
#236=FACE_OUTER_BOUND('',#369,.T.);
#237=CONICAL_SURFACE('',#370,4.24745,1.56961915044428);
#238=SURFACE_STYLE_USAGE(.BOTH.,#371);
#239=FACE_OUTER_BOUND('',#372,.T.);
#240=PLANE('',#373);
#241=CURVE_STYLE('',#374,POSITIVE_LENGTH_MEASURE(1.0E-006),#375);
#242=CIRCLE('',#376,8.5);
#243=CURVE_STYLE('',#377,POSITIVE_LENGTH_MEASURE(1.0E-006),#378);
#244=LINE('',#379,#380);
#245=CURVE_STYLE('',#381,POSITIVE_LENGTH_MEASURE(1.0E-006),#382);
#246=LINE('',#383,#384);
#247=CURVE_STYLE('',#385,POSITIVE_LENGTH_MEASURE(1.0E-006),#386);
#248=CIRCLE('',#387,7.47908388626344);
#249=SURFACE_STYLE_USAGE(.BOTH.,#388);
#250=CLOSED_SHELL('',(#148,#146,#120,#156,#170,#122));
#251=POINT_STYLE(' ',#389,POSITIVE_LENGTH_MEASURE(1.0E-006),#390);
#252=CARTESIAN_POINT('',(0.0,7.9375,-0.783999999999999));
#253=POINT_STYLE(' ',#391,POSITIVE_LENGTH_MEASURE(1.0E-006),#392);
#254=CARTESIAN_POINT('',(-9.72031293346512E-016,7.9375,-53.99));
#255=CURVE_STYLE('',#393,POSITIVE_LENGTH_MEASURE(1.0E-006),#394);
#256=LINE('',#395,#396);
#257=CURVE_STYLE('',#397,POSITIVE_LENGTH_MEASURE(1.0E-006),#398);
#258=CIRCLE('',#399,8.4949);
#259=POINT_STYLE(' ',#400,POSITIVE_LENGTH_MEASURE(1.0E-006),#401);
#260=CARTESIAN_POINT('',(9.15893364788876E-016,-7.47908388626344,0.00999999999999801));
#261=CURVE_STYLE('',#402,POSITIVE_LENGTH_MEASURE(1.0E-006),#403);
#262=CIRCLE('',#404,7.9375);
#263=SURFACE_STYLE_USAGE(.BOTH.,#405);
#264=FACE_OUTER_BOUND('',#406,.T.);
#265=CONICAL_SURFACE('',#407,4.24745,1.56961915044428);
#266=SURFACE_STYLE_USAGE(.BOTH.,#408);
#267=FACE_OUTER_BOUND('',#409,.T.);
#268=CONICAL_SURFACE('',#410,8.49995,3.00300300298698E-006);
#269=SURFACE_STYLE_USAGE(.BOTH.,#411);
#270=CLOSED_SHELL('',(#168,#104,#108,#110,#160,#172));
#271=CURVE_STYLE('',#412,POSITIVE_LENGTH_MEASURE(1.0E-006),#413);
#272=LINE('',#414,#415);
#273=POINT_STYLE(' ',#416,POSITIVE_LENGTH_MEASURE(1.0E-006),#417);
#274=CARTESIAN_POINT('',(9.72031293346512E-016,-7.9375,-0.783999999999999));
#275=SURFACE_STYLE_USAGE(.BOTH.,#418);
#276=FACE_OUTER_BOUND('',#419,.T.);
#277=FACE_BOUND('',#420,.T.);
#278=PLANE('',#421);
#279=POINT_STYLE(' ',#422,POSITIVE_LENGTH_MEASURE(1.0E-006),#423);
#280=CARTESIAN_POINT('',(0.0,8.5,-87.29));
#281=SURFACE_STYLE_USAGE(.BOTH.,#424);
#282=FACE_OUTER_BOUND('',#425,.T.);
#283=CONICAL_SURFACE('',#426,7.70829194313172,0.523598775598301);
#284=POINT_STYLE(' ',#427,POSITIVE_LENGTH_MEASURE(1.0E-006),#428);
#285=CARTESIAN_POINT('',(0.0,8.4999,-53.99));
#286=CURVE_STYLE('',#429,POSITIVE_LENGTH_MEASURE(1.0E-006),#430);
#287=CIRCLE('',#431,8.5);
#288=POINT_STYLE(' ',#432,POSITIVE_LENGTH_MEASURE(1.0E-006),#433);
#289=CARTESIAN_POINT('',(1.04029085150857E-015,-8.4949,-53.99));
#290=SURFACE_STYLE_USAGE(.BOTH.,#434);
#291=FACE_OUTER_BOUND('',#435,.T.);
#292=CYLINDRICAL_SURFACE('',#436,7.9375);
#293=SURFACE_STYLE_USAGE(.BOTH.,#437);
#294=FACE_OUTER_BOUND('',#438,.T.);
#295=CONICAL_SURFACE('',#439,8.49995,3.00300300298698E-006);
#296=SURFACE_STYLE_USAGE(.BOTH.,#440);
#297=FACE_OUTER_BOUND('',#441,.T.);
#298=CYLINDRICAL_SURFACE('',#442,7.9375);
#299=PRODUCT_CONTEXT('',#61,'mechanical');
#300=PRODUCT_DEFINITION_FORMATION_WITH_SPECIFIED_SOURCE(' ','NONE',#173,.NOT_KNOWN.);
#301=CARTESIAN_POINT('',(0.0,0.0,0.0));
#302=DIRECTION('',(0.0,0.0,1.0));
#303=DIRECTION('',(1.0,0.0,0.0));
#304=PRODUCT_CONTEXT('',#66,'mechanical');
#305=PRODUCT_DEFINITION_FORMATION_WITH_SPECIFIED_SOURCE(' ','NONE',#176,.NOT_KNOWN.);
#306=CARTESIAN_POINT('',(0.0,0.0,0.0));
#307=DIRECTION('',(0.0,0.0,1.0));
#308=DIRECTION('',(1.0,0.0,0.0));
#309= (NAMED_UNIT(#184)LENGTH_UNIT()SI_UNIT(.MILLI.,.METRE.));
#310=DRAUGHTING_PRE_DEFINED_CURVE_FONT('continuous');
#311=COLOUR_RGB('',0.498039215803146,0.498039215803146,0.498039215803146);
#312=CARTESIAN_POINT('',(9.72031293346512E-016,-7.9375,-18.887));
#313=VECTOR('',#444,1.0);
#314=DRAUGHTING_PRE_DEFINED_CURVE_FONT('continuous');
#315=COLOUR_RGB('',0.498039215803146,0.498039215803146,0.498039215803146);
#316=CARTESIAN_POINT('',(-9.43962329067694E-016,7.70829194313172,-0.387));
#317=VECTOR('',#445,1.0);
#318=PRE_DEFINED_MARKER('');
#319=COLOUR_RGB('',0.800000011920929,0.800000011920929,0.800000011920929);
#320=PRE_DEFINED_MARKER('');
#321=COLOUR_RGB('',0.498039215803146,0.498039215803146,0.498039215803146);
#322=PRE_DEFINED_MARKER('');
#323=COLOUR_RGB('',0.498039215803146,0.498039215803146,0.498039215803146);
#324=PRE_DEFINED_MARKER('');
#325=COLOUR_RGB('',0.800000011920929,0.800000011920929,0.800000011920929);
#326=DRAUGHTING_PRE_DEFINED_CURVE_FONT('continuous');
#327=COLOUR_RGB('',0.498039215803146,0.498039215803146,0.498039215803146);
#328=AXIS2_PLACEMENT_3D('',#446,#447,#448);
#329=DRAUGHTING_PRE_DEFINED_CURVE_FONT('continuous');
#330=COLOUR_RGB('',0.498039215803146,0.498039215803146,0.498039215803146);
#331=AXIS2_PLACEMENT_3D('',#449,#450,#451);
#332=DRAUGHTING_PRE_DEFINED_CURVE_FONT('continuous');
#333=COLOUR_RGB('',0.800000011920929,0.800000011920929,0.800000011920929);
#334=AXIS2_PLACEMENT_3D('',#452,#453,#454);
#335=DRAUGHTING_PRE_DEFINED_CURVE_FONT('continuous');
#336=COLOUR_RGB('',0.800000011920929,0.800000011920929,0.800000011920929);
#337=AXIS2_PLACEMENT_3D('',#455,#456,#457);
#338=DRAUGHTING_PRE_DEFINED_CURVE_FONT('continuous');
#339=COLOUR_RGB('',0.498039215803146,0.498039215803146,0.498039215803146);
#340=AXIS2_PLACEMENT_3D('',#458,#459,#460);
#341=PRE_DEFINED_MARKER('');
#342=COLOUR_RGB('',0.800000011920929,0.800000011920929,0.800000011920929);
#343=SURFACE_SIDE_STYLE('',(#461));
#344=EDGE_LOOP('',(#462,#463,#464,#465));
#345=AXIS2_PLACEMENT_3D('',#466,#467,#468);
#346=PRE_DEFINED_MARKER('');
#347=COLOUR_RGB('',0.800000011920929,0.800000011920929,0.800000011920929);
#348=SURFACE_SIDE_STYLE('',(#469));
#349=EDGE_LOOP('',(#470,#471));
#350=AXIS2_PLACEMENT_3D('',#472,#473,#474);
#351=SURFACE_SIDE_STYLE('',(#475));
#352=EDGE_LOOP('',(#476,#477));
#353=AXIS2_PLACEMENT_3D('',#478,#479,#480);
#354=DRAUGHTING_PRE_DEFINED_CURVE_FONT('continuous');
#355=COLOUR_RGB('',0.800000011920929,0.800000011920929,0.800000011920929);
#356=AXIS2_PLACEMENT_3D('',#481,#482,#483);
#357=DRAUGHTING_PRE_DEFINED_CURVE_FONT('continuous');
#358=COLOUR_RGB('',0.498039215803146,0.498039215803146,0.498039215803146);
#359=CARTESIAN_POINT('',(-9.72031293346512E-016,7.9375,-18.887));
#360=VECTOR('',#484,1.0);
#361=DRAUGHTING_PRE_DEFINED_CURVE_FONT('continuous');
#362=COLOUR_RGB('',0.800000011920929,0.800000011920929,0.800000011920929);
#363=CARTESIAN_POINT('',(-5.20145425754286E-016,4.24745,-53.995));
#364=VECTOR('',#485,1.0);
#365=DRAUGHTING_PRE_DEFINED_CURVE_FONT('continuous');
#366=COLOUR_RGB('',0.498039215803146,0.498039215803146,0.498039215803146);
#367=AXIS2_PLACEMENT_3D('',#486,#487,#488);
#368=SURFACE_SIDE_STYLE('',(#489));
#369=EDGE_LOOP('',(#490,#491,#492));
#370=AXIS2_PLACEMENT_3D('',#493,#494,#495);
#371=SURFACE_SIDE_STYLE('',(#496));
#372=EDGE_LOOP('',(#497,#498));
#373=AXIS2_PLACEMENT_3D('',#499,#500,#501);
#374=DRAUGHTING_PRE_DEFINED_CURVE_FONT('continuous');
#375=COLOUR_RGB('',0.800000011920929,0.800000011920929,0.800000011920929);
#376=AXIS2_PLACEMENT_3D('',#502,#503,#504);
#377=DRAUGHTING_PRE_DEFINED_CURVE_FONT('continuous');
#378=COLOUR_RGB('',0.498039215803146,0.498039215803146,0.498039215803146);
#379=CARTESIAN_POINT('',(9.43962329067694E-016,-7.70829194313172,-0.387));
#380=VECTOR('',#505,1.0);
#381=DRAUGHTING_PRE_DEFINED_CURVE_FONT('continuous');
#382=COLOUR_RGB('',0.800000011920929,0.800000011920929,0.800000011920929);
#383=CARTESIAN_POINT('',(-1.04090927771725E-015,8.49995,-70.64));
#384=VECTOR('',#506,1.0);
#385=DRAUGHTING_PRE_DEFINED_CURVE_FONT('continuous');
#386=COLOUR_RGB('',0.498039215803146,0.498039215803146,0.498039215803146);
#387=AXIS2_PLACEMENT_3D('',#507,#508,#509);
#388=SURFACE_SIDE_STYLE('',(#510));
#389=PRE_DEFINED_MARKER('');
#390=COLOUR_RGB('',0.498039215803146,0.498039215803146,0.498039215803146);
#391=PRE_DEFINED_MARKER('');
#392=COLOUR_RGB('',0.498039215803146,0.498039215803146,0.498039215803146);
#393=DRAUGHTING_PRE_DEFINED_CURVE_FONT('continuous');
#394=COLOUR_RGB('',0.800000011920929,0.800000011920929,0.800000011920929);
#395=CARTESIAN_POINT('',(5.20145425754286E-016,-4.24745,-53.995));
#396=VECTOR('',#511,1.0);
#397=DRAUGHTING_PRE_DEFINED_CURVE_FONT('continuous');
#398=COLOUR_RGB('',0.800000011920929,0.800000011920929,0.800000011920929);
#399=AXIS2_PLACEMENT_3D('',#512,#513,#514);
#400=PRE_DEFINED_MARKER('');
#401=COLOUR_RGB('',0.498039215803146,0.498039215803146,0.498039215803146);
#402=DRAUGHTING_PRE_DEFINED_CURVE_FONT('continuous');
#403=COLOUR_RGB('',0.498039215803146,0.498039215803146,0.498039215803146);
#404=AXIS2_PLACEMENT_3D('',#515,#516,#517);
#405=SURFACE_SIDE_STYLE('',(#518));
#406=EDGE_LOOP('',(#519,#520,#521));
#407=AXIS2_PLACEMENT_3D('',#522,#523,#524);
#408=SURFACE_SIDE_STYLE('',(#525));
#409=EDGE_LOOP('',(#526,#527,#528,#529));
#410=AXIS2_PLACEMENT_3D('',#530,#531,#532);
#411=SURFACE_SIDE_STYLE('',(#533));
#412=DRAUGHTING_PRE_DEFINED_CURVE_FONT('continuous');
#413=COLOUR_RGB('',0.800000011920929,0.800000011920929,0.800000011920929);
#414=CARTESIAN_POINT('',(1.04090927771725E-015,-8.49995,-70.64));
#415=VECTOR('',#534,1.0);
#416=PRE_DEFINED_MARKER('');
#417=COLOUR_RGB('',0.498039215803146,0.498039215803146,0.498039215803146);
#418=SURFACE_SIDE_STYLE('',(#535));
#419=EDGE_LOOP('',(#536,#537));
#420=EDGE_LOOP('',(#538,#539));
#421=AXIS2_PLACEMENT_3D('',#540,#541,#542);
#422=PRE_DEFINED_MARKER('');
#423=COLOUR_RGB('',0.800000011920929,0.800000011920929,0.800000011920929);
#424=SURFACE_SIDE_STYLE('',(#543));
#425=EDGE_LOOP('',(#544,#545,#546,#547));
#426=AXIS2_PLACEMENT_3D('',#548,#549,#550);
#427=PRE_DEFINED_MARKER('');
#428=COLOUR_RGB('',0.800000011920929,0.800000011920929,0.800000011920929);
#429=DRAUGHTING_PRE_DEFINED_CURVE_FONT('continuous');
#430=COLOUR_RGB('',0.800000011920929,0.800000011920929,0.800000011920929);
#431=AXIS2_PLACEMENT_3D('',#551,#552,#553);
#432=PRE_DEFINED_MARKER('');
#433=COLOUR_RGB('',0.800000011920929,0.800000011920929,0.800000011920929);
#434=SURFACE_SIDE_STYLE('',(#554));
#435=EDGE_LOOP('',(#555,#556,#557,#558));
#436=AXIS2_PLACEMENT_3D('',#559,#560,#561);
#437=SURFACE_SIDE_STYLE('',(#562));
#438=EDGE_LOOP('',(#563,#564,#565,#566));
#439=AXIS2_PLACEMENT_3D('',#567,#568,#569);
#440=SURFACE_SIDE_STYLE('',(#570));
#441=EDGE_LOOP('',(#571,#572,#573,#574));
#442=AXIS2_PLACEMENT_3D('',#575,#576,#577);
#444=DIRECTION('',(-0.0,-0.0,1.0));
#445=DIRECTION('',(-6.12303176911191E-017,0.500000000000002,-0.866025403784438));
#446=CARTESIAN_POINT('',(0.0,0.0,0.00999999999999801));
#447=DIRECTION('',(0.0,0.0,-1.0));
#448=DIRECTION('',(0.0,1.0,0.0));
#449=CARTESIAN_POINT('',(0.0,0.0,-53.99));
#450=DIRECTION('',(0.0,0.0,-1.0));
#451=DIRECTION('',(0.0,-1.0,0.0));
#452=CARTESIAN_POINT('',(0.0,0.0,-53.99));
#453=DIRECTION('',(0.0,0.0,-1.0));
#454=DIRECTION('',(0.0,1.0,0.0));
#455=CARTESIAN_POINT('',(0.0,0.0,-53.99));
#456=DIRECTION('',(0.0,0.0,-1.0));
#457=DIRECTION('',(0.0,1.0,0.0));
#458=CARTESIAN_POINT('',(0.0,0.0,-0.783999999999999));
#459=DIRECTION('',(0.0,0.0,-1.0));
#460=DIRECTION('',(0.0,1.0,0.0));
#461=SURFACE_STYLE_FILL_AREA(#578);
#462=ORIENTED_EDGE('',*,*,#82,.F.);
#463=ORIENTED_EDGE('',*,*,#92,.T.);
#464=ORIENTED_EDGE('',*,*,#126,.F.);
#465=ORIENTED_EDGE('',*,*,#144,.F.);
#466=CARTESIAN_POINT('',(0.0,0.0,-0.387));
#467=DIRECTION('',(0.0,-0.0,-1.0));
#468=DIRECTION('',(0.0,1.0,0.0));
#469=SURFACE_STYLE_FILL_AREA(#579);
#470=ORIENTED_EDGE('',*,*,#94,.T.);
#471=ORIENTED_EDGE('',*,*,#118,.T.);
#472=CARTESIAN_POINT('',(0.0,0.0,-53.99));
#473=DIRECTION('',(0.0,0.0,-1.0));
#474=DIRECTION('',(0.0,-1.0,0.0));
#475=SURFACE_STYLE_FILL_AREA(#580);
#476=ORIENTED_EDGE('',*,*,#92,.F.);
#477=ORIENTED_EDGE('',*,*,#130,.F.);
#478=CARTESIAN_POINT('',(0.0,3.73954194313172,0.00999999999999801));
#479=DIRECTION('',(-0.0,0.0,1.0));
#480=DIRECTION('',(0.0,-1.0,0.0));
#481=CARTESIAN_POINT('',(0.0,0.0,-53.99));
#482=DIRECTION('',(0.0,0.0,-1.0));
#483=DIRECTION('',(0.0,1.0,0.0));
#484=DIRECTION('',(0.0,0.0,-1.0));
#485=DIRECTION('',(1.22460550532692E-016,-0.999999307128,-0.00117717607873863));
#486=CARTESIAN_POINT('',(0.0,0.0,-53.99));
#487=DIRECTION('',(0.0,0.0,-1.0));
#488=DIRECTION('',(0.0,-1.0,0.0));
#489=SURFACE_STYLE_FILL_AREA(#581);
#490=ORIENTED_EDGE('',*,*,#138,.T.);
#491=ORIENTED_EDGE('',*,*,#140,.F.);
#492=ORIENTED_EDGE('',*,*,#116,.T.);
#493=CARTESIAN_POINT('',(0.0,0.0,-53.995));
#494=DIRECTION('',(-0.0,-0.0,1.0));
#495=DIRECTION('',(0.0,1.0,0.0));
#496=SURFACE_STYLE_FILL_AREA(#582);
#497=ORIENTED_EDGE('',*,*,#164,.T.);
#498=ORIENTED_EDGE('',*,*,#124,.T.);
#499=CARTESIAN_POINT('',(0.0,4.2475,-87.29));
#500=DIRECTION('',(0.0,0.0,-1.0));
#501=DIRECTION('',(0.0,1.0,0.0));
#502=CARTESIAN_POINT('',(0.0,0.0,-87.29));
#503=DIRECTION('',(0.0,0.0,-1.0));
#504=DIRECTION('',(0.0,1.0,0.0));
#505=DIRECTION('',(-6.12303176911191E-017,0.500000000000002,0.866025403784438));
#506=DIRECTION('',(-3.677496558E-022,3.00300300298246E-006,-0.999999999995491));
#507=CARTESIAN_POINT('',(0.0,0.0,0.00999999999999801));
#508=DIRECTION('',(0.0,0.0,-1.0));
#509=DIRECTION('',(0.0,1.0,0.0));
#510=SURFACE_STYLE_FILL_AREA(#583);
#511=DIRECTION('',(1.22460550532692E-016,-0.999999307128,0.00117717607873863));
#512=CARTESIAN_POINT('',(0.0,0.0,-53.99));
#513=DIRECTION('',(0.0,0.0,-1.0));
#514=DIRECTION('',(0.0,1.0,0.0));
#515=CARTESIAN_POINT('',(0.0,0.0,-0.783999999999999));
#516=DIRECTION('',(0.0,0.0,-1.0));
#517=DIRECTION('',(0.0,1.0,0.0));
#518=SURFACE_STYLE_FILL_AREA(#584);
#519=ORIENTED_EDGE('',*,*,#138,.F.);
#520=ORIENTED_EDGE('',*,*,#116,.F.);
#521=ORIENTED_EDGE('',*,*,#96,.F.);
#522=CARTESIAN_POINT('',(0.0,0.0,-53.995));
#523=DIRECTION('',(-0.0,-0.0,1.0));
#524=DIRECTION('',(0.0,1.0,0.0));
#525=SURFACE_STYLE_FILL_AREA(#585);
#526=ORIENTED_EDGE('',*,*,#128,.F.);
#527=ORIENTED_EDGE('',*,*,#112,.T.);
#528=ORIENTED_EDGE('',*,*,#152,.F.);
#529=ORIENTED_EDGE('',*,*,#164,.F.);
#530=CARTESIAN_POINT('',(0.0,0.0,-70.64));
#531=DIRECTION('',(0.0,-0.0,-1.0));
#532=DIRECTION('',(0.0,1.0,0.0));
#533=SURFACE_STYLE_FILL_AREA(#586);
#534=DIRECTION('',(-3.67749655800001E-022,3.00300300298246E-006,0.999999999995491));
#535=SURFACE_STYLE_FILL_AREA(#587);
#536=ORIENTED_EDGE('',*,*,#112,.F.);
#537=ORIENTED_EDGE('',*,*,#98,.F.);
#538=ORIENTED_EDGE('',*,*,#140,.T.);
#539=ORIENTED_EDGE('',*,*,#96,.T.);
#540=CARTESIAN_POINT('',(0.0,8.4974,-53.99));
#541=DIRECTION('',(-0.0,0.0,1.0));
#542=DIRECTION('',(0.0,-1.0,0.0));
#543=SURFACE_STYLE_FILL_AREA(#588);
#544=ORIENTED_EDGE('',*,*,#82,.T.);
#545=ORIENTED_EDGE('',*,*,#100,.F.);
#546=ORIENTED_EDGE('',*,*,#126,.T.);
#547=ORIENTED_EDGE('',*,*,#130,.T.);
#548=CARTESIAN_POINT('',(0.0,0.0,-0.387));
#549=DIRECTION('',(0.0,-0.0,-1.0));
#550=DIRECTION('',(0.0,1.0,0.0));
#551=CARTESIAN_POINT('',(0.0,0.0,-87.29));
#552=DIRECTION('',(0.0,0.0,-1.0));
#553=DIRECTION('',(0.0,1.0,0.0));
#554=SURFACE_STYLE_FILL_AREA(#589);
#555=ORIENTED_EDGE('',*,*,#114,.F.);
#556=ORIENTED_EDGE('',*,*,#144,.T.);
#557=ORIENTED_EDGE('',*,*,#80,.F.);
#558=ORIENTED_EDGE('',*,*,#118,.F.);
#559=CARTESIAN_POINT('',(0.0,0.0,-18.887));
#560=DIRECTION('',(-0.0,-0.0,1.0));
#561=DIRECTION('',(0.0,1.0,0.0));
#562=SURFACE_STYLE_FILL_AREA(#590);
#563=ORIENTED_EDGE('',*,*,#128,.T.);
#564=ORIENTED_EDGE('',*,*,#124,.F.);
#565=ORIENTED_EDGE('',*,*,#152,.T.);
#566=ORIENTED_EDGE('',*,*,#98,.T.);
#567=CARTESIAN_POINT('',(0.0,0.0,-70.64));
#568=DIRECTION('',(0.0,-0.0,-1.0));
#569=DIRECTION('',(0.0,1.0,0.0));
#570=SURFACE_STYLE_FILL_AREA(#591);
#571=ORIENTED_EDGE('',*,*,#114,.T.);
#572=ORIENTED_EDGE('',*,*,#94,.F.);
#573=ORIENTED_EDGE('',*,*,#80,.T.);
#574=ORIENTED_EDGE('',*,*,#100,.T.);
#575=CARTESIAN_POINT('',(0.0,0.0,-18.887));
#576=DIRECTION('',(-0.0,-0.0,1.0));
#577=DIRECTION('',(0.0,1.0,0.0));
#578=FILL_AREA_STYLE('',(#592));
#579=FILL_AREA_STYLE('',(#593));
#580=FILL_AREA_STYLE('',(#594));
#581=FILL_AREA_STYLE('',(#595));
#582=FILL_AREA_STYLE('',(#596));
#583=FILL_AREA_STYLE('',(#597));
#584=FILL_AREA_STYLE('',(#598));
#585=FILL_AREA_STYLE('',(#599));
#586=FILL_AREA_STYLE('',(#600));
#587=FILL_AREA_STYLE('',(#601));
#588=FILL_AREA_STYLE('',(#602));
#589=FILL_AREA_STYLE('',(#603));
#590=FILL_AREA_STYLE('',(#604));
#591=FILL_AREA_STYLE('',(#605));
#592=FILL_AREA_STYLE_COLOUR('',#606);
#593=FILL_AREA_STYLE_COLOUR('',#607);
#594=FILL_AREA_STYLE_COLOUR('',#608);
#595=FILL_AREA_STYLE_COLOUR('',#609);
#596=FILL_AREA_STYLE_COLOUR('',#610);
#597=FILL_AREA_STYLE_COLOUR('',#611);
#598=FILL_AREA_STYLE_COLOUR('',#612);
#599=FILL_AREA_STYLE_COLOUR('',#613);
#600=FILL_AREA_STYLE_COLOUR('',#614);
#601=FILL_AREA_STYLE_COLOUR('',#615);
#602=FILL_AREA_STYLE_COLOUR('',#616);
#603=FILL_AREA_STYLE_COLOUR('',#617);
#604=FILL_AREA_STYLE_COLOUR('',#618);
#605=FILL_AREA_STYLE_COLOUR('',#619);
#606=COLOUR_RGB('',0.498039215803146,0.498039215803146,0.498039215803146);
#607=COLOUR_RGB('',0.498039215803146,0.498039215803146,0.498039215803146);
#608=COLOUR_RGB('',0.498039215803146,0.498039215803146,0.498039215803146);
#609=COLOUR_RGB('',0.800000011920929,0.800000011920929,0.800000011920929);
#610=COLOUR_RGB('',0.800000011920929,0.800000011920929,0.800000011920929);
#611=COLOUR_RGB('',0.800000011920929,0.800000011920929,0.800000011920929);
#612=COLOUR_RGB('',0.800000011920929,0.800000011920929,0.800000011920929);
#613=COLOUR_RGB('',0.800000011920929,0.800000011920929,0.800000011920929);
#614=COLOUR_RGB('',0.800000011920929,0.800000011920929,0.800000011920929);
#615=COLOUR_RGB('',0.800000011920929,0.800000011920929,0.800000011920929);
#616=COLOUR_RGB('',0.498039215803146,0.498039215803146,0.498039215803146);
#617=COLOUR_RGB('',0.498039215803146,0.498039215803146,0.498039215803146);
#618=COLOUR_RGB('',0.800000011920929,0.800000011920929,0.800000011920929);
#619=COLOUR_RGB('',0.498039215803146,0.498039215803146,0.498039215803146);
#620=AXIS2_PLACEMENT_3D('PCS',#621,#622,#623);
#621=CARTESIAN_POINT('',(0.0,0.0,0.0));
#622=DIRECTION('',(0.0,0.0,1.0));
#623=DIRECTION('',(1.0,0.0,0.0));
#624=AXIS2_PLACEMENT_3D('CIP',#625,#626,#627);
#625=CARTESIAN_POINT('',(0.0,0.0,-87.3));
#626=DIRECTION('',(0.0,0.0,1.0));
#627=DIRECTION('',(1.0,0.0,0.0));
#628=AXIS2_PLACEMENT_3D('CRP',#629,#630,#631);
#629=CARTESIAN_POINT('',(-8.5,0.0,-87.3));
#630=DIRECTION('',(0.0,0.0,1.0));
#631=DIRECTION('',(1.0,0.0,0.0));
#632=AXIS2_PLACEMENT_3D('MCS',#633,#634,#635);
#633=CARTESIAN_POINT('',(0.0,0.0,-37.0));
#634=DIRECTION('',(0.0,0.0,1.0));
#635=DIRECTION('',(1.0,0.0,0.0));
#636=CONSTRUCTIVE_GEOMETRY_REPRESENTATION_RELATIONSHIP('coordinate systems',$,#65,#637);
#637=CONSTRUCTIVE_GEOMETRY_REPRESENTATION('coordinate systems',(#620,#624,#628,#632),#10);
ENDSEC;
END-ISO-10303-21;
