ISO-10303-21;
HEADER;
FILE_DESCRIPTION(('no description'),'unknown implementation level');
FILE_NAME('solidVcc8SoncWxKQjR_MLXkU_lmbHNA_1.STP','  ',('CIMSOURCE GmbH'),('CADClick - KiM GmbH - www.kimweb.de'),'unknown preprocess','ACIS','unknown authorization');
FILE_SCHEMA(('automotive_design'));
ENDSEC;
DATA;
#1=MECHANICAL_DESIGN_GEOMETRIC_PRESENTATION_REPRESENTATION(' ',(#14,#15,#16,#17,#18,#19,#20,#21,#22,#23,#24,#25,#26,#27,#28,#29,#30,#31,#32,#33,#34,#35,#36,#37,#38,#39,#40,#41,#42,#43,#44,#45,#46,#47,#48,#49,#50,#51,#52,#53,#54,#55,#56,#57,#58,#59,#60),#10);
#2=PRODUCT_DEFINITION_CONTEXT('',#61,'design');
#3=APPLICATION_PROTOCOL_DEFINITION('INTERNATIONAL STANDARD','automotive_design',1994,#61);
#4=PRODUCT_CATEGORY_RELATIONSHIP('NONE','NONE',#62,#63);
#5=SHAPE_DEFINITION_REPRESENTATION(#64,#65);
#6=PRODUCT_DEFINITION_CONTEXT('',#66,'design');
#7=APPLICATION_PROTOCOL_DEFINITION('INTERNATIONAL STANDARD','automotive_design',1994,#66);
#8=PRODUCT_CATEGORY_RELATIONSHIP('NONE','NONE',#67,#68);
#9=SHAPE_DEFINITION_REPRESENTATION(#69,#70);
#10= (GEOMETRIC_REPRESENTATION_CONTEXT(3)GLOBAL_UNCERTAINTY_ASSIGNED_CONTEXT((#73))GLOBAL_UNIT_ASSIGNED_CONTEXT((#75,#76,#77))REPRESENTATION_CONTEXT('NONE','WORKSPACE'));
#14=STYLED_ITEM('',(#79),#80);
#15=STYLED_ITEM('',(#81),#82);
#16=STYLED_ITEM('',(#83),#84);
#17=STYLED_ITEM('',(#85),#86);
#18=STYLED_ITEM('',(#87),#88);
#19=STYLED_ITEM('',(#89),#90);
#20=STYLED_ITEM('',(#91),#92);
#21=STYLED_ITEM('',(#93),#94);
#22=STYLED_ITEM('',(#95),#96);
#23=STYLED_ITEM('',(#97),#98);
#24=STYLED_ITEM('',(#99),#100);
#25=STYLED_ITEM('',(#101),#102);
#26=STYLED_ITEM('',(#103),#104);
#27=STYLED_ITEM('',(#105),#106);
#28=STYLED_ITEM('',(#107),#108);
#29=STYLED_ITEM('',(#109),#110);
#30=STYLED_ITEM('',(#111),#112);
#31=STYLED_ITEM('',(#113),#114);
#32=STYLED_ITEM('',(#115),#116);
#33=STYLED_ITEM('',(#117),#118);
#34=STYLED_ITEM('',(#119),#120);
#35=STYLED_ITEM('',(#121),#122);
#36=STYLED_ITEM('',(#123),#124);
#37=STYLED_ITEM('',(#125),#126);
#38=STYLED_ITEM('',(#127),#128);
#39=STYLED_ITEM('',(#129),#130);
#40=STYLED_ITEM('',(#131),#132);
#41=STYLED_ITEM('',(#133),#134);
#42=STYLED_ITEM('',(#135),#136);
#43=STYLED_ITEM('',(#137),#138);
#44=STYLED_ITEM('',(#139),#140);
#45=STYLED_ITEM('',(#141),#142);
#46=STYLED_ITEM('',(#143),#144);
#47=STYLED_ITEM('',(#145),#146);
#48=STYLED_ITEM('',(#147),#148);
#49=STYLED_ITEM('',(#149),#150);
#50=STYLED_ITEM('',(#151),#152);
#51=STYLED_ITEM('',(#153),#154);
#52=STYLED_ITEM('',(#155),#156);
#53=STYLED_ITEM('',(#157),#158);
#54=STYLED_ITEM('',(#159),#160);
#55=STYLED_ITEM('',(#161),#162);
#56=STYLED_ITEM('',(#163),#164);
#57=STYLED_ITEM('',(#165),#166);
#58=STYLED_ITEM('',(#167),#168);
#59=STYLED_ITEM('',(#169),#170);
#60=STYLED_ITEM('',(#171),#172);
#61=APPLICATION_CONTEXT(' ');
#62=PRODUCT_CATEGORY('part','NONE');
#63=PRODUCT_RELATED_PRODUCT_CATEGORY('detail',' ',(#173));
#64=PRODUCT_DEFINITION_SHAPE('NONE','NONE',#174);
#65=ADVANCED_BREP_SHAPE_REPRESENTATION('1',(#116,#175),#10);
#66=APPLICATION_CONTEXT(' ');
#67=PRODUCT_CATEGORY('part','NONE');
#68=PRODUCT_RELATED_PRODUCT_CATEGORY('detail',' ',(#176));
#69=PRODUCT_DEFINITION_SHAPE('NONE','NONE',#177);
#70=ADVANCED_BREP_SHAPE_REPRESENTATION('2',(#120,#178),#10);
#73=UNCERTAINTY_MEASURE_WITH_UNIT(LENGTH_MEASURE(1.0E-006),#75,'','');
#75= (CONVERSION_BASED_UNIT('MILLIMETRE',#181)LENGTH_UNIT()NAMED_UNIT(#184));
#76= (NAMED_UNIT(#186)PLANE_ANGLE_UNIT()SI_UNIT($,.RADIAN.));
#77= (NAMED_UNIT(#186)SOLID_ANGLE_UNIT()SI_UNIT($,.STERADIAN.));
#79=PRESENTATION_STYLE_ASSIGNMENT((#192));
#80=EDGE_CURVE('',#150,#170,#193,.T.);
#81=PRESENTATION_STYLE_ASSIGNMENT((#194));
#82=EDGE_CURVE('',#166,#156,#195,.T.);
#83=PRESENTATION_STYLE_ASSIGNMENT((#196));
#84=ADVANCED_FACE('',(#197),#198,.T.);
#85=PRESENTATION_STYLE_ASSIGNMENT((#199));
#86=EDGE_CURVE('',#170,#126,#200,.T.);
#87=PRESENTATION_STYLE_ASSIGNMENT((#201));
#88=EDGE_CURVE('',#170,#150,#202,.T.);
#89=PRESENTATION_STYLE_ASSIGNMENT((#203));
#90=ADVANCED_FACE('',(#204),#205,.T.);
#91=PRESENTATION_STYLE_ASSIGNMENT((#206));
#92=ADVANCED_FACE('',(#207),#208,.T.);
#93=PRESENTATION_STYLE_ASSIGNMENT((#209));
#94=EDGE_CURVE('',#156,#166,#210,.T.);
#95=PRESENTATION_STYLE_ASSIGNMENT((#211));
#96=ADVANCED_FACE('',(#212,#213),#214,.T.);
#97=PRESENTATION_STYLE_ASSIGNMENT((#215));
#98=EDGE_CURVE('',#124,#142,#216,.T.);
#99=PRESENTATION_STYLE_ASSIGNMENT((#217));
#100=EDGE_CURVE('',#122,#126,#218,.T.);
#101=PRESENTATION_STYLE_ASSIGNMENT((#219));
#102=VERTEX_POINT('',#220);
#103=PRESENTATION_STYLE_ASSIGNMENT((#221));
#104=VERTEX_POINT('',#222);
#105=PRESENTATION_STYLE_ASSIGNMENT((#223));
#106=VERTEX_POINT('',#224);
#107=PRESENTATION_STYLE_ASSIGNMENT((#225));
#108=ADVANCED_FACE('',(#226),#227,.T.);
#109=PRESENTATION_STYLE_ASSIGNMENT((#228));
#110=EDGE_CURVE('',#130,#104,#229,.T.);
#111=PRESENTATION_STYLE_ASSIGNMENT((#230));
#112=ADVANCED_FACE('',(#231),#232,.T.);
#113=PRESENTATION_STYLE_ASSIGNMENT((#233));
#114=EDGE_CURVE('',#102,#106,#234,.T.);
#115=PRESENTATION_STYLE_ASSIGNMENT((#235));
#116=MANIFOLD_SOLID_BREP('1',#236);
#117=PRESENTATION_STYLE_ASSIGNMENT((#237));
#118=ADVANCED_FACE('',(#238),#239,.T.);
#119=PRESENTATION_STYLE_ASSIGNMENT((#240));
#120=MANIFOLD_SOLID_BREP('2',#241);
#121=PRESENTATION_STYLE_ASSIGNMENT((#242));
#122=VERTEX_POINT('',#243);
#123=PRESENTATION_STYLE_ASSIGNMENT((#244));
#124=VERTEX_POINT('',#245);
#125=PRESENTATION_STYLE_ASSIGNMENT((#246));
#126=VERTEX_POINT('',#247);
#127=PRESENTATION_STYLE_ASSIGNMENT((#248));
#128=ADVANCED_FACE('',(#249),#250,.F.);
#129=PRESENTATION_STYLE_ASSIGNMENT((#251));
#130=VERTEX_POINT('',#252);
#131=PRESENTATION_STYLE_ASSIGNMENT((#253));
#132=EDGE_CURVE('',#130,#156,#254,.T.);
#133=PRESENTATION_STYLE_ASSIGNMENT((#255));
#134=EDGE_CURVE('',#142,#154,#256,.T.);
#135=PRESENTATION_STYLE_ASSIGNMENT((#257));
#136=EDGE_CURVE('',#142,#124,#258,.T.);
#137=PRESENTATION_STYLE_ASSIGNMENT((#259));
#138=EDGE_CURVE('',#106,#102,#260,.T.);
#139=PRESENTATION_STYLE_ASSIGNMENT((#261));
#140=EDGE_CURVE('',#104,#130,#262,.T.);
#141=PRESENTATION_STYLE_ASSIGNMENT((#263));
#142=VERTEX_POINT('',#264);
#143=PRESENTATION_STYLE_ASSIGNMENT((#265));
#144=EDGE_CURVE('',#122,#150,#266,.T.);
#145=PRESENTATION_STYLE_ASSIGNMENT((#267));
#146=ADVANCED_FACE('',(#268),#269,.T.);
#147=PRESENTATION_STYLE_ASSIGNMENT((#270));
#148=EDGE_CURVE('',#156,#106,#271,.T.);
#149=PRESENTATION_STYLE_ASSIGNMENT((#272));
#150=VERTEX_POINT('',#273);
#151=PRESENTATION_STYLE_ASSIGNMENT((#274));
#152=ADVANCED_FACE('',(#275),#276,.F.);
#153=PRESENTATION_STYLE_ASSIGNMENT((#277));
#154=VERTEX_POINT('',#278);
#155=PRESENTATION_STYLE_ASSIGNMENT((#279));
#156=VERTEX_POINT('',#280);
#157=PRESENTATION_STYLE_ASSIGNMENT((#281));
#158=EDGE_CURVE('',#126,#122,#282,.T.);
#159=PRESENTATION_STYLE_ASSIGNMENT((#283));
#160=EDGE_CURVE('',#154,#124,#284,.T.);
#161=PRESENTATION_STYLE_ASSIGNMENT((#285));
#162=ADVANCED_FACE('',(#286),#287,.T.);
#163=PRESENTATION_STYLE_ASSIGNMENT((#288));
#164=EDGE_CURVE('',#166,#104,#289,.T.);
#165=PRESENTATION_STYLE_ASSIGNMENT((#290));
#166=VERTEX_POINT('',#291);
#167=PRESENTATION_STYLE_ASSIGNMENT((#292));
#168=EDGE_CURVE('',#102,#166,#293,.T.);
#169=PRESENTATION_STYLE_ASSIGNMENT((#294));
#170=VERTEX_POINT('',#295);
#171=PRESENTATION_STYLE_ASSIGNMENT((#296));
#172=ADVANCED_FACE('',(#297),#298,.T.);
#173=PRODUCT('1','1','PART-1-DESC',(#299));
#174=PRODUCT_DEFINITION('NONE','NONE',#300,#2);
#175=AXIS2_PLACEMENT_3D('',#301,#302,#303);
#176=PRODUCT('2','2','PART-2-DESC',(#304));
#177=PRODUCT_DEFINITION('NONE','NONE',#305,#6);
#178=AXIS2_PLACEMENT_3D('',#306,#307,#308);
#181=LENGTH_MEASURE_WITH_UNIT(LENGTH_MEASURE(1.0),#309);
#184=DIMENSIONAL_EXPONENTS(1.0,0.0,0.0,0.0,0.0,0.0,0.0);
#186=DIMENSIONAL_EXPONENTS(0.0,0.0,0.0,0.0,0.0,0.0,0.0);
#192=CURVE_STYLE('',#310,POSITIVE_LENGTH_MEASURE(1.0E-006),#311);
#193=CIRCLE('',#312,8.9999);
#194=CURVE_STYLE('',#313,POSITIVE_LENGTH_MEASURE(1.0E-006),#314);
#195=CIRCLE('',#315,7.9375);
#196=SURFACE_STYLE_USAGE(.BOTH.,#316);
#197=FACE_OUTER_BOUND('',#317,.T.);
#198=CONICAL_SURFACE('',#318,8.99995,3.00300300298698E-006);
#199=CURVE_STYLE('',#319,POSITIVE_LENGTH_MEASURE(1.0E-006),#320);
#200=LINE('',#321,#322);
#201=CURVE_STYLE('',#323,POSITIVE_LENGTH_MEASURE(1.0E-006),#324);
#202=CIRCLE('',#325,8.9999);
#203=SURFACE_STYLE_USAGE(.BOTH.,#326);
#204=FACE_OUTER_BOUND('',#327,.T.);
#205=CONICAL_SURFACE('',#328,8.99995,3.00300300298698E-006);
#206=SURFACE_STYLE_USAGE(.BOTH.,#329);
#207=FACE_OUTER_BOUND('',#330,.T.);
#208=PLANE('',#331);
#209=CURVE_STYLE('',#332,POSITIVE_LENGTH_MEASURE(1.0E-006),#333);
#210=CIRCLE('',#334,7.9375);
#211=SURFACE_STYLE_USAGE(.BOTH.,#335);
#212=FACE_OUTER_BOUND('',#336,.T.);
#213=FACE_BOUND('',#337,.T.);
#214=PLANE('',#338);
#215=CURVE_STYLE('',#339,POSITIVE_LENGTH_MEASURE(1.0E-006),#340);
#216=CIRCLE('',#341,8.9949);
#217=CURVE_STYLE('',#342,POSITIVE_LENGTH_MEASURE(1.0E-006),#343);
#218=CIRCLE('',#344,9.0);
#219=POINT_STYLE(' ',#345,POSITIVE_LENGTH_MEASURE(1.0E-006),#346);
#220=CARTESIAN_POINT('',(0.0,7.47908388626344,0.00999999999999801));
#221=POINT_STYLE(' ',#347,POSITIVE_LENGTH_MEASURE(1.0E-006),#348);
#222=CARTESIAN_POINT('',(-9.72031293346512E-016,7.9375,-53.99));
#223=POINT_STYLE(' ',#349,POSITIVE_LENGTH_MEASURE(1.0E-006),#350);
#224=CARTESIAN_POINT('',(9.15893364788876E-016,-7.47908388626344,0.00999999999999801));
#225=SURFACE_STYLE_USAGE(.BOTH.,#351);
#226=FACE_OUTER_BOUND('',#352,.T.);
#227=CONICAL_SURFACE('',#353,7.70829194313172,0.523598775598301);
#228=CURVE_STYLE('',#354,POSITIVE_LENGTH_MEASURE(1.0E-006),#355);
#229=CIRCLE('',#356,7.9375);
#230=SURFACE_STYLE_USAGE(.BOTH.,#357);
#231=FACE_OUTER_BOUND('',#358,.T.);
#232=PLANE('',#359);
#233=CURVE_STYLE('',#360,POSITIVE_LENGTH_MEASURE(1.0E-006),#361);
#234=CIRCLE('',#362,7.47908388626344);
#235=SURFACE_STYLE_USAGE(.BOTH.,#363);
#236=CLOSED_SHELL('',(#90,#128,#152,#96,#84,#92));
#237=SURFACE_STYLE_USAGE(.BOTH.,#364);
#238=FACE_OUTER_BOUND('',#365,.T.);
#239=CYLINDRICAL_SURFACE('',#366,7.9375);
#240=SURFACE_STYLE_USAGE(.BOTH.,#367);
#241=CLOSED_SHELL('',(#118,#108,#112,#162,#146,#172));
#242=POINT_STYLE(' ',#368,POSITIVE_LENGTH_MEASURE(1.0E-006),#369);
#243=CARTESIAN_POINT('',(1.10214571844014E-015,-9.0,-87.29));
#244=POINT_STYLE(' ',#370,POSITIVE_LENGTH_MEASURE(1.0E-006),#371);
#245=CARTESIAN_POINT('',(1.10152116919969E-015,-8.9949,-53.99));
#246=POINT_STYLE(' ',#372,POSITIVE_LENGTH_MEASURE(1.0E-006),#373);
#247=CARTESIAN_POINT('',(0.0,9.0,-87.29));
#248=SURFACE_STYLE_USAGE(.BOTH.,#374);
#249=FACE_OUTER_BOUND('',#375,.T.);
#250=CONICAL_SURFACE('',#376,4.49745,1.56968458615519);
#251=POINT_STYLE(' ',#377,POSITIVE_LENGTH_MEASURE(1.0E-006),#378);
#252=CARTESIAN_POINT('',(0.0,-7.9375,-53.99));
#253=CURVE_STYLE('',#379,POSITIVE_LENGTH_MEASURE(1.0E-006),#380);
#254=LINE('',#381,#382);
#255=CURVE_STYLE('',#383,POSITIVE_LENGTH_MEASURE(1.0E-006),#384);
#256=LINE('',#385,#386);
#257=CURVE_STYLE('',#387,POSITIVE_LENGTH_MEASURE(1.0E-006),#388);
#258=CIRCLE('',#389,8.9949);
#259=CURVE_STYLE('',#390,POSITIVE_LENGTH_MEASURE(1.0E-006),#391);
#260=CIRCLE('',#392,7.47908388626344);
#261=CURVE_STYLE('',#393,POSITIVE_LENGTH_MEASURE(1.0E-006),#394);
#262=CIRCLE('',#395,7.9375);
#263=POINT_STYLE(' ',#396,POSITIVE_LENGTH_MEASURE(1.0E-006),#397);
#264=CARTESIAN_POINT('',(0.0,8.9949,-53.99));
#265=CURVE_STYLE('',#398,POSITIVE_LENGTH_MEASURE(1.0E-006),#399);
#266=LINE('',#400,#401);
#267=SURFACE_STYLE_USAGE(.BOTH.,#402);
#268=FACE_OUTER_BOUND('',#403,.T.);
#269=CONICAL_SURFACE('',#404,7.70829194313172,0.523598775598301);
#270=CURVE_STYLE('',#405,POSITIVE_LENGTH_MEASURE(1.0E-006),#406);
#271=LINE('',#407,#408);
#272=POINT_STYLE(' ',#409,POSITIVE_LENGTH_MEASURE(1.0E-006),#410);
#273=CARTESIAN_POINT('',(1.1021334723766E-015,-8.9999,-53.99));
#274=SURFACE_STYLE_USAGE(.BOTH.,#411);
#275=FACE_OUTER_BOUND('',#412,.T.);
#276=CONICAL_SURFACE('',#413,4.49745,1.56968458615519);
#277=POINT_STYLE(' ',#414,POSITIVE_LENGTH_MEASURE(1.0E-006),#415);
#278=CARTESIAN_POINT('',(0.0,0.0,-54.0));
#279=POINT_STYLE(' ',#416,POSITIVE_LENGTH_MEASURE(1.0E-006),#417);
#280=CARTESIAN_POINT('',(9.72031293346512E-016,-7.9375,-0.783999999999999));
#281=CURVE_STYLE('',#418,POSITIVE_LENGTH_MEASURE(1.0E-006),#419);
#282=CIRCLE('',#420,9.0);
#283=CURVE_STYLE('',#421,POSITIVE_LENGTH_MEASURE(1.0E-006),#422);
#284=LINE('',#423,#424);
#285=SURFACE_STYLE_USAGE(.BOTH.,#425);
#286=FACE_OUTER_BOUND('',#426,.T.);
#287=PLANE('',#427);
#288=CURVE_STYLE('',#428,POSITIVE_LENGTH_MEASURE(1.0E-006),#429);
#289=LINE('',#430,#431);
#290=POINT_STYLE(' ',#432,POSITIVE_LENGTH_MEASURE(1.0E-006),#433);
#291=CARTESIAN_POINT('',(0.0,7.9375,-0.783999999999999));
#292=CURVE_STYLE('',#434,POSITIVE_LENGTH_MEASURE(1.0E-006),#435);
#293=LINE('',#436,#437);
#294=POINT_STYLE(' ',#438,POSITIVE_LENGTH_MEASURE(1.0E-006),#439);
#295=CARTESIAN_POINT('',(0.0,8.9999,-53.99));
#296=SURFACE_STYLE_USAGE(.BOTH.,#440);
#297=FACE_OUTER_BOUND('',#441,.T.);
#298=CYLINDRICAL_SURFACE('',#442,7.9375);
#299=PRODUCT_CONTEXT('',#61,'mechanical');
#300=PRODUCT_DEFINITION_FORMATION_WITH_SPECIFIED_SOURCE(' ','NONE',#173,.NOT_KNOWN.);
#301=CARTESIAN_POINT('',(0.0,0.0,0.0));
#302=DIRECTION('',(0.0,0.0,1.0));
#303=DIRECTION('',(1.0,0.0,0.0));
#304=PRODUCT_CONTEXT('',#66,'mechanical');
#305=PRODUCT_DEFINITION_FORMATION_WITH_SPECIFIED_SOURCE(' ','NONE',#176,.NOT_KNOWN.);
#306=CARTESIAN_POINT('',(0.0,0.0,0.0));
#307=DIRECTION('',(0.0,0.0,1.0));
#308=DIRECTION('',(1.0,0.0,0.0));
#309= (NAMED_UNIT(#184)LENGTH_UNIT()SI_UNIT(.MILLI.,.METRE.));
#310=DRAUGHTING_PRE_DEFINED_CURVE_FONT('continuous');
#311=COLOUR_RGB('',0.800000011920929,0.800000011920929,0.800000011920929);
#312=AXIS2_PLACEMENT_3D('',#444,#445,#446);
#313=DRAUGHTING_PRE_DEFINED_CURVE_FONT('continuous');
#314=COLOUR_RGB('',0.498039215803146,0.498039215803146,0.498039215803146);
#315=AXIS2_PLACEMENT_3D('',#447,#448,#449);
#316=SURFACE_SIDE_STYLE('',(#450));
#317=EDGE_LOOP('',(#451,#452,#453,#454));
#318=AXIS2_PLACEMENT_3D('',#455,#456,#457);
#319=DRAUGHTING_PRE_DEFINED_CURVE_FONT('continuous');
#320=COLOUR_RGB('',0.800000011920929,0.800000011920929,0.800000011920929);
#321=CARTESIAN_POINT('',(-1.10213959540837E-015,8.99995,-70.64));
#322=VECTOR('',#458,1.0);
#323=DRAUGHTING_PRE_DEFINED_CURVE_FONT('continuous');
#324=COLOUR_RGB('',0.800000011920929,0.800000011920929,0.800000011920929);
#325=AXIS2_PLACEMENT_3D('',#459,#460,#461);
#326=SURFACE_SIDE_STYLE('',(#462));
#327=EDGE_LOOP('',(#463,#464,#465,#466));
#328=AXIS2_PLACEMENT_3D('',#467,#468,#469);
#329=SURFACE_SIDE_STYLE('',(#470));
#330=EDGE_LOOP('',(#471,#472));
#331=AXIS2_PLACEMENT_3D('',#473,#474,#475);
#332=DRAUGHTING_PRE_DEFINED_CURVE_FONT('continuous');
#333=COLOUR_RGB('',0.498039215803146,0.498039215803146,0.498039215803146);
#334=AXIS2_PLACEMENT_3D('',#476,#477,#478);
#335=SURFACE_SIDE_STYLE('',(#479));
#336=EDGE_LOOP('',(#480,#481));
#337=EDGE_LOOP('',(#482,#483));
#338=AXIS2_PLACEMENT_3D('',#484,#485,#486);
#339=DRAUGHTING_PRE_DEFINED_CURVE_FONT('continuous');
#340=COLOUR_RGB('',0.800000011920929,0.800000011920929,0.800000011920929);
#341=AXIS2_PLACEMENT_3D('',#487,#488,#489);
#342=DRAUGHTING_PRE_DEFINED_CURVE_FONT('continuous');
#343=COLOUR_RGB('',0.800000011920929,0.800000011920929,0.800000011920929);
#344=AXIS2_PLACEMENT_3D('',#490,#491,#492);
#345=PRE_DEFINED_MARKER('');
#346=COLOUR_RGB('',0.498039215803146,0.498039215803146,0.498039215803146);
#347=PRE_DEFINED_MARKER('');
#348=COLOUR_RGB('',0.498039215803146,0.498039215803146,0.498039215803146);
#349=PRE_DEFINED_MARKER('');
#350=COLOUR_RGB('',0.498039215803146,0.498039215803146,0.498039215803146);
#351=SURFACE_SIDE_STYLE('',(#493));
#352=EDGE_LOOP('',(#494,#495,#496,#497));
#353=AXIS2_PLACEMENT_3D('',#498,#499,#500);
#354=DRAUGHTING_PRE_DEFINED_CURVE_FONT('continuous');
#355=COLOUR_RGB('',0.498039215803146,0.498039215803146,0.498039215803146);
#356=AXIS2_PLACEMENT_3D('',#501,#502,#503);
#357=SURFACE_SIDE_STYLE('',(#504));
#358=EDGE_LOOP('',(#505,#506));
#359=AXIS2_PLACEMENT_3D('',#507,#508,#509);
#360=DRAUGHTING_PRE_DEFINED_CURVE_FONT('continuous');
#361=COLOUR_RGB('',0.498039215803146,0.498039215803146,0.498039215803146);
#362=AXIS2_PLACEMENT_3D('',#510,#511,#512);
#363=SURFACE_SIDE_STYLE('',(#513));
#364=SURFACE_SIDE_STYLE('',(#514));
#365=EDGE_LOOP('',(#515,#516,#517,#518));
#366=AXIS2_PLACEMENT_3D('',#519,#520,#521);
#367=SURFACE_SIDE_STYLE('',(#522));
#368=PRE_DEFINED_MARKER('');
#369=COLOUR_RGB('',0.800000011920929,0.800000011920929,0.800000011920929);
#370=PRE_DEFINED_MARKER('');
#371=COLOUR_RGB('',0.800000011920929,0.800000011920929,0.800000011920929);
#372=PRE_DEFINED_MARKER('');
#373=COLOUR_RGB('',0.800000011920929,0.800000011920929,0.800000011920929);
#374=SURFACE_SIDE_STYLE('',(#523));
#375=EDGE_LOOP('',(#524,#525,#526));
#376=AXIS2_PLACEMENT_3D('',#527,#528,#529);
#377=PRE_DEFINED_MARKER('');
#378=COLOUR_RGB('',0.498039215803146,0.498039215803146,0.498039215803146);
#379=DRAUGHTING_PRE_DEFINED_CURVE_FONT('continuous');
#380=COLOUR_RGB('',0.498039215803146,0.498039215803146,0.498039215803146);
#381=CARTESIAN_POINT('',(9.72031293346512E-016,-7.9375,-18.387));
#382=VECTOR('',#530,1.0);
#383=DRAUGHTING_PRE_DEFINED_CURVE_FONT('continuous');
#384=COLOUR_RGB('',0.800000011920929,0.800000011920929,0.800000011920929);
#385=CARTESIAN_POINT('',(-5.50760584599845E-016,4.49745,-53.995));
#386=VECTOR('',#531,1.0);
#387=DRAUGHTING_PRE_DEFINED_CURVE_FONT('continuous');
#388=COLOUR_RGB('',0.800000011920929,0.800000011920929,0.800000011920929);
#389=AXIS2_PLACEMENT_3D('',#532,#533,#534);
#390=DRAUGHTING_PRE_DEFINED_CURVE_FONT('continuous');
#391=COLOUR_RGB('',0.498039215803146,0.498039215803146,0.498039215803146);
#392=AXIS2_PLACEMENT_3D('',#535,#536,#537);
#393=DRAUGHTING_PRE_DEFINED_CURVE_FONT('continuous');
#394=COLOUR_RGB('',0.498039215803146,0.498039215803146,0.498039215803146);
#395=AXIS2_PLACEMENT_3D('',#538,#539,#540);
#396=PRE_DEFINED_MARKER('');
#397=COLOUR_RGB('',0.800000011920929,0.800000011920929,0.800000011920929);
#398=DRAUGHTING_PRE_DEFINED_CURVE_FONT('continuous');
#399=COLOUR_RGB('',0.800000011920929,0.800000011920929,0.800000011920929);
#400=CARTESIAN_POINT('',(1.10213959540837E-015,-8.99995,-70.64));
#401=VECTOR('',#541,1.0);
#402=SURFACE_SIDE_STYLE('',(#542));
#403=EDGE_LOOP('',(#543,#544,#545,#546));
#404=AXIS2_PLACEMENT_3D('',#547,#548,#549);
#405=DRAUGHTING_PRE_DEFINED_CURVE_FONT('continuous');
#406=COLOUR_RGB('',0.498039215803146,0.498039215803146,0.498039215803146);
#407=CARTESIAN_POINT('',(9.43962329067694E-016,-7.70829194313172,-0.387));
#408=VECTOR('',#550,1.0);
#409=PRE_DEFINED_MARKER('');
#410=COLOUR_RGB('',0.800000011920929,0.800000011920929,0.800000011920929);
#411=SURFACE_SIDE_STYLE('',(#551));
#412=EDGE_LOOP('',(#552,#553,#554));
#413=AXIS2_PLACEMENT_3D('',#555,#556,#557);
#414=PRE_DEFINED_MARKER('');
#415=COLOUR_RGB('',0.800000011920929,0.800000011920929,0.800000011920929);
#416=PRE_DEFINED_MARKER('');
#417=COLOUR_RGB('',0.498039215803146,0.498039215803146,0.498039215803146);
#418=DRAUGHTING_PRE_DEFINED_CURVE_FONT('continuous');
#419=COLOUR_RGB('',0.800000011920929,0.800000011920929,0.800000011920929);
#420=AXIS2_PLACEMENT_3D('',#558,#559,#560);
#421=DRAUGHTING_PRE_DEFINED_CURVE_FONT('continuous');
#422=COLOUR_RGB('',0.800000011920929,0.800000011920929,0.800000011920929);
#423=CARTESIAN_POINT('',(5.50760584599845E-016,-4.49745,-53.995));
#424=VECTOR('',#561,1.0);
#425=SURFACE_SIDE_STYLE('',(#562));
#426=EDGE_LOOP('',(#563,#564));
#427=AXIS2_PLACEMENT_3D('',#565,#566,#567);
#428=DRAUGHTING_PRE_DEFINED_CURVE_FONT('continuous');
#429=COLOUR_RGB('',0.498039215803146,0.498039215803146,0.498039215803146);
#430=CARTESIAN_POINT('',(-9.72031293346512E-016,7.9375,-18.387));
#431=VECTOR('',#568,1.0);
#432=PRE_DEFINED_MARKER('');
#433=COLOUR_RGB('',0.498039215803146,0.498039215803146,0.498039215803146);
#434=DRAUGHTING_PRE_DEFINED_CURVE_FONT('continuous');
#435=COLOUR_RGB('',0.498039215803146,0.498039215803146,0.498039215803146);
#436=CARTESIAN_POINT('',(-9.43962329067694E-016,7.70829194313172,-0.387));
#437=VECTOR('',#569,1.0);
#438=PRE_DEFINED_MARKER('');
#439=COLOUR_RGB('',0.800000011920929,0.800000011920929,0.800000011920929);
#440=SURFACE_SIDE_STYLE('',(#570));
#441=EDGE_LOOP('',(#571,#572,#573,#574));
#442=AXIS2_PLACEMENT_3D('',#575,#576,#577);
#444=CARTESIAN_POINT('',(0.0,0.0,-53.99));
#445=DIRECTION('',(0.0,0.0,-1.0));
#446=DIRECTION('',(0.0,1.0,0.0));
#447=CARTESIAN_POINT('',(0.0,0.0,-0.783999999999999));
#448=DIRECTION('',(0.0,0.0,-1.0));
#449=DIRECTION('',(0.0,1.0,0.0));
#450=SURFACE_STYLE_FILL_AREA(#578);
#451=ORIENTED_EDGE('',*,*,#86,.T.);
#452=ORIENTED_EDGE('',*,*,#100,.F.);
#453=ORIENTED_EDGE('',*,*,#144,.T.);
#454=ORIENTED_EDGE('',*,*,#80,.T.);
#455=CARTESIAN_POINT('',(0.0,0.0,-70.64));
#456=DIRECTION('',(0.0,-0.0,-1.0));
#457=DIRECTION('',(0.0,1.0,0.0));
#458=DIRECTION('',(-3.677496558E-022,3.00300300298246E-006,-0.999999999995491));
#459=CARTESIAN_POINT('',(0.0,0.0,-53.99));
#460=DIRECTION('',(0.0,0.0,-1.0));
#461=DIRECTION('',(0.0,1.0,0.0));
#462=SURFACE_STYLE_FILL_AREA(#579);
#463=ORIENTED_EDGE('',*,*,#86,.F.);
#464=ORIENTED_EDGE('',*,*,#88,.T.);
#465=ORIENTED_EDGE('',*,*,#144,.F.);
#466=ORIENTED_EDGE('',*,*,#158,.F.);
#467=CARTESIAN_POINT('',(0.0,0.0,-70.64));
#468=DIRECTION('',(0.0,-0.0,-1.0));
#469=DIRECTION('',(0.0,1.0,0.0));
#470=SURFACE_STYLE_FILL_AREA(#580);
#471=ORIENTED_EDGE('',*,*,#158,.T.);
#472=ORIENTED_EDGE('',*,*,#100,.T.);
#473=CARTESIAN_POINT('',(0.0,4.4975,-87.29));
#474=DIRECTION('',(0.0,0.0,-1.0));
#475=DIRECTION('',(0.0,1.0,0.0));
#476=CARTESIAN_POINT('',(0.0,0.0,-0.783999999999999));
#477=DIRECTION('',(0.0,0.0,-1.0));
#478=DIRECTION('',(0.0,1.0,0.0));
#479=SURFACE_STYLE_FILL_AREA(#581);
#480=ORIENTED_EDGE('',*,*,#88,.F.);
#481=ORIENTED_EDGE('',*,*,#80,.F.);
#482=ORIENTED_EDGE('',*,*,#136,.T.);
#483=ORIENTED_EDGE('',*,*,#98,.T.);
#484=CARTESIAN_POINT('',(0.0,8.9974,-53.99));
#485=DIRECTION('',(-0.0,0.0,1.0));
#486=DIRECTION('',(0.0,-1.0,0.0));
#487=CARTESIAN_POINT('',(0.0,0.0,-53.99));
#488=DIRECTION('',(0.0,0.0,-1.0));
#489=DIRECTION('',(0.0,1.0,0.0));
#490=CARTESIAN_POINT('',(0.0,0.0,-87.29));
#491=DIRECTION('',(0.0,0.0,-1.0));
#492=DIRECTION('',(0.0,1.0,0.0));
#493=SURFACE_STYLE_FILL_AREA(#582);
#494=ORIENTED_EDGE('',*,*,#168,.F.);
#495=ORIENTED_EDGE('',*,*,#114,.T.);
#496=ORIENTED_EDGE('',*,*,#148,.F.);
#497=ORIENTED_EDGE('',*,*,#82,.F.);
#498=CARTESIAN_POINT('',(0.0,0.0,-0.387));
#499=DIRECTION('',(0.0,-0.0,-1.0));
#500=DIRECTION('',(0.0,1.0,0.0));
#501=CARTESIAN_POINT('',(0.0,0.0,-53.99));
#502=DIRECTION('',(0.0,0.0,-1.0));
#503=DIRECTION('',(0.0,-1.0,0.0));
#504=SURFACE_STYLE_FILL_AREA(#583);
#505=ORIENTED_EDGE('',*,*,#110,.T.);
#506=ORIENTED_EDGE('',*,*,#140,.T.);
#507=CARTESIAN_POINT('',(0.0,0.0,-53.99));
#508=DIRECTION('',(0.0,0.0,-1.0));
#509=DIRECTION('',(0.0,-1.0,0.0));
#510=CARTESIAN_POINT('',(0.0,0.0,0.00999999999999801));
#511=DIRECTION('',(0.0,0.0,-1.0));
#512=DIRECTION('',(0.0,1.0,0.0));
#513=SURFACE_STYLE_FILL_AREA(#584);
#514=SURFACE_STYLE_FILL_AREA(#585);
#515=ORIENTED_EDGE('',*,*,#164,.F.);
#516=ORIENTED_EDGE('',*,*,#82,.T.);
#517=ORIENTED_EDGE('',*,*,#132,.F.);
#518=ORIENTED_EDGE('',*,*,#140,.F.);
#519=CARTESIAN_POINT('',(0.0,0.0,-18.387));
#520=DIRECTION('',(-0.0,-0.0,1.0));
#521=DIRECTION('',(0.0,1.0,0.0));
#522=SURFACE_STYLE_FILL_AREA(#586);
#523=SURFACE_STYLE_FILL_AREA(#587);
#524=ORIENTED_EDGE('',*,*,#160,.F.);
#525=ORIENTED_EDGE('',*,*,#134,.F.);
#526=ORIENTED_EDGE('',*,*,#98,.F.);
#527=CARTESIAN_POINT('',(0.0,0.0,-53.995));
#528=DIRECTION('',(-0.0,-0.0,1.0));
#529=DIRECTION('',(0.0,1.0,0.0));
#530=DIRECTION('',(-0.0,-0.0,1.0));
#531=DIRECTION('',(1.22460559703578E-016,-0.999999382016439,-0.00111174041069478));
#532=CARTESIAN_POINT('',(0.0,0.0,-53.99));
#533=DIRECTION('',(0.0,0.0,-1.0));
#534=DIRECTION('',(0.0,1.0,0.0));
#535=CARTESIAN_POINT('',(0.0,0.0,0.00999999999999801));
#536=DIRECTION('',(0.0,0.0,-1.0));
#537=DIRECTION('',(0.0,1.0,0.0));
#538=CARTESIAN_POINT('',(0.0,0.0,-53.99));
#539=DIRECTION('',(0.0,0.0,-1.0));
#540=DIRECTION('',(0.0,-1.0,0.0));
#541=DIRECTION('',(-3.677496558E-022,3.00300300298246E-006,0.999999999995491));
#542=SURFACE_STYLE_FILL_AREA(#588);
#543=ORIENTED_EDGE('',*,*,#168,.T.);
#544=ORIENTED_EDGE('',*,*,#94,.F.);
#545=ORIENTED_EDGE('',*,*,#148,.T.);
#546=ORIENTED_EDGE('',*,*,#138,.T.);
#547=CARTESIAN_POINT('',(0.0,0.0,-0.387));
#548=DIRECTION('',(0.0,-0.0,-1.0));
#549=DIRECTION('',(0.0,1.0,0.0));
#550=DIRECTION('',(-6.12303176911191E-017,0.500000000000002,0.866025403784438));
#551=SURFACE_STYLE_FILL_AREA(#589);
#552=ORIENTED_EDGE('',*,*,#160,.T.);
#553=ORIENTED_EDGE('',*,*,#136,.F.);
#554=ORIENTED_EDGE('',*,*,#134,.T.);
#555=CARTESIAN_POINT('',(0.0,0.0,-53.995));
#556=DIRECTION('',(-0.0,-0.0,1.0));
#557=DIRECTION('',(0.0,1.0,0.0));
#558=CARTESIAN_POINT('',(0.0,0.0,-87.29));
#559=DIRECTION('',(0.0,0.0,-1.0));
#560=DIRECTION('',(0.0,1.0,0.0));
#561=DIRECTION('',(1.22460559703578E-016,-0.999999382016439,0.00111174041069478));
#562=SURFACE_STYLE_FILL_AREA(#590);
#563=ORIENTED_EDGE('',*,*,#114,.F.);
#564=ORIENTED_EDGE('',*,*,#138,.F.);
#565=CARTESIAN_POINT('',(0.0,3.73954194313172,0.00999999999999801));
#566=DIRECTION('',(-0.0,0.0,1.0));
#567=DIRECTION('',(0.0,-1.0,0.0));
#568=DIRECTION('',(0.0,0.0,-1.0));
#569=DIRECTION('',(-6.12303176911191E-017,0.500000000000002,-0.866025403784438));
#570=SURFACE_STYLE_FILL_AREA(#591);
#571=ORIENTED_EDGE('',*,*,#164,.T.);
#572=ORIENTED_EDGE('',*,*,#110,.F.);
#573=ORIENTED_EDGE('',*,*,#132,.T.);
#574=ORIENTED_EDGE('',*,*,#94,.T.);
#575=CARTESIAN_POINT('',(0.0,0.0,-18.387));
#576=DIRECTION('',(-0.0,-0.0,1.0));
#577=DIRECTION('',(0.0,1.0,0.0));
#578=FILL_AREA_STYLE('',(#592));
#579=FILL_AREA_STYLE('',(#593));
#580=FILL_AREA_STYLE('',(#594));
#581=FILL_AREA_STYLE('',(#595));
#582=FILL_AREA_STYLE('',(#596));
#583=FILL_AREA_STYLE('',(#597));
#584=FILL_AREA_STYLE('',(#598));
#585=FILL_AREA_STYLE('',(#599));
#586=FILL_AREA_STYLE('',(#600));
#587=FILL_AREA_STYLE('',(#601));
#588=FILL_AREA_STYLE('',(#602));
#589=FILL_AREA_STYLE('',(#603));
#590=FILL_AREA_STYLE('',(#604));
#591=FILL_AREA_STYLE('',(#605));
#592=FILL_AREA_STYLE_COLOUR('',#606);
#593=FILL_AREA_STYLE_COLOUR('',#607);
#594=FILL_AREA_STYLE_COLOUR('',#608);
#595=FILL_AREA_STYLE_COLOUR('',#609);
#596=FILL_AREA_STYLE_COLOUR('',#610);
#597=FILL_AREA_STYLE_COLOUR('',#611);
#598=FILL_AREA_STYLE_COLOUR('',#612);
#599=FILL_AREA_STYLE_COLOUR('',#613);
#600=FILL_AREA_STYLE_COLOUR('',#614);
#601=FILL_AREA_STYLE_COLOUR('',#615);
#602=FILL_AREA_STYLE_COLOUR('',#616);
#603=FILL_AREA_STYLE_COLOUR('',#617);
#604=FILL_AREA_STYLE_COLOUR('',#618);
#605=FILL_AREA_STYLE_COLOUR('',#619);
#606=COLOUR_RGB('',0.800000011920929,0.800000011920929,0.800000011920929);
#607=COLOUR_RGB('',0.800000011920929,0.800000011920929,0.800000011920929);
#608=COLOUR_RGB('',0.800000011920929,0.800000011920929,0.800000011920929);
#609=COLOUR_RGB('',0.800000011920929,0.800000011920929,0.800000011920929);
#610=COLOUR_RGB('',0.498039215803146,0.498039215803146,0.498039215803146);
#611=COLOUR_RGB('',0.498039215803146,0.498039215803146,0.498039215803146);
#612=COLOUR_RGB('',0.800000011920929,0.800000011920929,0.800000011920929);
#613=COLOUR_RGB('',0.498039215803146,0.498039215803146,0.498039215803146);
#614=COLOUR_RGB('',0.800000011920929,0.800000011920929,0.800000011920929);
#615=COLOUR_RGB('',0.800000011920929,0.800000011920929,0.800000011920929);
#616=COLOUR_RGB('',0.498039215803146,0.498039215803146,0.498039215803146);
#617=COLOUR_RGB('',0.800000011920929,0.800000011920929,0.800000011920929);
#618=COLOUR_RGB('',0.498039215803146,0.498039215803146,0.498039215803146);
#619=COLOUR_RGB('',0.498039215803146,0.498039215803146,0.498039215803146);
#620=AXIS2_PLACEMENT_3D('PCS',#621,#622,#623);
#621=CARTESIAN_POINT('',(0.0,0.0,0.0));
#622=DIRECTION('',(0.0,0.0,1.0));
#623=DIRECTION('',(1.0,0.0,0.0));
#624=AXIS2_PLACEMENT_3D('CIP',#625,#626,#627);
#625=CARTESIAN_POINT('',(0.0,0.0,-87.3));
#626=DIRECTION('',(0.0,0.0,1.0));
#627=DIRECTION('',(1.0,0.0,0.0));
#628=AXIS2_PLACEMENT_3D('CRP',#629,#630,#631);
#629=CARTESIAN_POINT('',(-9.0,0.0,-87.3));
#630=DIRECTION('',(0.0,0.0,1.0));
#631=DIRECTION('',(1.0,0.0,0.0));
#632=AXIS2_PLACEMENT_3D('MCS',#633,#634,#635);
#633=CARTESIAN_POINT('',(0.0,0.0,-36.0));
#634=DIRECTION('',(0.0,0.0,1.0));
#635=DIRECTION('',(1.0,0.0,0.0));
#636=CONSTRUCTIVE_GEOMETRY_REPRESENTATION_RELATIONSHIP('coordinate systems',$,#65,#637);
#637=CONSTRUCTIVE_GEOMETRY_REPRESENTATION('coordinate systems',(#620,#624,#628,#632),#10);
ENDSEC;
END-ISO-10303-21;
