ISO-10303-21;
HEADER;
FILE_DESCRIPTION(('no description'),'unknown implementation level');
FILE_NAME('solidLi2nezFVSBZoGsNRg96Y7dnCwe4_1.STP','  ',('CIMSOURCE GmbH'),('CADClick - KiM GmbH - www.kimweb.de'),'unknown preprocess','ACIS','unknown authorization');
FILE_SCHEMA(('automotive_design'));
ENDSEC;
DATA;
#1=MECHANICAL_DESIGN_GEOMETRIC_PRESENTATION_REPRESENTATION(' ',(#14,#15,#16,#17,#18,#19,#20,#21,#22,#23,#24,#25,#26,#27,#28,#29,#30,#31,#32,#33,#34,#35,#36,#37,#38,#39,#40,#41,#42,#43,#44,#45,#46,#47,#48,#49,#50,#51,#52,#53,#54,#55,#56,#57,#58,#59,#60),#10);
#2=PRODUCT_DEFINITION_CONTEXT('',#61,'design');
#3=APPLICATION_PROTOCOL_DEFINITION('INTERNATIONAL STANDARD','automotive_design',1994,#61);
#4=PRODUCT_CATEGORY_RELATIONSHIP('NONE','NONE',#62,#63);
#5=SHAPE_DEFINITION_REPRESENTATION(#64,#65);
#6=PRODUCT_DEFINITION_CONTEXT('',#66,'design');
#7=APPLICATION_PROTOCOL_DEFINITION('INTERNATIONAL STANDARD','automotive_design',1994,#66);
#8=PRODUCT_CATEGORY_RELATIONSHIP('NONE','NONE',#67,#68);
#9=SHAPE_DEFINITION_REPRESENTATION(#69,#70);
#10= (GEOMETRIC_REPRESENTATION_CONTEXT(3)GLOBAL_UNCERTAINTY_ASSIGNED_CONTEXT((#73))GLOBAL_UNIT_ASSIGNED_CONTEXT((#75,#76,#77))REPRESENTATION_CONTEXT('NONE','WORKSPACE'));
#14=STYLED_ITEM('',(#79),#80);
#15=STYLED_ITEM('',(#81),#82);
#16=STYLED_ITEM('',(#83),#84);
#17=STYLED_ITEM('',(#85),#86);
#18=STYLED_ITEM('',(#87),#88);
#19=STYLED_ITEM('',(#89),#90);
#20=STYLED_ITEM('',(#91),#92);
#21=STYLED_ITEM('',(#93),#94);
#22=STYLED_ITEM('',(#95),#96);
#23=STYLED_ITEM('',(#97),#98);
#24=STYLED_ITEM('',(#99),#100);
#25=STYLED_ITEM('',(#101),#102);
#26=STYLED_ITEM('',(#103),#104);
#27=STYLED_ITEM('',(#105),#106);
#28=STYLED_ITEM('',(#107),#108);
#29=STYLED_ITEM('',(#109),#110);
#30=STYLED_ITEM('',(#111),#112);
#31=STYLED_ITEM('',(#113),#114);
#32=STYLED_ITEM('',(#115),#116);
#33=STYLED_ITEM('',(#117),#118);
#34=STYLED_ITEM('',(#119),#120);
#35=STYLED_ITEM('',(#121),#122);
#36=STYLED_ITEM('',(#123),#124);
#37=STYLED_ITEM('',(#125),#126);
#38=STYLED_ITEM('',(#127),#128);
#39=STYLED_ITEM('',(#129),#130);
#40=STYLED_ITEM('',(#131),#132);
#41=STYLED_ITEM('',(#133),#134);
#42=STYLED_ITEM('',(#135),#136);
#43=STYLED_ITEM('',(#137),#138);
#44=STYLED_ITEM('',(#139),#140);
#45=STYLED_ITEM('',(#141),#142);
#46=STYLED_ITEM('',(#143),#144);
#47=STYLED_ITEM('',(#145),#146);
#48=STYLED_ITEM('',(#147),#148);
#49=STYLED_ITEM('',(#149),#150);
#50=STYLED_ITEM('',(#151),#152);
#51=STYLED_ITEM('',(#153),#154);
#52=STYLED_ITEM('',(#155),#156);
#53=STYLED_ITEM('',(#157),#158);
#54=STYLED_ITEM('',(#159),#160);
#55=STYLED_ITEM('',(#161),#162);
#56=STYLED_ITEM('',(#163),#164);
#57=STYLED_ITEM('',(#165),#166);
#58=STYLED_ITEM('',(#167),#168);
#59=STYLED_ITEM('',(#169),#170);
#60=STYLED_ITEM('',(#171),#172);
#61=APPLICATION_CONTEXT(' ');
#62=PRODUCT_CATEGORY('part','NONE');
#63=PRODUCT_RELATED_PRODUCT_CATEGORY('detail',' ',(#173));
#64=PRODUCT_DEFINITION_SHAPE('NONE','NONE',#174);
#65=ADVANCED_BREP_SHAPE_REPRESENTATION('1',(#142,#175),#10);
#66=APPLICATION_CONTEXT(' ');
#67=PRODUCT_CATEGORY('part','NONE');
#68=PRODUCT_RELATED_PRODUCT_CATEGORY('detail',' ',(#176));
#69=PRODUCT_DEFINITION_SHAPE('NONE','NONE',#177);
#70=ADVANCED_BREP_SHAPE_REPRESENTATION('2',(#116,#178),#10);
#73=UNCERTAINTY_MEASURE_WITH_UNIT(LENGTH_MEASURE(1.0E-006),#75,'','');
#75= (CONVERSION_BASED_UNIT('MILLIMETRE',#181)LENGTH_UNIT()NAMED_UNIT(#184));
#76= (NAMED_UNIT(#186)PLANE_ANGLE_UNIT()SI_UNIT($,.RADIAN.));
#77= (NAMED_UNIT(#186)SOLID_ANGLE_UNIT()SI_UNIT($,.STERADIAN.));
#79=PRESENTATION_STYLE_ASSIGNMENT((#192));
#80=VERTEX_POINT('',#193);
#81=PRESENTATION_STYLE_ASSIGNMENT((#194));
#82=ADVANCED_FACE('',(#195),#196,.T.);
#83=PRESENTATION_STYLE_ASSIGNMENT((#197));
#84=VERTEX_POINT('',#198);
#85=PRESENTATION_STYLE_ASSIGNMENT((#199));
#86=ADVANCED_FACE('',(#200),#201,.T.);
#87=PRESENTATION_STYLE_ASSIGNMENT((#202));
#88=EDGE_CURVE('',#84,#80,#203,.T.);
#89=PRESENTATION_STYLE_ASSIGNMENT((#204));
#90=VERTEX_POINT('',#205);
#91=PRESENTATION_STYLE_ASSIGNMENT((#206));
#92=ADVANCED_FACE('',(#207),#208,.T.);
#93=PRESENTATION_STYLE_ASSIGNMENT((#209));
#94=EDGE_CURVE('',#154,#136,#210,.T.);
#95=PRESENTATION_STYLE_ASSIGNMENT((#211));
#96=EDGE_CURVE('',#90,#144,#212,.T.);
#97=PRESENTATION_STYLE_ASSIGNMENT((#213));
#98=EDGE_CURVE('',#146,#106,#214,.T.);
#99=PRESENTATION_STYLE_ASSIGNMENT((#215));
#100=VERTEX_POINT('',#216);
#101=PRESENTATION_STYLE_ASSIGNMENT((#217));
#102=EDGE_CURVE('',#106,#146,#218,.T.);
#103=PRESENTATION_STYLE_ASSIGNMENT((#219));
#104=EDGE_CURVE('',#136,#84,#220,.T.);
#105=PRESENTATION_STYLE_ASSIGNMENT((#221));
#106=VERTEX_POINT('',#222);
#107=PRESENTATION_STYLE_ASSIGNMENT((#223));
#108=ADVANCED_FACE('',(#224),#225,.T.);
#109=PRESENTATION_STYLE_ASSIGNMENT((#226));
#110=EDGE_CURVE('',#126,#162,#227,.T.);
#111=PRESENTATION_STYLE_ASSIGNMENT((#228));
#112=ADVANCED_FACE('',(#229),#230,.F.);
#113=PRESENTATION_STYLE_ASSIGNMENT((#231));
#114=EDGE_CURVE('',#100,#128,#232,.T.);
#115=PRESENTATION_STYLE_ASSIGNMENT((#233));
#116=MANIFOLD_SOLID_BREP('2',#234);
#117=PRESENTATION_STYLE_ASSIGNMENT((#235));
#118=EDGE_CURVE('',#84,#136,#236,.T.);
#119=PRESENTATION_STYLE_ASSIGNMENT((#237));
#120=EDGE_CURVE('',#162,#146,#238,.T.);
#121=PRESENTATION_STYLE_ASSIGNMENT((#239));
#122=EDGE_CURVE('',#80,#154,#240,.T.);
#123=PRESENTATION_STYLE_ASSIGNMENT((#241));
#124=EDGE_CURVE('',#146,#100,#242,.T.);
#125=PRESENTATION_STYLE_ASSIGNMENT((#243));
#126=VERTEX_POINT('',#244);
#127=PRESENTATION_STYLE_ASSIGNMENT((#245));
#128=VERTEX_POINT('',#246);
#129=PRESENTATION_STYLE_ASSIGNMENT((#247));
#130=EDGE_CURVE('',#106,#126,#248,.T.);
#131=PRESENTATION_STYLE_ASSIGNMENT((#249));
#132=EDGE_CURVE('',#144,#156,#250,.T.);
#133=PRESENTATION_STYLE_ASSIGNMENT((#251));
#134=EDGE_CURVE('',#128,#100,#252,.T.);
#135=PRESENTATION_STYLE_ASSIGNMENT((#253));
#136=VERTEX_POINT('',#254);
#137=PRESENTATION_STYLE_ASSIGNMENT((#255));
#138=ADVANCED_FACE('',(#256,#257),#258,.T.);
#139=PRESENTATION_STYLE_ASSIGNMENT((#259));
#140=EDGE_CURVE('',#154,#80,#260,.T.);
#141=PRESENTATION_STYLE_ASSIGNMENT((#261));
#142=MANIFOLD_SOLID_BREP('1',#262);
#143=PRESENTATION_STYLE_ASSIGNMENT((#263));
#144=VERTEX_POINT('',#264);
#145=PRESENTATION_STYLE_ASSIGNMENT((#265));
#146=VERTEX_POINT('',#266);
#147=PRESENTATION_STYLE_ASSIGNMENT((#267));
#148=ADVANCED_FACE('',(#268),#269,.T.);
#149=PRESENTATION_STYLE_ASSIGNMENT((#270));
#150=ADVANCED_FACE('',(#271),#272,.T.);
#151=PRESENTATION_STYLE_ASSIGNMENT((#273));
#152=EDGE_CURVE('',#128,#106,#274,.T.);
#153=PRESENTATION_STYLE_ASSIGNMENT((#275));
#154=VERTEX_POINT('',#276);
#155=PRESENTATION_STYLE_ASSIGNMENT((#277));
#156=VERTEX_POINT('',#278);
#157=PRESENTATION_STYLE_ASSIGNMENT((#279));
#158=EDGE_CURVE('',#144,#90,#280,.T.);
#159=PRESENTATION_STYLE_ASSIGNMENT((#281));
#160=ADVANCED_FACE('',(#282),#283,.T.);
#161=PRESENTATION_STYLE_ASSIGNMENT((#284));
#162=VERTEX_POINT('',#285);
#163=PRESENTATION_STYLE_ASSIGNMENT((#286));
#164=ADVANCED_FACE('',(#287),#288,.F.);
#165=PRESENTATION_STYLE_ASSIGNMENT((#289));
#166=ADVANCED_FACE('',(#290),#291,.T.);
#167=PRESENTATION_STYLE_ASSIGNMENT((#292));
#168=ADVANCED_FACE('',(#293),#294,.T.);
#169=PRESENTATION_STYLE_ASSIGNMENT((#295));
#170=EDGE_CURVE('',#162,#126,#296,.T.);
#171=PRESENTATION_STYLE_ASSIGNMENT((#297));
#172=EDGE_CURVE('',#156,#90,#298,.T.);
#173=PRODUCT('1','1','PART-1-DESC',(#299));
#174=PRODUCT_DEFINITION('NONE','NONE',#300,#2);
#175=AXIS2_PLACEMENT_3D('',#301,#302,#303);
#176=PRODUCT('2','2','PART-2-DESC',(#304));
#177=PRODUCT_DEFINITION('NONE','NONE',#305,#6);
#178=AXIS2_PLACEMENT_3D('',#306,#307,#308);
#181=LENGTH_MEASURE_WITH_UNIT(LENGTH_MEASURE(1.0),#309);
#184=DIMENSIONAL_EXPONENTS(1.0,0.0,0.0,0.0,0.0,0.0,0.0);
#186=DIMENSIONAL_EXPONENTS(0.0,0.0,0.0,0.0,0.0,0.0,0.0);
#192=POINT_STYLE(' ',#310,POSITIVE_LENGTH_MEASURE(1.0E-006),#311);
#193=CARTESIAN_POINT('',(1.4082850608322E-015,-11.4999,-57.09));
#194=SURFACE_STYLE_USAGE(.BOTH.,#312);
#195=FACE_OUTER_BOUND('',#313,.T.);
#196=CONICAL_SURFACE('',#314,11.49995,2.62467191599835E-006);
#197=POINT_STYLE(' ',#315,POSITIVE_LENGTH_MEASURE(1.0E-006),#316);
#198=CARTESIAN_POINT('',(1.40829730689573E-015,-11.5,-95.19));
#199=SURFACE_STYLE_USAGE(.BOTH.,#317);
#200=FACE_OUTER_BOUND('',#318,.T.);
#201=PLANE('',#319);
#202=CURVE_STYLE('',#320,POSITIVE_LENGTH_MEASURE(1.0E-006),#321);
#203=LINE('',#322,#323);
#204=POINT_STYLE(' ',#324,POSITIVE_LENGTH_MEASURE(1.0E-006),#325);
#205=CARTESIAN_POINT('',(1.40767275765528E-015,-11.4949,-57.09));
#206=SURFACE_STYLE_USAGE(.BOTH.,#326);
#207=FACE_OUTER_BOUND('',#327,.T.);
#208=PLANE('',#328);
#209=CURVE_STYLE('',#329,POSITIVE_LENGTH_MEASURE(1.0E-006),#330);
#210=LINE('',#331,#332);
#211=CURVE_STYLE('',#333,POSITIVE_LENGTH_MEASURE(1.0E-006),#334);
#212=CIRCLE('',#335,11.4949);
#213=CURVE_STYLE('',#336,POSITIVE_LENGTH_MEASURE(1.0E-006),#337);
#214=CIRCLE('',#338,11.1125);
#215=POINT_STYLE(' ',#339,POSITIVE_LENGTH_MEASURE(1.0E-006),#340);
#216=CARTESIAN_POINT('',(1.27663691784866E-015,-10.4248758293952,0.00999999999999801));
#217=CURVE_STYLE('',#341,POSITIVE_LENGTH_MEASURE(1.0E-006),#342);
#218=CIRCLE('',#343,11.1125);
#219=CURVE_STYLE('',#344,POSITIVE_LENGTH_MEASURE(1.0E-006),#345);
#220=CIRCLE('',#346,11.5);
#221=POINT_STYLE(' ',#347,POSITIVE_LENGTH_MEASURE(1.0E-006),#348);
#222=CARTESIAN_POINT('',(0.0,11.1125,-1.181));
#223=SURFACE_STYLE_USAGE(.BOTH.,#349);
#224=FACE_OUTER_BOUND('',#350,.T.);
#225=PLANE('',#351);
#226=CURVE_STYLE('',#352,POSITIVE_LENGTH_MEASURE(1.0E-006),#353);
#227=CIRCLE('',#354,11.1125);
#228=SURFACE_STYLE_USAGE(.BOTH.,#355);
#229=FACE_OUTER_BOUND('',#356,.T.);
#230=CONICAL_SURFACE('',#357,5.74745,1.5699263759926);
#231=CURVE_STYLE('',#358,POSITIVE_LENGTH_MEASURE(1.0E-006),#359);
#232=CIRCLE('',#360,10.4248758293952);
#233=SURFACE_STYLE_USAGE(.BOTH.,#361);
#234=CLOSED_SHELL('',(#166,#168,#108,#92,#160,#148));
#235=CURVE_STYLE('',#362,POSITIVE_LENGTH_MEASURE(1.0E-006),#363);
#236=CIRCLE('',#364,11.5);
#237=CURVE_STYLE('',#365,POSITIVE_LENGTH_MEASURE(1.0E-006),#366);
#238=LINE('',#367,#368);
#239=CURVE_STYLE('',#369,POSITIVE_LENGTH_MEASURE(1.0E-006),#370);
#240=CIRCLE('',#371,11.4999);
#241=CURVE_STYLE('',#372,POSITIVE_LENGTH_MEASURE(1.0E-006),#373);
#242=LINE('',#374,#375);
#243=POINT_STYLE(' ',#376,POSITIVE_LENGTH_MEASURE(1.0E-006),#377);
#244=CARTESIAN_POINT('',(-1.36084381068512E-015,11.1125,-57.09));
#245=POINT_STYLE(' ',#378,POSITIVE_LENGTH_MEASURE(1.0E-006),#379);
#246=CARTESIAN_POINT('',(0.0,10.4248758293952,0.00999999999999801));
#247=CURVE_STYLE('',#380,POSITIVE_LENGTH_MEASURE(1.0E-006),#381);
#248=LINE('',#382,#383);
#249=CURVE_STYLE('',#384,POSITIVE_LENGTH_MEASURE(1.0E-006),#385);
#250=LINE('',#386,#387);
#251=CURVE_STYLE('',#388,POSITIVE_LENGTH_MEASURE(1.0E-006),#389);
#252=CIRCLE('',#390,10.4248758293952);
#253=POINT_STYLE(' ',#391,POSITIVE_LENGTH_MEASURE(1.0E-006),#392);
#254=CARTESIAN_POINT('',(0.0,11.5,-95.19));
#255=SURFACE_STYLE_USAGE(.BOTH.,#393);
#256=FACE_OUTER_BOUND('',#394,.T.);
#257=FACE_BOUND('',#395,.T.);
#258=PLANE('',#396);
#259=CURVE_STYLE('',#397,POSITIVE_LENGTH_MEASURE(1.0E-006),#398);
#260=CIRCLE('',#399,11.4999);
#261=SURFACE_STYLE_USAGE(.BOTH.,#400);
#262=CLOSED_SHELL('',(#82,#164,#112,#138,#150,#86));
#263=POINT_STYLE(' ',#401,POSITIVE_LENGTH_MEASURE(1.0E-006),#402);
#264=CARTESIAN_POINT('',(0.0,11.4949,-57.09));
#265=POINT_STYLE(' ',#403,POSITIVE_LENGTH_MEASURE(1.0E-006),#404);
#266=CARTESIAN_POINT('',(1.36084381068512E-015,-11.1125,-1.181));
#267=SURFACE_STYLE_USAGE(.BOTH.,#405);
#268=FACE_OUTER_BOUND('',#406,.T.);
#269=CYLINDRICAL_SURFACE('',#407,11.1125);
#270=SURFACE_STYLE_USAGE(.BOTH.,#408);
#271=FACE_OUTER_BOUND('',#409,.T.);
#272=CONICAL_SURFACE('',#410,11.49995,2.62467191599835E-006);
#273=CURVE_STYLE('',#411,POSITIVE_LENGTH_MEASURE(1.0E-006),#412);
#274=LINE('',#413,#414);
#275=POINT_STYLE(' ',#415,POSITIVE_LENGTH_MEASURE(1.0E-006),#416);
#276=CARTESIAN_POINT('',(0.0,11.4999,-57.09));
#277=POINT_STYLE(' ',#417,POSITIVE_LENGTH_MEASURE(1.0E-006),#418);
#278=CARTESIAN_POINT('',(0.0,0.0,-57.1));
#279=CURVE_STYLE('',#419,POSITIVE_LENGTH_MEASURE(1.0E-006),#420);
#280=CIRCLE('',#421,11.4949);
#281=SURFACE_STYLE_USAGE(.BOTH.,#422);
#282=FACE_OUTER_BOUND('',#423,.T.);
#283=CONICAL_SURFACE('',#424,10.7686879146976,0.523598775598298);
#284=POINT_STYLE(' ',#425,POSITIVE_LENGTH_MEASURE(1.0E-006),#426);
#285=CARTESIAN_POINT('',(0.0,-11.1125,-57.09));
#286=SURFACE_STYLE_USAGE(.BOTH.,#427);
#287=FACE_OUTER_BOUND('',#428,.T.);
#288=CONICAL_SURFACE('',#429,5.74745,1.5699263759926);
#289=SURFACE_STYLE_USAGE(.BOTH.,#430);
#290=FACE_OUTER_BOUND('',#431,.T.);
#291=CYLINDRICAL_SURFACE('',#432,11.1125);
#292=SURFACE_STYLE_USAGE(.BOTH.,#433);
#293=FACE_OUTER_BOUND('',#434,.T.);
#294=CONICAL_SURFACE('',#435,10.7686879146976,0.523598775598298);
#295=CURVE_STYLE('',#436,POSITIVE_LENGTH_MEASURE(1.0E-006),#437);
#296=CIRCLE('',#438,11.1125);
#297=CURVE_STYLE('',#439,POSITIVE_LENGTH_MEASURE(1.0E-006),#440);
#298=LINE('',#441,#442);
#299=PRODUCT_CONTEXT('',#61,'mechanical');
#300=PRODUCT_DEFINITION_FORMATION_WITH_SPECIFIED_SOURCE(' ','NONE',#173,.NOT_KNOWN.);
#301=CARTESIAN_POINT('',(0.0,0.0,0.0));
#302=DIRECTION('',(0.0,0.0,1.0));
#303=DIRECTION('',(1.0,0.0,0.0));
#304=PRODUCT_CONTEXT('',#66,'mechanical');
#305=PRODUCT_DEFINITION_FORMATION_WITH_SPECIFIED_SOURCE(' ','NONE',#176,.NOT_KNOWN.);
#306=CARTESIAN_POINT('',(0.0,0.0,0.0));
#307=DIRECTION('',(0.0,0.0,1.0));
#308=DIRECTION('',(1.0,0.0,0.0));
#309= (NAMED_UNIT(#184)LENGTH_UNIT()SI_UNIT(.MILLI.,.METRE.));
#310=PRE_DEFINED_MARKER('');
#311=COLOUR_RGB('',0.800000011920929,0.800000011920929,0.800000011920929);
#312=SURFACE_SIDE_STYLE('',(#444));
#313=EDGE_LOOP('',(#445,#446,#447,#448));
#314=AXIS2_PLACEMENT_3D('',#449,#450,#451);
#315=PRE_DEFINED_MARKER('');
#316=COLOUR_RGB('',0.800000011920929,0.800000011920929,0.800000011920929);
#317=SURFACE_SIDE_STYLE('',(#452));
#318=EDGE_LOOP('',(#453,#454));
#319=AXIS2_PLACEMENT_3D('',#455,#456,#457);
#320=DRAUGHTING_PRE_DEFINED_CURVE_FONT('continuous');
#321=COLOUR_RGB('',0.800000011920929,0.800000011920929,0.800000011920929);
#322=CARTESIAN_POINT('',(1.40829118386396E-015,-11.49995,-76.14));
#323=VECTOR('',#458,1.0);
#324=PRE_DEFINED_MARKER('');
#325=COLOUR_RGB('',0.800000011920929,0.800000011920929,0.800000011920929);
#326=SURFACE_SIDE_STYLE('',(#459));
#327=EDGE_LOOP('',(#460,#461));
#328=AXIS2_PLACEMENT_3D('',#462,#463,#464);
#329=DRAUGHTING_PRE_DEFINED_CURVE_FONT('continuous');
#330=COLOUR_RGB('',0.800000011920929,0.800000011920929,0.800000011920929);
#331=CARTESIAN_POINT('',(-1.40829118386396E-015,11.49995,-76.14));
#332=VECTOR('',#465,1.0);
#333=DRAUGHTING_PRE_DEFINED_CURVE_FONT('continuous');
#334=COLOUR_RGB('',0.800000011920929,0.800000011920929,0.800000011920929);
#335=AXIS2_PLACEMENT_3D('',#466,#467,#468);
#336=DRAUGHTING_PRE_DEFINED_CURVE_FONT('continuous');
#337=COLOUR_RGB('',0.498039215803146,0.498039215803146,0.498039215803146);
#338=AXIS2_PLACEMENT_3D('',#469,#470,#471);
#339=PRE_DEFINED_MARKER('');
#340=COLOUR_RGB('',0.498039215803146,0.498039215803146,0.498039215803146);
#341=DRAUGHTING_PRE_DEFINED_CURVE_FONT('continuous');
#342=COLOUR_RGB('',0.498039215803146,0.498039215803146,0.498039215803146);
#343=AXIS2_PLACEMENT_3D('',#472,#473,#474);
#344=DRAUGHTING_PRE_DEFINED_CURVE_FONT('continuous');
#345=COLOUR_RGB('',0.800000011920929,0.800000011920929,0.800000011920929);
#346=AXIS2_PLACEMENT_3D('',#475,#476,#477);
#347=PRE_DEFINED_MARKER('');
#348=COLOUR_RGB('',0.498039215803146,0.498039215803146,0.498039215803146);
#349=SURFACE_SIDE_STYLE('',(#478));
#350=EDGE_LOOP('',(#479,#480));
#351=AXIS2_PLACEMENT_3D('',#481,#482,#483);
#352=DRAUGHTING_PRE_DEFINED_CURVE_FONT('continuous');
#353=COLOUR_RGB('',0.498039215803146,0.498039215803146,0.498039215803146);
#354=AXIS2_PLACEMENT_3D('',#484,#485,#486);
#355=SURFACE_SIDE_STYLE('',(#487));
#356=EDGE_LOOP('',(#488,#489,#490));
#357=AXIS2_PLACEMENT_3D('',#491,#492,#493);
#358=DRAUGHTING_PRE_DEFINED_CURVE_FONT('continuous');
#359=COLOUR_RGB('',0.498039215803146,0.498039215803146,0.498039215803146);
#360=AXIS2_PLACEMENT_3D('',#494,#495,#496);
#361=SURFACE_SIDE_STYLE('',(#497));
#362=DRAUGHTING_PRE_DEFINED_CURVE_FONT('continuous');
#363=COLOUR_RGB('',0.800000011920929,0.800000011920929,0.800000011920929);
#364=AXIS2_PLACEMENT_3D('',#498,#499,#500);
#365=DRAUGHTING_PRE_DEFINED_CURVE_FONT('continuous');
#366=COLOUR_RGB('',0.498039215803146,0.498039215803146,0.498039215803146);
#367=CARTESIAN_POINT('',(1.36084381068512E-015,-11.1125,-17.6355));
#368=VECTOR('',#501,1.0);
#369=DRAUGHTING_PRE_DEFINED_CURVE_FONT('continuous');
#370=COLOUR_RGB('',0.800000011920929,0.800000011920929,0.800000011920929);
#371=AXIS2_PLACEMENT_3D('',#502,#503,#504);
#372=DRAUGHTING_PRE_DEFINED_CURVE_FONT('continuous');
#373=COLOUR_RGB('',0.498039215803146,0.498039215803146,0.498039215803146);
#374=CARTESIAN_POINT('',(1.31874036426689E-015,-10.7686879146976,-0.585500000000003));
#375=VECTOR('',#505,1.0);
#376=PRE_DEFINED_MARKER('');
#377=COLOUR_RGB('',0.498039215803146,0.498039215803146,0.498039215803146);
#378=PRE_DEFINED_MARKER('');
#379=COLOUR_RGB('',0.498039215803146,0.498039215803146,0.498039215803146);
#380=DRAUGHTING_PRE_DEFINED_CURVE_FONT('continuous');
#381=COLOUR_RGB('',0.498039215803146,0.498039215803146,0.498039215803146);
#382=CARTESIAN_POINT('',(-1.36084381068512E-015,11.1125,-17.6355));
#383=VECTOR('',#506,1.0);
#384=DRAUGHTING_PRE_DEFINED_CURVE_FONT('continuous');
#385=COLOUR_RGB('',0.800000011920929,0.800000011920929,0.800000011920929);
#386=CARTESIAN_POINT('',(-7.03836378827642E-016,5.74745,-57.095));
#387=VECTOR('',#507,1.0);
#388=DRAUGHTING_PRE_DEFINED_CURVE_FONT('continuous');
#389=COLOUR_RGB('',0.498039215803146,0.498039215803146,0.498039215803146);
#390=AXIS2_PLACEMENT_3D('',#508,#509,#510);
#391=PRE_DEFINED_MARKER('');
#392=COLOUR_RGB('',0.800000011920929,0.800000011920929,0.800000011920929);
#393=SURFACE_SIDE_STYLE('',(#511));
#394=EDGE_LOOP('',(#512,#513));
#395=EDGE_LOOP('',(#514,#515));
#396=AXIS2_PLACEMENT_3D('',#516,#517,#518);
#397=DRAUGHTING_PRE_DEFINED_CURVE_FONT('continuous');
#398=COLOUR_RGB('',0.800000011920929,0.800000011920929,0.800000011920929);
#399=AXIS2_PLACEMENT_3D('',#519,#520,#521);
#400=SURFACE_SIDE_STYLE('',(#522));
#401=PRE_DEFINED_MARKER('');
#402=COLOUR_RGB('',0.800000011920929,0.800000011920929,0.800000011920929);
#403=PRE_DEFINED_MARKER('');
#404=COLOUR_RGB('',0.498039215803146,0.498039215803146,0.498039215803146);
#405=SURFACE_SIDE_STYLE('',(#523));
#406=EDGE_LOOP('',(#524,#525,#526,#527));
#407=AXIS2_PLACEMENT_3D('',#528,#529,#530);
#408=SURFACE_SIDE_STYLE('',(#531));
#409=EDGE_LOOP('',(#532,#533,#534,#535));
#410=AXIS2_PLACEMENT_3D('',#536,#537,#538);
#411=DRAUGHTING_PRE_DEFINED_CURVE_FONT('continuous');
#412=COLOUR_RGB('',0.498039215803146,0.498039215803146,0.498039215803146);
#413=CARTESIAN_POINT('',(-1.31874036426689E-015,10.7686879146976,-0.585500000000003));
#414=VECTOR('',#539,1.0);
#415=PRE_DEFINED_MARKER('');
#416=COLOUR_RGB('',0.800000011920929,0.800000011920929,0.800000011920929);
#417=PRE_DEFINED_MARKER('');
#418=COLOUR_RGB('',0.800000011920929,0.800000011920929,0.800000011920929);
#419=DRAUGHTING_PRE_DEFINED_CURVE_FONT('continuous');
#420=COLOUR_RGB('',0.800000011920929,0.800000011920929,0.800000011920929);
#421=AXIS2_PLACEMENT_3D('',#540,#541,#542);
#422=SURFACE_SIDE_STYLE('',(#543));
#423=EDGE_LOOP('',(#544,#545,#546,#547));
#424=AXIS2_PLACEMENT_3D('',#548,#549,#550);
#425=PRE_DEFINED_MARKER('');
#426=COLOUR_RGB('',0.498039215803146,0.498039215803146,0.498039215803146);
#427=SURFACE_SIDE_STYLE('',(#551));
#428=EDGE_LOOP('',(#552,#553,#554));
#429=AXIS2_PLACEMENT_3D('',#555,#556,#557);
#430=SURFACE_SIDE_STYLE('',(#558));
#431=EDGE_LOOP('',(#559,#560,#561,#562));
#432=AXIS2_PLACEMENT_3D('',#563,#564,#565);
#433=SURFACE_SIDE_STYLE('',(#566));
#434=EDGE_LOOP('',(#567,#568,#569,#570));
#435=AXIS2_PLACEMENT_3D('',#571,#572,#573);
#436=DRAUGHTING_PRE_DEFINED_CURVE_FONT('continuous');
#437=COLOUR_RGB('',0.498039215803146,0.498039215803146,0.498039215803146);
#438=AXIS2_PLACEMENT_3D('',#574,#575,#576);
#439=DRAUGHTING_PRE_DEFINED_CURVE_FONT('continuous');
#440=COLOUR_RGB('',0.800000011920929,0.800000011920929,0.800000011920929);
#441=CARTESIAN_POINT('',(7.03836378827642E-016,-5.74745,-57.095));
#442=VECTOR('',#577,1.0);
#444=SURFACE_STYLE_FILL_AREA(#578);
#445=ORIENTED_EDGE('',*,*,#94,.F.);
#446=ORIENTED_EDGE('',*,*,#140,.T.);
#447=ORIENTED_EDGE('',*,*,#88,.F.);
#448=ORIENTED_EDGE('',*,*,#104,.F.);
#449=CARTESIAN_POINT('',(0.0,0.0,-76.14));
#450=DIRECTION('',(0.0,-0.0,-1.0));
#451=DIRECTION('',(0.0,1.0,0.0));
#452=SURFACE_STYLE_FILL_AREA(#579);
#453=ORIENTED_EDGE('',*,*,#104,.T.);
#454=ORIENTED_EDGE('',*,*,#118,.T.);
#455=CARTESIAN_POINT('',(0.0,5.7475,-95.19));
#456=DIRECTION('',(0.0,0.0,-1.0));
#457=DIRECTION('',(0.0,1.0,0.0));
#458=DIRECTION('',(-3.21418990502705E-022,2.62467191599534E-006,0.999999999996556));
#459=SURFACE_STYLE_FILL_AREA(#580);
#460=ORIENTED_EDGE('',*,*,#134,.F.);
#461=ORIENTED_EDGE('',*,*,#114,.F.);
#462=CARTESIAN_POINT('',(0.0,5.21243791469758,0.00999999999999801));
#463=DIRECTION('',(-0.0,0.0,1.0));
#464=DIRECTION('',(0.0,-1.0,0.0));
#465=DIRECTION('',(-3.21418990502705E-022,2.62467191599534E-006,-0.999999999996556));
#466=CARTESIAN_POINT('',(0.0,0.0,-57.09));
#467=DIRECTION('',(0.0,0.0,-1.0));
#468=DIRECTION('',(0.0,1.0,0.0));
#469=CARTESIAN_POINT('',(0.0,0.0,-1.181));
#470=DIRECTION('',(0.0,0.0,-1.0));
#471=DIRECTION('',(0.0,1.0,0.0));
#472=CARTESIAN_POINT('',(0.0,0.0,-1.181));
#473=DIRECTION('',(0.0,0.0,-1.0));
#474=DIRECTION('',(0.0,1.0,0.0));
#475=CARTESIAN_POINT('',(0.0,0.0,-95.19));
#476=DIRECTION('',(0.0,0.0,-1.0));
#477=DIRECTION('',(0.0,1.0,0.0));
#478=SURFACE_STYLE_FILL_AREA(#581);
#479=ORIENTED_EDGE('',*,*,#170,.T.);
#480=ORIENTED_EDGE('',*,*,#110,.T.);
#481=CARTESIAN_POINT('',(0.0,0.0,-57.09));
#482=DIRECTION('',(0.0,0.0,-1.0));
#483=DIRECTION('',(0.0,-1.0,0.0));
#484=CARTESIAN_POINT('',(0.0,0.0,-57.09));
#485=DIRECTION('',(0.0,0.0,-1.0));
#486=DIRECTION('',(0.0,-1.0,0.0));
#487=SURFACE_STYLE_FILL_AREA(#582);
#488=ORIENTED_EDGE('',*,*,#172,.T.);
#489=ORIENTED_EDGE('',*,*,#158,.F.);
#490=ORIENTED_EDGE('',*,*,#132,.T.);
#491=CARTESIAN_POINT('',(0.0,0.0,-57.095));
#492=DIRECTION('',(-0.0,-0.0,1.0));
#493=DIRECTION('',(0.0,1.0,0.0));
#494=CARTESIAN_POINT('',(0.0,0.0,0.00999999999999801));
#495=DIRECTION('',(0.0,0.0,-1.0));
#496=DIRECTION('',(0.0,1.0,0.0));
#497=SURFACE_STYLE_FILL_AREA(#583);
#498=CARTESIAN_POINT('',(0.0,0.0,-95.19));
#499=DIRECTION('',(0.0,0.0,-1.0));
#500=DIRECTION('',(0.0,1.0,0.0));
#501=DIRECTION('',(-0.0,-0.0,1.0));
#502=CARTESIAN_POINT('',(0.0,0.0,-57.09));
#503=DIRECTION('',(0.0,0.0,-1.0));
#504=DIRECTION('',(0.0,1.0,0.0));
#505=DIRECTION('',(-6.12303176911187E-017,0.499999999999999,0.866025403784439));
#506=DIRECTION('',(0.0,0.0,-1.0));
#507=DIRECTION('',(1.22460589042255E-016,-0.999999621592825,-0.000869950692562548));
#508=CARTESIAN_POINT('',(0.0,0.0,0.00999999999999801));
#509=DIRECTION('',(0.0,0.0,-1.0));
#510=DIRECTION('',(0.0,1.0,0.0));
#511=SURFACE_STYLE_FILL_AREA(#584);
#512=ORIENTED_EDGE('',*,*,#140,.F.);
#513=ORIENTED_EDGE('',*,*,#122,.F.);
#514=ORIENTED_EDGE('',*,*,#158,.T.);
#515=ORIENTED_EDGE('',*,*,#96,.T.);
#516=CARTESIAN_POINT('',(0.0,11.4974,-57.09));
#517=DIRECTION('',(-0.0,0.0,1.0));
#518=DIRECTION('',(0.0,-1.0,0.0));
#519=CARTESIAN_POINT('',(0.0,0.0,-57.09));
#520=DIRECTION('',(0.0,0.0,-1.0));
#521=DIRECTION('',(0.0,1.0,0.0));
#522=SURFACE_STYLE_FILL_AREA(#585);
#523=SURFACE_STYLE_FILL_AREA(#586);
#524=ORIENTED_EDGE('',*,*,#130,.T.);
#525=ORIENTED_EDGE('',*,*,#170,.F.);
#526=ORIENTED_EDGE('',*,*,#120,.T.);
#527=ORIENTED_EDGE('',*,*,#98,.T.);
#528=CARTESIAN_POINT('',(0.0,0.0,-17.6355));
#529=DIRECTION('',(-0.0,-0.0,1.0));
#530=DIRECTION('',(0.0,1.0,0.0));
#531=SURFACE_STYLE_FILL_AREA(#587);
#532=ORIENTED_EDGE('',*,*,#94,.T.);
#533=ORIENTED_EDGE('',*,*,#118,.F.);
#534=ORIENTED_EDGE('',*,*,#88,.T.);
#535=ORIENTED_EDGE('',*,*,#122,.T.);
#536=CARTESIAN_POINT('',(0.0,0.0,-76.14));
#537=DIRECTION('',(0.0,-0.0,-1.0));
#538=DIRECTION('',(0.0,1.0,0.0));
#539=DIRECTION('',(-6.12303176911187E-017,0.499999999999999,-0.866025403784439));
#540=CARTESIAN_POINT('',(0.0,0.0,-57.09));
#541=DIRECTION('',(0.0,0.0,-1.0));
#542=DIRECTION('',(0.0,1.0,0.0));
#543=SURFACE_STYLE_FILL_AREA(#588);
#544=ORIENTED_EDGE('',*,*,#152,.T.);
#545=ORIENTED_EDGE('',*,*,#98,.F.);
#546=ORIENTED_EDGE('',*,*,#124,.T.);
#547=ORIENTED_EDGE('',*,*,#114,.T.);
#548=CARTESIAN_POINT('',(0.0,0.0,-0.585500000000003));
#549=DIRECTION('',(0.0,-0.0,-1.0));
#550=DIRECTION('',(0.0,1.0,0.0));
#551=SURFACE_STYLE_FILL_AREA(#589);
#552=ORIENTED_EDGE('',*,*,#172,.F.);
#553=ORIENTED_EDGE('',*,*,#132,.F.);
#554=ORIENTED_EDGE('',*,*,#96,.F.);
#555=CARTESIAN_POINT('',(0.0,0.0,-57.095));
#556=DIRECTION('',(-0.0,-0.0,1.0));
#557=DIRECTION('',(0.0,1.0,0.0));
#558=SURFACE_STYLE_FILL_AREA(#590);
#559=ORIENTED_EDGE('',*,*,#130,.F.);
#560=ORIENTED_EDGE('',*,*,#102,.T.);
#561=ORIENTED_EDGE('',*,*,#120,.F.);
#562=ORIENTED_EDGE('',*,*,#110,.F.);
#563=CARTESIAN_POINT('',(0.0,0.0,-17.6355));
#564=DIRECTION('',(-0.0,-0.0,1.0));
#565=DIRECTION('',(0.0,1.0,0.0));
#566=SURFACE_STYLE_FILL_AREA(#591);
#567=ORIENTED_EDGE('',*,*,#152,.F.);
#568=ORIENTED_EDGE('',*,*,#134,.T.);
#569=ORIENTED_EDGE('',*,*,#124,.F.);
#570=ORIENTED_EDGE('',*,*,#102,.F.);
#571=CARTESIAN_POINT('',(0.0,0.0,-0.585500000000003));
#572=DIRECTION('',(0.0,-0.0,-1.0));
#573=DIRECTION('',(0.0,1.0,0.0));
#574=CARTESIAN_POINT('',(0.0,0.0,-57.09));
#575=DIRECTION('',(0.0,0.0,-1.0));
#576=DIRECTION('',(0.0,-1.0,0.0));
#577=DIRECTION('',(1.22460589042255E-016,-0.999999621592825,0.000869950692562548));
#578=FILL_AREA_STYLE('',(#592));
#579=FILL_AREA_STYLE('',(#593));
#580=FILL_AREA_STYLE('',(#594));
#581=FILL_AREA_STYLE('',(#595));
#582=FILL_AREA_STYLE('',(#596));
#583=FILL_AREA_STYLE('',(#597));
#584=FILL_AREA_STYLE('',(#598));
#585=FILL_AREA_STYLE('',(#599));
#586=FILL_AREA_STYLE('',(#600));
#587=FILL_AREA_STYLE('',(#601));
#588=FILL_AREA_STYLE('',(#602));
#589=FILL_AREA_STYLE('',(#603));
#590=FILL_AREA_STYLE('',(#604));
#591=FILL_AREA_STYLE('',(#605));
#592=FILL_AREA_STYLE_COLOUR('',#606);
#593=FILL_AREA_STYLE_COLOUR('',#607);
#594=FILL_AREA_STYLE_COLOUR('',#608);
#595=FILL_AREA_STYLE_COLOUR('',#609);
#596=FILL_AREA_STYLE_COLOUR('',#610);
#597=FILL_AREA_STYLE_COLOUR('',#611);
#598=FILL_AREA_STYLE_COLOUR('',#612);
#599=FILL_AREA_STYLE_COLOUR('',#613);
#600=FILL_AREA_STYLE_COLOUR('',#614);
#601=FILL_AREA_STYLE_COLOUR('',#615);
#602=FILL_AREA_STYLE_COLOUR('',#616);
#603=FILL_AREA_STYLE_COLOUR('',#617);
#604=FILL_AREA_STYLE_COLOUR('',#618);
#605=FILL_AREA_STYLE_COLOUR('',#619);
#606=COLOUR_RGB('',0.800000011920929,0.800000011920929,0.800000011920929);
#607=COLOUR_RGB('',0.800000011920929,0.800000011920929,0.800000011920929);
#608=COLOUR_RGB('',0.498039215803146,0.498039215803146,0.498039215803146);
#609=COLOUR_RGB('',0.498039215803146,0.498039215803146,0.498039215803146);
#610=COLOUR_RGB('',0.800000011920929,0.800000011920929,0.800000011920929);
#611=COLOUR_RGB('',0.800000011920929,0.800000011920929,0.800000011920929);
#612=COLOUR_RGB('',0.800000011920929,0.800000011920929,0.800000011920929);
#613=COLOUR_RGB('',0.800000011920929,0.800000011920929,0.800000011920929);
#614=COLOUR_RGB('',0.498039215803146,0.498039215803146,0.498039215803146);
#615=COLOUR_RGB('',0.800000011920929,0.800000011920929,0.800000011920929);
#616=COLOUR_RGB('',0.498039215803146,0.498039215803146,0.498039215803146);
#617=COLOUR_RGB('',0.800000011920929,0.800000011920929,0.800000011920929);
#618=COLOUR_RGB('',0.498039215803146,0.498039215803146,0.498039215803146);
#619=COLOUR_RGB('',0.498039215803146,0.498039215803146,0.498039215803146);
#620=AXIS2_PLACEMENT_3D('PCS',#621,#622,#623);
#621=CARTESIAN_POINT('',(0.0,0.0,0.0));
#622=DIRECTION('',(0.0,0.0,1.0));
#623=DIRECTION('',(1.0,0.0,0.0));
#624=AXIS2_PLACEMENT_3D('CIP',#625,#626,#627);
#625=CARTESIAN_POINT('',(0.0,0.0,-95.2));
#626=DIRECTION('',(0.0,0.0,1.0));
#627=DIRECTION('',(1.0,0.0,0.0));
#628=AXIS2_PLACEMENT_3D('CRP',#629,#630,#631);
#629=CARTESIAN_POINT('',(-11.5,0.0,-95.2));
#630=DIRECTION('',(0.0,0.0,1.0));
#631=DIRECTION('',(1.0,0.0,0.0));
#632=AXIS2_PLACEMENT_3D('MCS',#633,#634,#635);
#633=CARTESIAN_POINT('',(0.0,0.0,-34.1));
#634=DIRECTION('',(0.0,0.0,1.0));
#635=DIRECTION('',(1.0,0.0,0.0));
#636=CONSTRUCTIVE_GEOMETRY_REPRESENTATION_RELATIONSHIP('coordinate systems',$,#65,#637);
#637=CONSTRUCTIVE_GEOMETRY_REPRESENTATION('coordinate systems',(#620,#624,#628,#632),#10);
ENDSEC;
END-ISO-10303-21;
