ISO-10303-21;
HEADER;
FILE_DESCRIPTION(('no description'),'unknown implementation level');
FILE_NAME('solidHtC0qn2RZVZjl9Xin4NgG95oYAw_1.STP','  ',('CIMSOURCE GmbH'),('CADClick - KiM GmbH - www.kimweb.de'),'unknown preprocess','ACIS','unknown authorization');
FILE_SCHEMA(('automotive_design'));
ENDSEC;
DATA;
#1=MECHANICAL_DESIGN_GEOMETRIC_PRESENTATION_REPRESENTATION(' ',(#14,#15,#16,#17,#18,#19,#20,#21,#22,#23,#24,#25,#26,#27,#28,#29,#30,#31,#32,#33,#34,#35,#36,#37,#38,#39,#40,#41,#42,#43,#44,#45,#46,#47,#48,#49,#50,#51,#52,#53,#54,#55,#56,#57,#58,#59,#60),#10);
#2=PRODUCT_DEFINITION_CONTEXT('',#61,'design');
#3=APPLICATION_PROTOCOL_DEFINITION('INTERNATIONAL STANDARD','automotive_design',1994,#61);
#4=PRODUCT_CATEGORY_RELATIONSHIP('NONE','NONE',#62,#63);
#5=SHAPE_DEFINITION_REPRESENTATION(#64,#65);
#6=PRODUCT_DEFINITION_CONTEXT('',#66,'design');
#7=APPLICATION_PROTOCOL_DEFINITION('INTERNATIONAL STANDARD','automotive_design',1994,#66);
#8=PRODUCT_CATEGORY_RELATIONSHIP('NONE','NONE',#67,#68);
#9=SHAPE_DEFINITION_REPRESENTATION(#69,#70);
#10= (GEOMETRIC_REPRESENTATION_CONTEXT(3)GLOBAL_UNCERTAINTY_ASSIGNED_CONTEXT((#73))GLOBAL_UNIT_ASSIGNED_CONTEXT((#75,#76,#77))REPRESENTATION_CONTEXT('NONE','WORKSPACE'));
#14=STYLED_ITEM('',(#79),#80);
#15=STYLED_ITEM('',(#81),#82);
#16=STYLED_ITEM('',(#83),#84);
#17=STYLED_ITEM('',(#85),#86);
#18=STYLED_ITEM('',(#87),#88);
#19=STYLED_ITEM('',(#89),#90);
#20=STYLED_ITEM('',(#91),#92);
#21=STYLED_ITEM('',(#93),#94);
#22=STYLED_ITEM('',(#95),#96);
#23=STYLED_ITEM('',(#97),#98);
#24=STYLED_ITEM('',(#99),#100);
#25=STYLED_ITEM('',(#101),#102);
#26=STYLED_ITEM('',(#103),#104);
#27=STYLED_ITEM('',(#105),#106);
#28=STYLED_ITEM('',(#107),#108);
#29=STYLED_ITEM('',(#109),#110);
#30=STYLED_ITEM('',(#111),#112);
#31=STYLED_ITEM('',(#113),#114);
#32=STYLED_ITEM('',(#115),#116);
#33=STYLED_ITEM('',(#117),#118);
#34=STYLED_ITEM('',(#119),#120);
#35=STYLED_ITEM('',(#121),#122);
#36=STYLED_ITEM('',(#123),#124);
#37=STYLED_ITEM('',(#125),#126);
#38=STYLED_ITEM('',(#127),#128);
#39=STYLED_ITEM('',(#129),#130);
#40=STYLED_ITEM('',(#131),#132);
#41=STYLED_ITEM('',(#133),#134);
#42=STYLED_ITEM('',(#135),#136);
#43=STYLED_ITEM('',(#137),#138);
#44=STYLED_ITEM('',(#139),#140);
#45=STYLED_ITEM('',(#141),#142);
#46=STYLED_ITEM('',(#143),#144);
#47=STYLED_ITEM('',(#145),#146);
#48=STYLED_ITEM('',(#147),#148);
#49=STYLED_ITEM('',(#149),#150);
#50=STYLED_ITEM('',(#151),#152);
#51=STYLED_ITEM('',(#153),#154);
#52=STYLED_ITEM('',(#155),#156);
#53=STYLED_ITEM('',(#157),#158);
#54=STYLED_ITEM('',(#159),#160);
#55=STYLED_ITEM('',(#161),#162);
#56=STYLED_ITEM('',(#163),#164);
#57=STYLED_ITEM('',(#165),#166);
#58=STYLED_ITEM('',(#167),#168);
#59=STYLED_ITEM('',(#169),#170);
#60=STYLED_ITEM('',(#171),#172);
#61=APPLICATION_CONTEXT(' ');
#62=PRODUCT_CATEGORY('part','NONE');
#63=PRODUCT_RELATED_PRODUCT_CATEGORY('detail',' ',(#173));
#64=PRODUCT_DEFINITION_SHAPE('NONE','NONE',#174);
#65=ADVANCED_BREP_SHAPE_REPRESENTATION('1',(#96,#175),#10);
#66=APPLICATION_CONTEXT(' ');
#67=PRODUCT_CATEGORY('part','NONE');
#68=PRODUCT_RELATED_PRODUCT_CATEGORY('detail',' ',(#176));
#69=PRODUCT_DEFINITION_SHAPE('NONE','NONE',#177);
#70=ADVANCED_BREP_SHAPE_REPRESENTATION('2',(#106,#178),#10);
#73=UNCERTAINTY_MEASURE_WITH_UNIT(LENGTH_MEASURE(1.0E-006),#75,'','');
#75= (CONVERSION_BASED_UNIT('MILLIMETRE',#181)LENGTH_UNIT()NAMED_UNIT(#184));
#76= (NAMED_UNIT(#186)PLANE_ANGLE_UNIT()SI_UNIT($,.RADIAN.));
#77= (NAMED_UNIT(#186)SOLID_ANGLE_UNIT()SI_UNIT($,.STERADIAN.));
#79=PRESENTATION_STYLE_ASSIGNMENT((#192));
#80=VERTEX_POINT('',#193);
#81=PRESENTATION_STYLE_ASSIGNMENT((#194));
#82=EDGE_CURVE('',#136,#132,#195,.T.);
#83=PRESENTATION_STYLE_ASSIGNMENT((#196));
#84=EDGE_CURVE('',#110,#94,#197,.T.);
#85=PRESENTATION_STYLE_ASSIGNMENT((#198));
#86=ADVANCED_FACE('',(#199),#200,.F.);
#87=PRESENTATION_STYLE_ASSIGNMENT((#201));
#88=ADVANCED_FACE('',(#202),#203,.T.);
#89=PRESENTATION_STYLE_ASSIGNMENT((#204));
#90=EDGE_CURVE('',#154,#160,#205,.T.);
#91=PRESENTATION_STYLE_ASSIGNMENT((#206));
#92=ADVANCED_FACE('',(#207),#208,.T.);
#93=PRESENTATION_STYLE_ASSIGNMENT((#209));
#94=VERTEX_POINT('',#210);
#95=PRESENTATION_STYLE_ASSIGNMENT((#211));
#96=MANIFOLD_SOLID_BREP('1',#212);
#97=PRESENTATION_STYLE_ASSIGNMENT((#213));
#98=EDGE_CURVE('',#134,#156,#214,.T.);
#99=PRESENTATION_STYLE_ASSIGNMENT((#215));
#100=ADVANCED_FACE('',(#216,#217),#218,.T.);
#101=PRESENTATION_STYLE_ASSIGNMENT((#219));
#102=VERTEX_POINT('',#220);
#103=PRESENTATION_STYLE_ASSIGNMENT((#221));
#104=EDGE_CURVE('',#160,#136,#222,.T.);
#105=PRESENTATION_STYLE_ASSIGNMENT((#223));
#106=MANIFOLD_SOLID_BREP('2',#224);
#107=PRESENTATION_STYLE_ASSIGNMENT((#225));
#108=ADVANCED_FACE('',(#226),#227,.T.);
#109=PRESENTATION_STYLE_ASSIGNMENT((#228));
#110=VERTEX_POINT('',#229);
#111=PRESENTATION_STYLE_ASSIGNMENT((#230));
#112=VERTEX_POINT('',#231);
#113=PRESENTATION_STYLE_ASSIGNMENT((#232));
#114=EDGE_CURVE('',#160,#154,#233,.T.);
#115=PRESENTATION_STYLE_ASSIGNMENT((#234));
#116=ADVANCED_FACE('',(#235),#236,.T.);
#117=PRESENTATION_STYLE_ASSIGNMENT((#237));
#118=ADVANCED_FACE('',(#238),#239,.T.);
#119=PRESENTATION_STYLE_ASSIGNMENT((#240));
#120=VERTEX_POINT('',#241);
#121=PRESENTATION_STYLE_ASSIGNMENT((#242));
#122=ADVANCED_FACE('',(#243),#244,.T.);
#123=PRESENTATION_STYLE_ASSIGNMENT((#245));
#124=EDGE_CURVE('',#80,#132,#246,.T.);
#125=PRESENTATION_STYLE_ASSIGNMENT((#247));
#126=ADVANCED_FACE('',(#248),#249,.T.);
#127=PRESENTATION_STYLE_ASSIGNMENT((#250));
#128=VERTEX_POINT('',#251);
#129=PRESENTATION_STYLE_ASSIGNMENT((#252));
#130=ADVANCED_FACE('',(#253),#254,.T.);
#131=PRESENTATION_STYLE_ASSIGNMENT((#255));
#132=VERTEX_POINT('',#256);
#133=PRESENTATION_STYLE_ASSIGNMENT((#257));
#134=VERTEX_POINT('',#258);
#135=PRESENTATION_STYLE_ASSIGNMENT((#259));
#136=VERTEX_POINT('',#260);
#137=PRESENTATION_STYLE_ASSIGNMENT((#261));
#138=EDGE_CURVE('',#94,#110,#262,.T.);
#139=PRESENTATION_STYLE_ASSIGNMENT((#263));
#140=EDGE_CURVE('',#132,#154,#264,.T.);
#141=PRESENTATION_STYLE_ASSIGNMENT((#265));
#142=EDGE_CURVE('',#136,#120,#266,.T.);
#143=PRESENTATION_STYLE_ASSIGNMENT((#267));
#144=ADVANCED_FACE('',(#268),#269,.T.);
#145=PRESENTATION_STYLE_ASSIGNMENT((#270));
#146=EDGE_CURVE('',#110,#102,#271,.T.);
#147=PRESENTATION_STYLE_ASSIGNMENT((#272));
#148=ADVANCED_FACE('',(#273),#274,.F.);
#149=PRESENTATION_STYLE_ASSIGNMENT((#275));
#150=EDGE_CURVE('',#120,#80,#276,.T.);
#151=PRESENTATION_STYLE_ASSIGNMENT((#277));
#152=EDGE_CURVE('',#132,#136,#278,.T.);
#153=PRESENTATION_STYLE_ASSIGNMENT((#279));
#154=VERTEX_POINT('',#280);
#155=PRESENTATION_STYLE_ASSIGNMENT((#281));
#156=VERTEX_POINT('',#282);
#157=PRESENTATION_STYLE_ASSIGNMENT((#283));
#158=EDGE_CURVE('',#112,#102,#284,.T.);
#159=PRESENTATION_STYLE_ASSIGNMENT((#285));
#160=VERTEX_POINT('',#286);
#161=PRESENTATION_STYLE_ASSIGNMENT((#287));
#162=EDGE_CURVE('',#112,#94,#288,.T.);
#163=PRESENTATION_STYLE_ASSIGNMENT((#289));
#164=EDGE_CURVE('',#128,#134,#290,.T.);
#165=PRESENTATION_STYLE_ASSIGNMENT((#291));
#166=EDGE_CURVE('',#156,#134,#292,.T.);
#167=PRESENTATION_STYLE_ASSIGNMENT((#293));
#168=EDGE_CURVE('',#102,#112,#294,.T.);
#169=PRESENTATION_STYLE_ASSIGNMENT((#295));
#170=EDGE_CURVE('',#80,#120,#296,.T.);
#171=PRESENTATION_STYLE_ASSIGNMENT((#297));
#172=EDGE_CURVE('',#156,#128,#298,.T.);
#173=PRODUCT('1','1','PART-1-DESC',(#299));
#174=PRODUCT_DEFINITION('NONE','NONE',#300,#2);
#175=AXIS2_PLACEMENT_3D('',#301,#302,#303);
#176=PRODUCT('2','2','PART-2-DESC',(#304));
#177=PRODUCT_DEFINITION('NONE','NONE',#305,#6);
#178=AXIS2_PLACEMENT_3D('',#306,#307,#308);
#181=LENGTH_MEASURE_WITH_UNIT(LENGTH_MEASURE(1.0),#309);
#184=DIMENSIONAL_EXPONENTS(1.0,0.0,0.0,0.0,0.0,0.0,0.0);
#186=DIMENSIONAL_EXPONENTS(0.0,0.0,0.0,0.0,0.0,0.0,0.0);
#192=POINT_STYLE(' ',#310,POSITIVE_LENGTH_MEASURE(1.0E-006),#311);
#193=CARTESIAN_POINT('',(0.0,4.30408388626344,0.0100000000000016));
#194=CURVE_STYLE('',#312,POSITIVE_LENGTH_MEASURE(1.0E-006),#313);
#195=CIRCLE('',#314,4.7625);
#196=CURVE_STYLE('',#315,POSITIVE_LENGTH_MEASURE(1.0E-006),#316);
#197=CIRCLE('',#317,5.7499);
#198=SURFACE_STYLE_USAGE(.BOTH.,#318);
#199=FACE_OUTER_BOUND('',#319,.T.);
#200=CONICAL_SURFACE('',#320,2.87245,1.56905565421571);
#201=SURFACE_STYLE_USAGE(.BOTH.,#321);
#202=FACE_OUTER_BOUND('',#322,.T.);
#203=CONICAL_SURFACE('',#323,5.74995,4.85436893198939E-006);
#204=CURVE_STYLE('',#324,POSITIVE_LENGTH_MEASURE(1.0E-006),#325);
#205=CIRCLE('',#326,4.7625);
#206=SURFACE_STYLE_USAGE(.BOTH.,#327);
#207=FACE_OUTER_BOUND('',#328,.T.);
#208=PLANE('',#329);
#209=POINT_STYLE(' ',#330,POSITIVE_LENGTH_MEASURE(1.0E-006),#331);
#210=CARTESIAN_POINT('',(7.04136407384329E-016,-5.7499,-42.89));
#211=SURFACE_STYLE_USAGE(.BOTH.,#332);
#212=CLOSED_SHELL('',(#88,#148,#86,#100,#116,#122));
#213=CURVE_STYLE('',#333,POSITIVE_LENGTH_MEASURE(1.0E-006),#334);
#214=CIRCLE('',#335,5.7449);
#215=SURFACE_STYLE_USAGE(.BOTH.,#336);
#216=FACE_OUTER_BOUND('',#337,.T.);
#217=FACE_BOUND('',#338,.T.);
#218=PLANE('',#339);
#219=POINT_STYLE(' ',#340,POSITIVE_LENGTH_MEASURE(1.0E-006),#341);
#220=CARTESIAN_POINT('',(0.0,5.75,-63.49));
#221=CURVE_STYLE('',#342,POSITIVE_LENGTH_MEASURE(1.0E-006),#343);
#222=LINE('',#344,#345);
#223=SURFACE_STYLE_USAGE(.BOTH.,#346);
#224=CLOSED_SHELL('',(#126,#144,#92,#130,#118,#108));
#225=SURFACE_STYLE_USAGE(.BOTH.,#347);
#226=FACE_OUTER_BOUND('',#348,.T.);
#227=CYLINDRICAL_SURFACE('',#349,4.7625);
#228=POINT_STYLE(' ',#350,POSITIVE_LENGTH_MEASURE(1.0E-006),#351);
#229=CARTESIAN_POINT('',(0.0,5.7499,-42.89));
#230=POINT_STYLE(' ',#352,POSITIVE_LENGTH_MEASURE(1.0E-006),#353);
#231=CARTESIAN_POINT('',(7.04148653447867E-016,-5.75,-63.49));
#232=CURVE_STYLE('',#354,POSITIVE_LENGTH_MEASURE(1.0E-006),#355);
#233=CIRCLE('',#356,4.7625);
#234=SURFACE_STYLE_USAGE(.BOTH.,#357);
#235=FACE_OUTER_BOUND('',#358,.T.);
#236=CONICAL_SURFACE('',#359,5.74995,4.85436893198939E-006);
#237=SURFACE_STYLE_USAGE(.BOTH.,#360);
#238=FACE_OUTER_BOUND('',#361,.T.);
#239=CONICAL_SURFACE('',#362,4.53329194313172,0.523598775598299);
#240=POINT_STYLE(' ',#363,POSITIVE_LENGTH_MEASURE(1.0E-006),#364);
#241=CARTESIAN_POINT('',(5.27080847450272E-016,-4.30408388626344,0.0100000000000016));
#242=SURFACE_STYLE_USAGE(.BOTH.,#365);
#243=FACE_OUTER_BOUND('',#366,.T.);
#244=PLANE('',#367);
#245=CURVE_STYLE('',#368,POSITIVE_LENGTH_MEASURE(1.0E-006),#369);
#246=LINE('',#370,#371);
#247=SURFACE_STYLE_USAGE(.BOTH.,#372);
#248=FACE_OUTER_BOUND('',#373,.T.);
#249=CYLINDRICAL_SURFACE('',#374,4.7625);
#250=POINT_STYLE(' ',#375,POSITIVE_LENGTH_MEASURE(1.0E-006),#376);
#251=CARTESIAN_POINT('',(0.0,0.0,-42.9));
#252=SURFACE_STYLE_USAGE(.BOTH.,#377);
#253=FACE_OUTER_BOUND('',#378,.T.);
#254=PLANE('',#379);
#255=POINT_STYLE(' ',#380,POSITIVE_LENGTH_MEASURE(1.0E-006),#381);
#256=CARTESIAN_POINT('',(0.0,4.7625,-0.783999999999999));
#257=POINT_STYLE(' ',#382,POSITIVE_LENGTH_MEASURE(1.0E-006),#383);
#258=CARTESIAN_POINT('',(7.03524104207417E-016,-5.7449,-42.89));
#259=POINT_STYLE(' ',#384,POSITIVE_LENGTH_MEASURE(1.0E-006),#385);
#260=CARTESIAN_POINT('',(5.83218776007907E-016,-4.7625,-0.783999999999999));
#261=CURVE_STYLE('',#386,POSITIVE_LENGTH_MEASURE(1.0E-006),#387);
#262=CIRCLE('',#388,5.7499);
#263=CURVE_STYLE('',#389,POSITIVE_LENGTH_MEASURE(1.0E-006),#390);
#264=LINE('',#391,#392);
#265=CURVE_STYLE('',#393,POSITIVE_LENGTH_MEASURE(1.0E-006),#394);
#266=LINE('',#395,#396);
#267=SURFACE_STYLE_USAGE(.BOTH.,#397);
#268=FACE_OUTER_BOUND('',#398,.T.);
#269=CONICAL_SURFACE('',#399,4.53329194313172,0.523598775598299);
#270=CURVE_STYLE('',#400,POSITIVE_LENGTH_MEASURE(1.0E-006),#401);
#271=LINE('',#402,#403);
#272=SURFACE_STYLE_USAGE(.BOTH.,#404);
#273=FACE_OUTER_BOUND('',#405,.T.);
#274=CONICAL_SURFACE('',#406,2.87245,1.56905565421571);
#275=CURVE_STYLE('',#407,POSITIVE_LENGTH_MEASURE(1.0E-006),#408);
#276=CIRCLE('',#409,4.30408388626344);
#277=CURVE_STYLE('',#410,POSITIVE_LENGTH_MEASURE(1.0E-006),#411);
#278=CIRCLE('',#412,4.7625);
#279=POINT_STYLE(' ',#413,POSITIVE_LENGTH_MEASURE(1.0E-006),#414);
#280=CARTESIAN_POINT('',(-5.83218776007907E-016,4.7625,-42.89));
#281=POINT_STYLE(' ',#415,POSITIVE_LENGTH_MEASURE(1.0E-006),#416);
#282=CARTESIAN_POINT('',(0.0,5.7449,-42.89));
#283=CURVE_STYLE('',#417,POSITIVE_LENGTH_MEASURE(1.0E-006),#418);
#284=CIRCLE('',#419,5.75);
#285=POINT_STYLE(' ',#420,POSITIVE_LENGTH_MEASURE(1.0E-006),#421);
#286=CARTESIAN_POINT('',(0.0,-4.7625,-42.89));
#287=CURVE_STYLE('',#422,POSITIVE_LENGTH_MEASURE(1.0E-006),#423);
#288=LINE('',#424,#425);
#289=CURVE_STYLE('',#426,POSITIVE_LENGTH_MEASURE(1.0E-006),#427);
#290=LINE('',#428,#429);
#291=CURVE_STYLE('',#430,POSITIVE_LENGTH_MEASURE(1.0E-006),#431);
#292=CIRCLE('',#432,5.7449);
#293=CURVE_STYLE('',#433,POSITIVE_LENGTH_MEASURE(1.0E-006),#434);
#294=CIRCLE('',#435,5.75);
#295=CURVE_STYLE('',#436,POSITIVE_LENGTH_MEASURE(1.0E-006),#437);
#296=CIRCLE('',#438,4.30408388626344);
#297=CURVE_STYLE('',#439,POSITIVE_LENGTH_MEASURE(1.0E-006),#440);
#298=LINE('',#441,#442);
#299=PRODUCT_CONTEXT('',#61,'mechanical');
#300=PRODUCT_DEFINITION_FORMATION_WITH_SPECIFIED_SOURCE(' ','NONE',#173,.NOT_KNOWN.);
#301=CARTESIAN_POINT('',(0.0,0.0,0.0));
#302=DIRECTION('',(0.0,0.0,1.0));
#303=DIRECTION('',(1.0,0.0,0.0));
#304=PRODUCT_CONTEXT('',#66,'mechanical');
#305=PRODUCT_DEFINITION_FORMATION_WITH_SPECIFIED_SOURCE(' ','NONE',#176,.NOT_KNOWN.);
#306=CARTESIAN_POINT('',(0.0,0.0,0.0));
#307=DIRECTION('',(0.0,0.0,1.0));
#308=DIRECTION('',(1.0,0.0,0.0));
#309= (NAMED_UNIT(#184)LENGTH_UNIT()SI_UNIT(.MILLI.,.METRE.));
#310=PRE_DEFINED_MARKER('');
#311=COLOUR_RGB('',0.498039215803146,0.498039215803146,0.498039215803146);
#312=DRAUGHTING_PRE_DEFINED_CURVE_FONT('continuous');
#313=COLOUR_RGB('',0.498039215803146,0.498039215803146,0.498039215803146);
#314=AXIS2_PLACEMENT_3D('',#444,#445,#446);
#315=DRAUGHTING_PRE_DEFINED_CURVE_FONT('continuous');
#316=COLOUR_RGB('',0.800000011920929,0.800000011920929,0.800000011920929);
#317=AXIS2_PLACEMENT_3D('',#447,#448,#449);
#318=SURFACE_SIDE_STYLE('',(#450));
#319=EDGE_LOOP('',(#451,#452,#453));
#320=AXIS2_PLACEMENT_3D('',#454,#455,#456);
#321=SURFACE_SIDE_STYLE('',(#457));
#322=EDGE_LOOP('',(#458,#459,#460,#461));
#323=AXIS2_PLACEMENT_3D('',#462,#463,#464);
#324=DRAUGHTING_PRE_DEFINED_CURVE_FONT('continuous');
#325=COLOUR_RGB('',0.498039215803146,0.498039215803146,0.498039215803146);
#326=AXIS2_PLACEMENT_3D('',#465,#466,#467);
#327=SURFACE_SIDE_STYLE('',(#468));
#328=EDGE_LOOP('',(#469,#470));
#329=AXIS2_PLACEMENT_3D('',#471,#472,#473);
#330=PRE_DEFINED_MARKER('');
#331=COLOUR_RGB('',0.800000011920929,0.800000011920929,0.800000011920929);
#332=SURFACE_SIDE_STYLE('',(#474));
#333=DRAUGHTING_PRE_DEFINED_CURVE_FONT('continuous');
#334=COLOUR_RGB('',0.800000011920929,0.800000011920929,0.800000011920929);
#335=AXIS2_PLACEMENT_3D('',#475,#476,#477);
#336=SURFACE_SIDE_STYLE('',(#478));
#337=EDGE_LOOP('',(#479,#480));
#338=EDGE_LOOP('',(#481,#482));
#339=AXIS2_PLACEMENT_3D('',#483,#484,#485);
#340=PRE_DEFINED_MARKER('');
#341=COLOUR_RGB('',0.800000011920929,0.800000011920929,0.800000011920929);
#342=DRAUGHTING_PRE_DEFINED_CURVE_FONT('continuous');
#343=COLOUR_RGB('',0.498039215803146,0.498039215803146,0.498039215803146);
#344=CARTESIAN_POINT('',(5.83218776007907E-016,-4.7625,-16.087));
#345=VECTOR('',#486,1.0);
#346=SURFACE_SIDE_STYLE('',(#487));
#347=SURFACE_SIDE_STYLE('',(#488));
#348=EDGE_LOOP('',(#489,#490,#491,#492));
#349=AXIS2_PLACEMENT_3D('',#493,#494,#495);
#350=PRE_DEFINED_MARKER('');
#351=COLOUR_RGB('',0.800000011920929,0.800000011920929,0.800000011920929);
#352=PRE_DEFINED_MARKER('');
#353=COLOUR_RGB('',0.800000011920929,0.800000011920929,0.800000011920929);
#354=DRAUGHTING_PRE_DEFINED_CURVE_FONT('continuous');
#355=COLOUR_RGB('',0.498039215803146,0.498039215803146,0.498039215803146);
#356=AXIS2_PLACEMENT_3D('',#496,#497,#498);
#357=SURFACE_SIDE_STYLE('',(#499));
#358=EDGE_LOOP('',(#500,#501,#502,#503));
#359=AXIS2_PLACEMENT_3D('',#504,#505,#506);
#360=SURFACE_SIDE_STYLE('',(#507));
#361=EDGE_LOOP('',(#508,#509,#510,#511));
#362=AXIS2_PLACEMENT_3D('',#512,#513,#514);
#363=PRE_DEFINED_MARKER('');
#364=COLOUR_RGB('',0.498039215803146,0.498039215803146,0.498039215803146);
#365=SURFACE_SIDE_STYLE('',(#515));
#366=EDGE_LOOP('',(#516,#517));
#367=AXIS2_PLACEMENT_3D('',#518,#519,#520);
#368=DRAUGHTING_PRE_DEFINED_CURVE_FONT('continuous');
#369=COLOUR_RGB('',0.498039215803146,0.498039215803146,0.498039215803146);
#370=CARTESIAN_POINT('',(-5.55149811729089E-016,4.53329194313172,-0.386999999999997));
#371=VECTOR('',#521,1.0);
#372=SURFACE_SIDE_STYLE('',(#522));
#373=EDGE_LOOP('',(#523,#524,#525,#526));
#374=AXIS2_PLACEMENT_3D('',#527,#528,#529);
#375=PRE_DEFINED_MARKER('');
#376=COLOUR_RGB('',0.800000011920929,0.800000011920929,0.800000011920929);
#377=SURFACE_SIDE_STYLE('',(#530));
#378=EDGE_LOOP('',(#531,#532));
#379=AXIS2_PLACEMENT_3D('',#533,#534,#535);
#380=PRE_DEFINED_MARKER('');
#381=COLOUR_RGB('',0.498039215803146,0.498039215803146,0.498039215803146);
#382=PRE_DEFINED_MARKER('');
#383=COLOUR_RGB('',0.800000011920929,0.800000011920929,0.800000011920929);
#384=PRE_DEFINED_MARKER('');
#385=COLOUR_RGB('',0.498039215803146,0.498039215803146,0.498039215803146);
#386=DRAUGHTING_PRE_DEFINED_CURVE_FONT('continuous');
#387=COLOUR_RGB('',0.800000011920929,0.800000011920929,0.800000011920929);
#388=AXIS2_PLACEMENT_3D('',#536,#537,#538);
#389=DRAUGHTING_PRE_DEFINED_CURVE_FONT('continuous');
#390=COLOUR_RGB('',0.498039215803146,0.498039215803146,0.498039215803146);
#391=CARTESIAN_POINT('',(-5.83218776007907E-016,4.7625,-16.087));
#392=VECTOR('',#539,1.0);
#393=DRAUGHTING_PRE_DEFINED_CURVE_FONT('continuous');
#394=COLOUR_RGB('',0.498039215803146,0.498039215803146,0.498039215803146);
#395=CARTESIAN_POINT('',(5.55149811729089E-016,-4.53329194313172,-0.386999999999997));
#396=VECTOR('',#540,1.0);
#397=SURFACE_SIDE_STYLE('',(#541));
#398=EDGE_LOOP('',(#542,#543,#544,#545));
#399=AXIS2_PLACEMENT_3D('',#546,#547,#548);
#400=DRAUGHTING_PRE_DEFINED_CURVE_FONT('continuous');
#401=COLOUR_RGB('',0.800000011920929,0.800000011920929,0.800000011920929);
#402=CARTESIAN_POINT('',(-7.04142530416098E-016,5.74995,-53.19));
#403=VECTOR('',#549,1.0);
#404=SURFACE_SIDE_STYLE('',(#550));
#405=EDGE_LOOP('',(#551,#552,#553));
#406=AXIS2_PLACEMENT_3D('',#554,#555,#556);
#407=DRAUGHTING_PRE_DEFINED_CURVE_FONT('continuous');
#408=COLOUR_RGB('',0.498039215803146,0.498039215803146,0.498039215803146);
#409=AXIS2_PLACEMENT_3D('',#557,#558,#559);
#410=DRAUGHTING_PRE_DEFINED_CURVE_FONT('continuous');
#411=COLOUR_RGB('',0.498039215803146,0.498039215803146,0.498039215803146);
#412=AXIS2_PLACEMENT_3D('',#560,#561,#562);
#413=PRE_DEFINED_MARKER('');
#414=COLOUR_RGB('',0.498039215803146,0.498039215803146,0.498039215803146);
#415=PRE_DEFINED_MARKER('');
#416=COLOUR_RGB('',0.800000011920929,0.800000011920929,0.800000011920929);
#417=DRAUGHTING_PRE_DEFINED_CURVE_FONT('continuous');
#418=COLOUR_RGB('',0.800000011920929,0.800000011920929,0.800000011920929);
#419=AXIS2_PLACEMENT_3D('',#563,#564,#565);
#420=PRE_DEFINED_MARKER('');
#421=COLOUR_RGB('',0.498039215803146,0.498039215803146,0.498039215803146);
#422=DRAUGHTING_PRE_DEFINED_CURVE_FONT('continuous');
#423=COLOUR_RGB('',0.800000011920929,0.800000011920929,0.800000011920929);
#424=CARTESIAN_POINT('',(7.04142530416098E-016,-5.74995,-53.19));
#425=VECTOR('',#566,1.0);
#426=DRAUGHTING_PRE_DEFINED_CURVE_FONT('continuous');
#427=COLOUR_RGB('',0.800000011920929,0.800000011920929,0.800000011920929);
#428=CARTESIAN_POINT('',(3.51762052103709E-016,-2.87245,-42.895));
#429=VECTOR('',#567,1.0);
#430=DRAUGHTING_PRE_DEFINED_CURVE_FONT('continuous');
#431=COLOUR_RGB('',0.800000011920929,0.800000011920929,0.800000011920929);
#432=AXIS2_PLACEMENT_3D('',#568,#569,#570);
#433=DRAUGHTING_PRE_DEFINED_CURVE_FONT('continuous');
#434=COLOUR_RGB('',0.800000011920929,0.800000011920929,0.800000011920929);
#435=AXIS2_PLACEMENT_3D('',#571,#572,#573);
#436=DRAUGHTING_PRE_DEFINED_CURVE_FONT('continuous');
#437=COLOUR_RGB('',0.498039215803146,0.498039215803146,0.498039215803146);
#438=AXIS2_PLACEMENT_3D('',#574,#575,#576);
#439=DRAUGHTING_PRE_DEFINED_CURVE_FONT('continuous');
#440=COLOUR_RGB('',0.800000011920929,0.800000011920929,0.800000011920929);
#441=CARTESIAN_POINT('',(-3.51762052103709E-016,2.87245,-42.895));
#442=VECTOR('',#577,1.0);
#444=CARTESIAN_POINT('',(0.0,0.0,-0.783999999999999));
#445=DIRECTION('',(0.0,0.0,-1.0));
#446=DIRECTION('',(0.0,1.0,0.0));
#447=CARTESIAN_POINT('',(0.0,0.0,-42.89));
#448=DIRECTION('',(0.0,0.0,-1.0));
#449=DIRECTION('',(0.0,1.0,0.0));
#450=SURFACE_STYLE_FILL_AREA(#578);
#451=ORIENTED_EDGE('',*,*,#164,.T.);
#452=ORIENTED_EDGE('',*,*,#166,.F.);
#453=ORIENTED_EDGE('',*,*,#172,.T.);
#454=CARTESIAN_POINT('',(0.0,0.0,-42.895));
#455=DIRECTION('',(-0.0,-0.0,1.0));
#456=DIRECTION('',(0.0,1.0,0.0));
#457=SURFACE_STYLE_FILL_AREA(#579);
#458=ORIENTED_EDGE('',*,*,#146,.F.);
#459=ORIENTED_EDGE('',*,*,#84,.T.);
#460=ORIENTED_EDGE('',*,*,#162,.F.);
#461=ORIENTED_EDGE('',*,*,#168,.F.);
#462=CARTESIAN_POINT('',(0.0,0.0,-53.19));
#463=DIRECTION('',(0.0,-0.0,-1.0));
#464=DIRECTION('',(0.0,1.0,0.0));
#465=CARTESIAN_POINT('',(0.0,0.0,-42.89));
#466=DIRECTION('',(0.0,0.0,-1.0));
#467=DIRECTION('',(0.0,-1.0,0.0));
#468=SURFACE_STYLE_FILL_AREA(#580);
#469=ORIENTED_EDGE('',*,*,#114,.T.);
#470=ORIENTED_EDGE('',*,*,#90,.T.);
#471=CARTESIAN_POINT('',(0.0,0.0,-42.89));
#472=DIRECTION('',(0.0,0.0,-1.0));
#473=DIRECTION('',(0.0,-1.0,0.0));
#474=SURFACE_STYLE_FILL_AREA(#581);
#475=CARTESIAN_POINT('',(0.0,0.0,-42.89));
#476=DIRECTION('',(0.0,0.0,-1.0));
#477=DIRECTION('',(0.0,1.0,0.0));
#478=SURFACE_STYLE_FILL_AREA(#582);
#479=ORIENTED_EDGE('',*,*,#84,.F.);
#480=ORIENTED_EDGE('',*,*,#138,.F.);
#481=ORIENTED_EDGE('',*,*,#166,.T.);
#482=ORIENTED_EDGE('',*,*,#98,.T.);
#483=CARTESIAN_POINT('',(0.0,5.7474,-42.89));
#484=DIRECTION('',(-0.0,0.0,1.0));
#485=DIRECTION('',(0.0,-1.0,0.0));
#486=DIRECTION('',(-0.0,-0.0,1.0));
#487=SURFACE_STYLE_FILL_AREA(#583);
#488=SURFACE_STYLE_FILL_AREA(#584);
#489=ORIENTED_EDGE('',*,*,#140,.T.);
#490=ORIENTED_EDGE('',*,*,#114,.F.);
#491=ORIENTED_EDGE('',*,*,#104,.T.);
#492=ORIENTED_EDGE('',*,*,#82,.T.);
#493=CARTESIAN_POINT('',(0.0,0.0,-16.087));
#494=DIRECTION('',(-0.0,-0.0,1.0));
#495=DIRECTION('',(0.0,1.0,0.0));
#496=CARTESIAN_POINT('',(0.0,0.0,-42.89));
#497=DIRECTION('',(0.0,0.0,-1.0));
#498=DIRECTION('',(0.0,-1.0,0.0));
#499=SURFACE_STYLE_FILL_AREA(#585);
#500=ORIENTED_EDGE('',*,*,#146,.T.);
#501=ORIENTED_EDGE('',*,*,#158,.F.);
#502=ORIENTED_EDGE('',*,*,#162,.T.);
#503=ORIENTED_EDGE('',*,*,#138,.T.);
#504=CARTESIAN_POINT('',(0.0,0.0,-53.19));
#505=DIRECTION('',(0.0,-0.0,-1.0));
#506=DIRECTION('',(0.0,1.0,0.0));
#507=SURFACE_STYLE_FILL_AREA(#586);
#508=ORIENTED_EDGE('',*,*,#124,.T.);
#509=ORIENTED_EDGE('',*,*,#82,.F.);
#510=ORIENTED_EDGE('',*,*,#142,.T.);
#511=ORIENTED_EDGE('',*,*,#150,.T.);
#512=CARTESIAN_POINT('',(0.0,0.0,-0.386999999999997));
#513=DIRECTION('',(0.0,-0.0,-1.0));
#514=DIRECTION('',(0.0,1.0,0.0));
#515=SURFACE_STYLE_FILL_AREA(#587);
#516=ORIENTED_EDGE('',*,*,#168,.T.);
#517=ORIENTED_EDGE('',*,*,#158,.T.);
#518=CARTESIAN_POINT('',(0.0,2.8725,-63.49));
#519=DIRECTION('',(0.0,0.0,-1.0));
#520=DIRECTION('',(0.0,1.0,0.0));
#521=DIRECTION('',(-6.12303176911189E-017,0.5,-0.866025403784439));
#522=SURFACE_STYLE_FILL_AREA(#588);
#523=ORIENTED_EDGE('',*,*,#140,.F.);
#524=ORIENTED_EDGE('',*,*,#152,.T.);
#525=ORIENTED_EDGE('',*,*,#104,.F.);
#526=ORIENTED_EDGE('',*,*,#90,.F.);
#527=CARTESIAN_POINT('',(0.0,0.0,-16.087));
#528=DIRECTION('',(-0.0,-0.0,1.0));
#529=DIRECTION('',(0.0,1.0,0.0));
#530=SURFACE_STYLE_FILL_AREA(#589);
#531=ORIENTED_EDGE('',*,*,#170,.F.);
#532=ORIENTED_EDGE('',*,*,#150,.F.);
#533=CARTESIAN_POINT('',(0.0,2.15204194313172,0.0100000000000016));
#534=DIRECTION('',(-0.0,0.0,1.0));
#535=DIRECTION('',(0.0,-1.0,0.0));
#536=CARTESIAN_POINT('',(0.0,0.0,-42.89));
#537=DIRECTION('',(0.0,0.0,-1.0));
#538=DIRECTION('',(0.0,1.0,0.0));
#539=DIRECTION('',(0.0,0.0,-1.0));
#540=DIRECTION('',(-6.12303176911189E-017,0.5,0.866025403784439));
#541=SURFACE_STYLE_FILL_AREA(#590);
#542=ORIENTED_EDGE('',*,*,#124,.F.);
#543=ORIENTED_EDGE('',*,*,#170,.T.);
#544=ORIENTED_EDGE('',*,*,#142,.F.);
#545=ORIENTED_EDGE('',*,*,#152,.F.);
#546=CARTESIAN_POINT('',(0.0,0.0,-0.386999999999997));
#547=DIRECTION('',(0.0,-0.0,-1.0));
#548=DIRECTION('',(0.0,1.0,0.0));
#549=DIRECTION('',(-5.94469103788881E-022,4.85436893197033E-006,-0.999999999988218));
#550=SURFACE_STYLE_FILL_AREA(#591);
#551=ORIENTED_EDGE('',*,*,#164,.F.);
#552=ORIENTED_EDGE('',*,*,#172,.F.);
#553=ORIENTED_EDGE('',*,*,#98,.F.);
#554=CARTESIAN_POINT('',(0.0,0.0,-42.895));
#555=DIRECTION('',(-0.0,-0.0,1.0));
#556=DIRECTION('',(0.0,1.0,0.0));
#557=CARTESIAN_POINT('',(0.0,0.0,0.0100000000000016));
#558=DIRECTION('',(0.0,0.0,-1.0));
#559=DIRECTION('',(0.0,1.0,0.0));
#560=CARTESIAN_POINT('',(0.0,0.0,-0.783999999999999));
#561=DIRECTION('',(0.0,0.0,-1.0));
#562=DIRECTION('',(0.0,1.0,0.0));
#563=CARTESIAN_POINT('',(0.0,0.0,-63.49));
#564=DIRECTION('',(0.0,0.0,-1.0));
#565=DIRECTION('',(0.0,1.0,0.0));
#566=DIRECTION('',(-5.94469103788881E-022,4.85436893197033E-006,0.999999999988218));
#567=DIRECTION('',(1.22460449858033E-016,-0.999998485029869,0.00174067170016896));
#568=CARTESIAN_POINT('',(0.0,0.0,-42.89));
#569=DIRECTION('',(0.0,0.0,-1.0));
#570=DIRECTION('',(0.0,1.0,0.0));
#571=CARTESIAN_POINT('',(0.0,0.0,-63.49));
#572=DIRECTION('',(0.0,0.0,-1.0));
#573=DIRECTION('',(0.0,1.0,0.0));
#574=CARTESIAN_POINT('',(0.0,0.0,0.0100000000000016));
#575=DIRECTION('',(0.0,0.0,-1.0));
#576=DIRECTION('',(0.0,1.0,0.0));
#577=DIRECTION('',(1.22460449858033E-016,-0.999998485029869,-0.00174067170016896));
#578=FILL_AREA_STYLE('',(#592));
#579=FILL_AREA_STYLE('',(#593));
#580=FILL_AREA_STYLE('',(#594));
#581=FILL_AREA_STYLE('',(#595));
#582=FILL_AREA_STYLE('',(#596));
#583=FILL_AREA_STYLE('',(#597));
#584=FILL_AREA_STYLE('',(#598));
#585=FILL_AREA_STYLE('',(#599));
#586=FILL_AREA_STYLE('',(#600));
#587=FILL_AREA_STYLE('',(#601));
#588=FILL_AREA_STYLE('',(#602));
#589=FILL_AREA_STYLE('',(#603));
#590=FILL_AREA_STYLE('',(#604));
#591=FILL_AREA_STYLE('',(#605));
#592=FILL_AREA_STYLE_COLOUR('',#606);
#593=FILL_AREA_STYLE_COLOUR('',#607);
#594=FILL_AREA_STYLE_COLOUR('',#608);
#595=FILL_AREA_STYLE_COLOUR('',#609);
#596=FILL_AREA_STYLE_COLOUR('',#610);
#597=FILL_AREA_STYLE_COLOUR('',#611);
#598=FILL_AREA_STYLE_COLOUR('',#612);
#599=FILL_AREA_STYLE_COLOUR('',#613);
#600=FILL_AREA_STYLE_COLOUR('',#614);
#601=FILL_AREA_STYLE_COLOUR('',#615);
#602=FILL_AREA_STYLE_COLOUR('',#616);
#603=FILL_AREA_STYLE_COLOUR('',#617);
#604=FILL_AREA_STYLE_COLOUR('',#618);
#605=FILL_AREA_STYLE_COLOUR('',#619);
#606=COLOUR_RGB('',0.800000011920929,0.800000011920929,0.800000011920929);
#607=COLOUR_RGB('',0.800000011920929,0.800000011920929,0.800000011920929);
#608=COLOUR_RGB('',0.498039215803146,0.498039215803146,0.498039215803146);
#609=COLOUR_RGB('',0.800000011920929,0.800000011920929,0.800000011920929);
#610=COLOUR_RGB('',0.800000011920929,0.800000011920929,0.800000011920929);
#611=COLOUR_RGB('',0.800000011920929,0.800000011920929,0.800000011920929);
#612=COLOUR_RGB('',0.498039215803146,0.498039215803146,0.498039215803146);
#613=COLOUR_RGB('',0.800000011920929,0.800000011920929,0.800000011920929);
#614=COLOUR_RGB('',0.498039215803146,0.498039215803146,0.498039215803146);
#615=COLOUR_RGB('',0.800000011920929,0.800000011920929,0.800000011920929);
#616=COLOUR_RGB('',0.498039215803146,0.498039215803146,0.498039215803146);
#617=COLOUR_RGB('',0.498039215803146,0.498039215803146,0.498039215803146);
#618=COLOUR_RGB('',0.498039215803146,0.498039215803146,0.498039215803146);
#619=COLOUR_RGB('',0.800000011920929,0.800000011920929,0.800000011920929);
#620=AXIS2_PLACEMENT_3D('PCS',#621,#622,#623);
#621=CARTESIAN_POINT('',(0.0,0.0,0.0));
#622=DIRECTION('',(0.0,0.0,1.0));
#623=DIRECTION('',(1.0,0.0,0.0));
#624=AXIS2_PLACEMENT_3D('CIP',#625,#626,#627);
#625=CARTESIAN_POINT('',(0.0,0.0,-63.5));
#626=DIRECTION('',(0.0,0.0,1.0));
#627=DIRECTION('',(1.0,0.0,0.0));
#628=AXIS2_PLACEMENT_3D('CRP',#629,#630,#631);
#629=CARTESIAN_POINT('',(-5.75,0.0,-63.5));
#630=DIRECTION('',(0.0,0.0,1.0));
#631=DIRECTION('',(1.0,0.0,0.0));
#632=AXIS2_PLACEMENT_3D('MCS',#633,#634,#635);
#633=CARTESIAN_POINT('',(0.0,0.0,-31.4));
#634=DIRECTION('',(0.0,0.0,1.0));
#635=DIRECTION('',(1.0,0.0,0.0));
#636=CONSTRUCTIVE_GEOMETRY_REPRESENTATION_RELATIONSHIP('coordinate systems',$,#65,#637);
#637=CONSTRUCTIVE_GEOMETRY_REPRESENTATION('coordinate systems',(#620,#624,#628,#632),#10);
ENDSEC;
END-ISO-10303-21;
