ISO-10303-21;
HEADER;
FILE_DESCRIPTION(('no description'),'unknown implementation level');
FILE_NAME('solidmb_yUF226D3VRSiVSCBiFPOCiaA_1.STP','  ',('CIMSOURCE GmbH'),('CADClick - KiM GmbH - www.kimweb.de'),'unknown preprocess','ACIS','unknown authorization');
FILE_SCHEMA(('automotive_design'));
ENDSEC;
DATA;
#1=MECHANICAL_DESIGN_GEOMETRIC_PRESENTATION_REPRESENTATION(' ',(#14,#15,#16,#17,#18,#19,#20,#21,#22,#23,#24,#25,#26,#27,#28,#29,#30,#31,#32,#33,#34,#35,#36,#37,#38,#39,#40,#41,#42,#43,#44,#45,#46,#47,#48,#49,#50,#51,#52,#53,#54,#55,#56,#57,#58,#59,#60),#10);
#2=PRODUCT_DEFINITION_CONTEXT('',#61,'design');
#3=APPLICATION_PROTOCOL_DEFINITION('INTERNATIONAL STANDARD','automotive_design',1994,#61);
#4=PRODUCT_CATEGORY_RELATIONSHIP('NONE','NONE',#62,#63);
#5=SHAPE_DEFINITION_REPRESENTATION(#64,#65);
#6=PRODUCT_DEFINITION_CONTEXT('',#66,'design');
#7=APPLICATION_PROTOCOL_DEFINITION('INTERNATIONAL STANDARD','automotive_design',1994,#66);
#8=PRODUCT_CATEGORY_RELATIONSHIP('NONE','NONE',#67,#68);
#9=SHAPE_DEFINITION_REPRESENTATION(#69,#70);
#10= (GEOMETRIC_REPRESENTATION_CONTEXT(3)GLOBAL_UNCERTAINTY_ASSIGNED_CONTEXT((#73))GLOBAL_UNIT_ASSIGNED_CONTEXT((#75,#76,#77))REPRESENTATION_CONTEXT('NONE','WORKSPACE'));
#14=STYLED_ITEM('',(#79),#80);
#15=STYLED_ITEM('',(#81),#82);
#16=STYLED_ITEM('',(#83),#84);
#17=STYLED_ITEM('',(#85),#86);
#18=STYLED_ITEM('',(#87),#88);
#19=STYLED_ITEM('',(#89),#90);
#20=STYLED_ITEM('',(#91),#92);
#21=STYLED_ITEM('',(#93),#94);
#22=STYLED_ITEM('',(#95),#96);
#23=STYLED_ITEM('',(#97),#98);
#24=STYLED_ITEM('',(#99),#100);
#25=STYLED_ITEM('',(#101),#102);
#26=STYLED_ITEM('',(#103),#104);
#27=STYLED_ITEM('',(#105),#106);
#28=STYLED_ITEM('',(#107),#108);
#29=STYLED_ITEM('',(#109),#110);
#30=STYLED_ITEM('',(#111),#112);
#31=STYLED_ITEM('',(#113),#114);
#32=STYLED_ITEM('',(#115),#116);
#33=STYLED_ITEM('',(#117),#118);
#34=STYLED_ITEM('',(#119),#120);
#35=STYLED_ITEM('',(#121),#122);
#36=STYLED_ITEM('',(#123),#124);
#37=STYLED_ITEM('',(#125),#126);
#38=STYLED_ITEM('',(#127),#128);
#39=STYLED_ITEM('',(#129),#130);
#40=STYLED_ITEM('',(#131),#132);
#41=STYLED_ITEM('',(#133),#134);
#42=STYLED_ITEM('',(#135),#136);
#43=STYLED_ITEM('',(#137),#138);
#44=STYLED_ITEM('',(#139),#140);
#45=STYLED_ITEM('',(#141),#142);
#46=STYLED_ITEM('',(#143),#144);
#47=STYLED_ITEM('',(#145),#146);
#48=STYLED_ITEM('',(#147),#148);
#49=STYLED_ITEM('',(#149),#150);
#50=STYLED_ITEM('',(#151),#152);
#51=STYLED_ITEM('',(#153),#154);
#52=STYLED_ITEM('',(#155),#156);
#53=STYLED_ITEM('',(#157),#158);
#54=STYLED_ITEM('',(#159),#160);
#55=STYLED_ITEM('',(#161),#162);
#56=STYLED_ITEM('',(#163),#164);
#57=STYLED_ITEM('',(#165),#166);
#58=STYLED_ITEM('',(#167),#168);
#59=STYLED_ITEM('',(#169),#170);
#60=STYLED_ITEM('',(#171),#172);
#61=APPLICATION_CONTEXT(' ');
#62=PRODUCT_CATEGORY('part','NONE');
#63=PRODUCT_RELATED_PRODUCT_CATEGORY('detail',' ',(#173));
#64=PRODUCT_DEFINITION_SHAPE('NONE','NONE',#174);
#65=ADVANCED_BREP_SHAPE_REPRESENTATION('1',(#116,#175),#10);
#66=APPLICATION_CONTEXT(' ');
#67=PRODUCT_CATEGORY('part','NONE');
#68=PRODUCT_RELATED_PRODUCT_CATEGORY('detail',' ',(#176));
#69=PRODUCT_DEFINITION_SHAPE('NONE','NONE',#177);
#70=ADVANCED_BREP_SHAPE_REPRESENTATION('2',(#146,#178),#10);
#73=UNCERTAINTY_MEASURE_WITH_UNIT(LENGTH_MEASURE(1.0E-006),#75,'','');
#75= (CONVERSION_BASED_UNIT('MILLIMETRE',#181)LENGTH_UNIT()NAMED_UNIT(#184));
#76= (NAMED_UNIT(#186)PLANE_ANGLE_UNIT()SI_UNIT($,.RADIAN.));
#77= (NAMED_UNIT(#186)SOLID_ANGLE_UNIT()SI_UNIT($,.STERADIAN.));
#79=PRESENTATION_STYLE_ASSIGNMENT((#192));
#80=ADVANCED_FACE('',(#193),#194,.T.);
#81=PRESENTATION_STYLE_ASSIGNMENT((#195));
#82=EDGE_CURVE('',#148,#166,#196,.T.);
#83=PRESENTATION_STYLE_ASSIGNMENT((#197));
#84=ADVANCED_FACE('',(#198),#199,.T.);
#85=PRESENTATION_STYLE_ASSIGNMENT((#200));
#86=EDGE_CURVE('',#154,#170,#201,.T.);
#87=PRESENTATION_STYLE_ASSIGNMENT((#202));
#88=EDGE_CURVE('',#158,#168,#203,.T.);
#89=PRESENTATION_STYLE_ASSIGNMENT((#204));
#90=EDGE_CURVE('',#144,#118,#205,.T.);
#91=PRESENTATION_STYLE_ASSIGNMENT((#206));
#92=EDGE_CURVE('',#132,#154,#207,.T.);
#93=PRESENTATION_STYLE_ASSIGNMENT((#208));
#94=EDGE_CURVE('',#118,#154,#209,.T.);
#95=PRESENTATION_STYLE_ASSIGNMENT((#210));
#96=EDGE_CURVE('',#148,#168,#211,.T.);
#97=PRESENTATION_STYLE_ASSIGNMENT((#212));
#98=ADVANCED_FACE('',(#213,#214),#215,.T.);
#99=PRESENTATION_STYLE_ASSIGNMENT((#216));
#100=ADVANCED_FACE('',(#217),#218,.T.);
#101=PRESENTATION_STYLE_ASSIGNMENT((#219));
#102=EDGE_CURVE('',#126,#132,#220,.T.);
#103=PRESENTATION_STYLE_ASSIGNMENT((#221));
#104=ADVANCED_FACE('',(#222),#223,.T.);
#105=PRESENTATION_STYLE_ASSIGNMENT((#224));
#106=ADVANCED_FACE('',(#225),#226,.F.);
#107=PRESENTATION_STYLE_ASSIGNMENT((#227));
#108=ADVANCED_FACE('',(#228),#229,.T.);
#109=PRESENTATION_STYLE_ASSIGNMENT((#230));
#110=VERTEX_POINT('',#231);
#111=PRESENTATION_STYLE_ASSIGNMENT((#232));
#112=VERTEX_POINT('',#233);
#113=PRESENTATION_STYLE_ASSIGNMENT((#234));
#114=EDGE_CURVE('',#166,#148,#235,.T.);
#115=PRESENTATION_STYLE_ASSIGNMENT((#236));
#116=MANIFOLD_SOLID_BREP('1',#237);
#117=PRESENTATION_STYLE_ASSIGNMENT((#238));
#118=VERTEX_POINT('',#239);
#119=PRESENTATION_STYLE_ASSIGNMENT((#240));
#120=EDGE_CURVE('',#112,#124,#241,.T.);
#121=PRESENTATION_STYLE_ASSIGNMENT((#242));
#122=EDGE_CURVE('',#158,#166,#243,.T.);
#123=PRESENTATION_STYLE_ASSIGNMENT((#244));
#124=VERTEX_POINT('',#245);
#125=PRESENTATION_STYLE_ASSIGNMENT((#246));
#126=VERTEX_POINT('',#247);
#127=PRESENTATION_STYLE_ASSIGNMENT((#248));
#128=ADVANCED_FACE('',(#249),#250,.T.);
#129=PRESENTATION_STYLE_ASSIGNMENT((#251));
#130=ADVANCED_FACE('',(#252),#253,.T.);
#131=PRESENTATION_STYLE_ASSIGNMENT((#254));
#132=VERTEX_POINT('',#255);
#133=PRESENTATION_STYLE_ASSIGNMENT((#256));
#134=EDGE_CURVE('',#118,#126,#257,.T.);
#135=PRESENTATION_STYLE_ASSIGNMENT((#258));
#136=ADVANCED_FACE('',(#259),#260,.T.);
#137=PRESENTATION_STYLE_ASSIGNMENT((#261));
#138=EDGE_CURVE('',#124,#110,#262,.T.);
#139=PRESENTATION_STYLE_ASSIGNMENT((#263));
#140=EDGE_CURVE('',#168,#158,#264,.T.);
#141=PRESENTATION_STYLE_ASSIGNMENT((#265));
#142=EDGE_CURVE('',#110,#112,#266,.T.);
#143=PRESENTATION_STYLE_ASSIGNMENT((#267));
#144=VERTEX_POINT('',#268);
#145=PRESENTATION_STYLE_ASSIGNMENT((#269));
#146=MANIFOLD_SOLID_BREP('2',#270);
#147=PRESENTATION_STYLE_ASSIGNMENT((#271));
#148=VERTEX_POINT('',#272);
#149=PRESENTATION_STYLE_ASSIGNMENT((#273));
#150=ADVANCED_FACE('',(#274),#275,.F.);
#151=PRESENTATION_STYLE_ASSIGNMENT((#276));
#152=ADVANCED_FACE('',(#277),#278,.T.);
#153=PRESENTATION_STYLE_ASSIGNMENT((#279));
#154=VERTEX_POINT('',#280);
#155=PRESENTATION_STYLE_ASSIGNMENT((#281));
#156=EDGE_CURVE('',#144,#170,#282,.T.);
#157=PRESENTATION_STYLE_ASSIGNMENT((#283));
#158=VERTEX_POINT('',#284);
#159=PRESENTATION_STYLE_ASSIGNMENT((#285));
#160=EDGE_CURVE('',#132,#126,#286,.T.);
#161=PRESENTATION_STYLE_ASSIGNMENT((#287));
#162=EDGE_CURVE('',#124,#112,#288,.T.);
#163=PRESENTATION_STYLE_ASSIGNMENT((#289));
#164=EDGE_CURVE('',#154,#118,#290,.T.);
#165=PRESENTATION_STYLE_ASSIGNMENT((#291));
#166=VERTEX_POINT('',#292);
#167=PRESENTATION_STYLE_ASSIGNMENT((#293));
#168=VERTEX_POINT('',#294);
#169=PRESENTATION_STYLE_ASSIGNMENT((#295));
#170=VERTEX_POINT('',#296);
#171=PRESENTATION_STYLE_ASSIGNMENT((#297));
#172=EDGE_CURVE('',#170,#144,#298,.T.);
#173=PRODUCT('1','1','PART-1-DESC',(#299));
#174=PRODUCT_DEFINITION('NONE','NONE',#300,#2);
#175=AXIS2_PLACEMENT_3D('',#301,#302,#303);
#176=PRODUCT('2','2','PART-2-DESC',(#304));
#177=PRODUCT_DEFINITION('NONE','NONE',#305,#6);
#178=AXIS2_PLACEMENT_3D('',#306,#307,#308);
#181=LENGTH_MEASURE_WITH_UNIT(LENGTH_MEASURE(1.0),#309);
#184=DIMENSIONAL_EXPONENTS(1.0,0.0,0.0,0.0,0.0,0.0,0.0);
#186=DIMENSIONAL_EXPONENTS(0.0,0.0,0.0,0.0,0.0,0.0,0.0);
#192=SURFACE_STYLE_USAGE(.BOTH.,#310);
#193=FACE_OUTER_BOUND('',#311,.T.);
#194=CONICAL_SURFACE('',#312,6.12079194313172,0.523598775598301);
#195=CURVE_STYLE('',#313,POSITIVE_LENGTH_MEASURE(1.0E-006),#314);
#196=CIRCLE('',#315,6.7499);
#197=SURFACE_STYLE_USAGE(.BOTH.,#316);
#198=FACE_OUTER_BOUND('',#317,.T.);
#199=CONICAL_SURFACE('',#318,6.12079194313172,0.523598775598301);
#200=CURVE_STYLE('',#319,POSITIVE_LENGTH_MEASURE(1.0E-006),#320);
#201=LINE('',#321,#322);
#202=CURVE_STYLE('',#323,POSITIVE_LENGTH_MEASURE(1.0E-006),#324);
#203=CIRCLE('',#325,6.75);
#204=CURVE_STYLE('',#326,POSITIVE_LENGTH_MEASURE(1.0E-006),#327);
#205=LINE('',#328,#329);
#206=CURVE_STYLE('',#330,POSITIVE_LENGTH_MEASURE(1.0E-006),#331);
#207=LINE('',#332,#333);
#208=CURVE_STYLE('',#334,POSITIVE_LENGTH_MEASURE(1.0E-006),#335);
#209=CIRCLE('',#336,6.35);
#210=CURVE_STYLE('',#337,POSITIVE_LENGTH_MEASURE(1.0E-006),#338);
#211=LINE('',#339,#340);
#212=SURFACE_STYLE_USAGE(.BOTH.,#341);
#213=FACE_OUTER_BOUND('',#342,.T.);
#214=FACE_BOUND('',#343,.T.);
#215=PLANE('',#344);
#216=SURFACE_STYLE_USAGE(.BOTH.,#345);
#217=FACE_OUTER_BOUND('',#346,.T.);
#218=PLANE('',#347);
#219=CURVE_STYLE('',#348,POSITIVE_LENGTH_MEASURE(1.0E-006),#349);
#220=CIRCLE('',#350,6.35);
#221=SURFACE_STYLE_USAGE(.BOTH.,#351);
#222=FACE_OUTER_BOUND('',#352,.T.);
#223=CYLINDRICAL_SURFACE('',#353,6.35);
#224=SURFACE_STYLE_USAGE(.BOTH.,#354);
#225=FACE_OUTER_BOUND('',#355,.T.);
#226=CONICAL_SURFACE('',#356,3.37245,1.56931372621179);
#227=SURFACE_STYLE_USAGE(.BOTH.,#357);
#228=FACE_OUTER_BOUND('',#358,.T.);
#229=CYLINDRICAL_SURFACE('',#359,6.35);
#230=POINT_STYLE(' ',#360,POSITIVE_LENGTH_MEASURE(1.0E-006),#361);
#231=CARTESIAN_POINT('',(0.0,0.0,-50.8));
#232=POINT_STYLE(' ',#362,POSITIVE_LENGTH_MEASURE(1.0E-006),#363);
#233=CARTESIAN_POINT('',(8.25984739589655E-016,-6.7449,-50.79));
#234=CURVE_STYLE('',#364,POSITIVE_LENGTH_MEASURE(1.0E-006),#365);
#235=CIRCLE('',#366,6.7499);
#236=SURFACE_STYLE_USAGE(.BOTH.,#367);
#237=CLOSED_SHELL('',(#136,#106,#150,#98,#152,#130));
#238=POINT_STYLE(' ',#368,POSITIVE_LENGTH_MEASURE(1.0E-006),#369);
#239=CARTESIAN_POINT('',(0.0,6.35,-0.784000000000006));
#240=CURVE_STYLE('',#370,POSITIVE_LENGTH_MEASURE(1.0E-006),#371);
#241=CIRCLE('',#372,6.7449);
#242=CURVE_STYLE('',#373,POSITIVE_LENGTH_MEASURE(1.0E-006),#374);
#243=LINE('',#375,#376);
#244=POINT_STYLE(' ',#377,POSITIVE_LENGTH_MEASURE(1.0E-006),#378);
#245=CARTESIAN_POINT('',(0.0,6.7449,-50.79));
#246=POINT_STYLE(' ',#379,POSITIVE_LENGTH_MEASURE(1.0E-006),#380);
#247=CARTESIAN_POINT('',(-7.7762503467721E-016,6.35,-50.79));
#248=SURFACE_STYLE_USAGE(.BOTH.,#381);
#249=FACE_OUTER_BOUND('',#382,.T.);
#250=PLANE('',#383);
#251=SURFACE_STYLE_USAGE(.BOTH.,#384);
#252=FACE_OUTER_BOUND('',#385,.T.);
#253=PLANE('',#386);
#254=POINT_STYLE(' ',#387,POSITIVE_LENGTH_MEASURE(1.0E-006),#388);
#255=CARTESIAN_POINT('',(0.0,-6.35,-50.79));
#256=CURVE_STYLE('',#389,POSITIVE_LENGTH_MEASURE(1.0E-006),#390);
#257=LINE('',#391,#392);
#258=SURFACE_STYLE_USAGE(.BOTH.,#393);
#259=FACE_OUTER_BOUND('',#394,.T.);
#260=CONICAL_SURFACE('',#395,6.74995,3.4965034964811E-006);
#261=CURVE_STYLE('',#396,POSITIVE_LENGTH_MEASURE(1.0E-006),#397);
#262=LINE('',#398,#399);
#263=CURVE_STYLE('',#400,POSITIVE_LENGTH_MEASURE(1.0E-006),#401);
#264=CIRCLE('',#402,6.75);
#265=CURVE_STYLE('',#403,POSITIVE_LENGTH_MEASURE(1.0E-006),#404);
#266=LINE('',#405,#406);
#267=POINT_STYLE(' ',#407,POSITIVE_LENGTH_MEASURE(1.0E-006),#408);
#268=CARTESIAN_POINT('',(0.0,5.89158388626344,0.00999999999999091));
#269=SURFACE_STYLE_USAGE(.BOTH.,#409);
#270=CLOSED_SHELL('',(#108,#80,#128,#100,#84,#104));
#271=POINT_STYLE(' ',#410,POSITIVE_LENGTH_MEASURE(1.0E-006),#411);
#272=CARTESIAN_POINT('',(0.0,6.7499,-50.79));
#273=SURFACE_STYLE_USAGE(.BOTH.,#412);
#274=FACE_OUTER_BOUND('',#413,.T.);
#275=CONICAL_SURFACE('',#414,3.37245,1.56931372621179);
#276=SURFACE_STYLE_USAGE(.BOTH.,#415);
#277=FACE_OUTER_BOUND('',#416,.T.);
#278=CONICAL_SURFACE('',#417,6.74995,3.4965034964811E-006);
#279=POINT_STYLE(' ',#418,POSITIVE_LENGTH_MEASURE(1.0E-006),#419);
#280=CARTESIAN_POINT('',(7.7762503467721E-016,-6.35,-0.784000000000006));
#281=CURVE_STYLE('',#420,POSITIVE_LENGTH_MEASURE(1.0E-006),#421);
#282=CIRCLE('',#422,5.89158388626344);
#283=POINT_STYLE(' ',#423,POSITIVE_LENGTH_MEASURE(1.0E-006),#424);
#284=CARTESIAN_POINT('',(8.26609288830105E-016,-6.75,-79.39));
#285=CURVE_STYLE('',#425,POSITIVE_LENGTH_MEASURE(1.0E-006),#426);
#286=CIRCLE('',#427,6.35);
#287=CURVE_STYLE('',#428,POSITIVE_LENGTH_MEASURE(1.0E-006),#429);
#288=CIRCLE('',#430,6.7449);
#289=CURVE_STYLE('',#431,POSITIVE_LENGTH_MEASURE(1.0E-006),#432);
#290=CIRCLE('',#433,6.35);
#291=POINT_STYLE(' ',#434,POSITIVE_LENGTH_MEASURE(1.0E-006),#435);
#292=CARTESIAN_POINT('',(8.26597042766566E-016,-6.7499,-50.79));
#293=POINT_STYLE(' ',#436,POSITIVE_LENGTH_MEASURE(1.0E-006),#437);
#294=CARTESIAN_POINT('',(0.0,6.75,-79.39));
#295=POINT_STYLE(' ',#438,POSITIVE_LENGTH_MEASURE(1.0E-006),#439);
#296=CARTESIAN_POINT('',(7.21487106119574E-016,-5.89158388626344,0.00999999999999091));
#297=CURVE_STYLE('',#440,POSITIVE_LENGTH_MEASURE(1.0E-006),#441);
#298=CIRCLE('',#442,5.89158388626344);
#299=PRODUCT_CONTEXT('',#61,'mechanical');
#300=PRODUCT_DEFINITION_FORMATION_WITH_SPECIFIED_SOURCE(' ','NONE',#173,.NOT_KNOWN.);
#301=CARTESIAN_POINT('',(0.0,0.0,0.0));
#302=DIRECTION('',(0.0,0.0,1.0));
#303=DIRECTION('',(1.0,0.0,0.0));
#304=PRODUCT_CONTEXT('',#66,'mechanical');
#305=PRODUCT_DEFINITION_FORMATION_WITH_SPECIFIED_SOURCE(' ','NONE',#176,.NOT_KNOWN.);
#306=CARTESIAN_POINT('',(0.0,0.0,0.0));
#307=DIRECTION('',(0.0,0.0,1.0));
#308=DIRECTION('',(1.0,0.0,0.0));
#309= (NAMED_UNIT(#184)LENGTH_UNIT()SI_UNIT(.MILLI.,.METRE.));
#310=SURFACE_SIDE_STYLE('',(#444));
#311=EDGE_LOOP('',(#445,#446,#447,#448));
#312=AXIS2_PLACEMENT_3D('',#449,#450,#451);
#313=DRAUGHTING_PRE_DEFINED_CURVE_FONT('continuous');
#314=COLOUR_RGB('',0.800000011920929,0.800000011920929,0.800000011920929);
#315=AXIS2_PLACEMENT_3D('',#452,#453,#454);
#316=SURFACE_SIDE_STYLE('',(#455));
#317=EDGE_LOOP('',(#456,#457,#458,#459));
#318=AXIS2_PLACEMENT_3D('',#460,#461,#462);
#319=DRAUGHTING_PRE_DEFINED_CURVE_FONT('continuous');
#320=COLOUR_RGB('',0.498039215803146,0.498039215803146,0.498039215803146);
#321=CARTESIAN_POINT('',(7.49556070398392E-016,-6.12079194313172,-0.387000000000008));
#322=VECTOR('',#463,1.0);
#323=DRAUGHTING_PRE_DEFINED_CURVE_FONT('continuous');
#324=COLOUR_RGB('',0.800000011920929,0.800000011920929,0.800000011920929);
#325=AXIS2_PLACEMENT_3D('',#464,#465,#466);
#326=DRAUGHTING_PRE_DEFINED_CURVE_FONT('continuous');
#327=COLOUR_RGB('',0.498039215803146,0.498039215803146,0.498039215803146);
#328=CARTESIAN_POINT('',(-7.49556070398392E-016,6.12079194313172,-0.387000000000008));
#329=VECTOR('',#467,1.0);
#330=DRAUGHTING_PRE_DEFINED_CURVE_FONT('continuous');
#331=COLOUR_RGB('',0.498039215803146,0.498039215803146,0.498039215803146);
#332=CARTESIAN_POINT('',(7.7762503467721E-016,-6.35,-19.037));
#333=VECTOR('',#468,1.0);
#334=DRAUGHTING_PRE_DEFINED_CURVE_FONT('continuous');
#335=COLOUR_RGB('',0.498039215803146,0.498039215803146,0.498039215803146);
#336=AXIS2_PLACEMENT_3D('',#469,#470,#471);
#337=DRAUGHTING_PRE_DEFINED_CURVE_FONT('continuous');
#338=COLOUR_RGB('',0.800000011920929,0.800000011920929,0.800000011920929);
#339=CARTESIAN_POINT('',(-8.26603165798336E-016,6.74995,-65.09));
#340=VECTOR('',#472,1.0);
#341=SURFACE_SIDE_STYLE('',(#473));
#342=EDGE_LOOP('',(#474,#475));
#343=EDGE_LOOP('',(#476,#477));
#344=AXIS2_PLACEMENT_3D('',#478,#479,#480);
#345=SURFACE_SIDE_STYLE('',(#481));
#346=EDGE_LOOP('',(#482,#483));
#347=AXIS2_PLACEMENT_3D('',#484,#485,#486);
#348=DRAUGHTING_PRE_DEFINED_CURVE_FONT('continuous');
#349=COLOUR_RGB('',0.498039215803146,0.498039215803146,0.498039215803146);
#350=AXIS2_PLACEMENT_3D('',#487,#488,#489);
#351=SURFACE_SIDE_STYLE('',(#490));
#352=EDGE_LOOP('',(#491,#492,#493,#494));
#353=AXIS2_PLACEMENT_3D('',#495,#496,#497);
#354=SURFACE_SIDE_STYLE('',(#498));
#355=EDGE_LOOP('',(#499,#500,#501));
#356=AXIS2_PLACEMENT_3D('',#502,#503,#504);
#357=SURFACE_SIDE_STYLE('',(#505));
#358=EDGE_LOOP('',(#506,#507,#508,#509));
#359=AXIS2_PLACEMENT_3D('',#510,#511,#512);
#360=PRE_DEFINED_MARKER('');
#361=COLOUR_RGB('',0.800000011920929,0.800000011920929,0.800000011920929);
#362=PRE_DEFINED_MARKER('');
#363=COLOUR_RGB('',0.800000011920929,0.800000011920929,0.800000011920929);
#364=DRAUGHTING_PRE_DEFINED_CURVE_FONT('continuous');
#365=COLOUR_RGB('',0.800000011920929,0.800000011920929,0.800000011920929);
#366=AXIS2_PLACEMENT_3D('',#513,#514,#515);
#367=SURFACE_SIDE_STYLE('',(#516));
#368=PRE_DEFINED_MARKER('');
#369=COLOUR_RGB('',0.498039215803146,0.498039215803146,0.498039215803146);
#370=DRAUGHTING_PRE_DEFINED_CURVE_FONT('continuous');
#371=COLOUR_RGB('',0.800000011920929,0.800000011920929,0.800000011920929);
#372=AXIS2_PLACEMENT_3D('',#517,#518,#519);
#373=DRAUGHTING_PRE_DEFINED_CURVE_FONT('continuous');
#374=COLOUR_RGB('',0.800000011920929,0.800000011920929,0.800000011920929);
#375=CARTESIAN_POINT('',(8.26603165798336E-016,-6.74995,-65.09));
#376=VECTOR('',#520,1.0);
#377=PRE_DEFINED_MARKER('');
#378=COLOUR_RGB('',0.800000011920929,0.800000011920929,0.800000011920929);
#379=PRE_DEFINED_MARKER('');
#380=COLOUR_RGB('',0.498039215803146,0.498039215803146,0.498039215803146);
#381=SURFACE_SIDE_STYLE('',(#521));
#382=EDGE_LOOP('',(#522,#523));
#383=AXIS2_PLACEMENT_3D('',#524,#525,#526);
#384=SURFACE_SIDE_STYLE('',(#527));
#385=EDGE_LOOP('',(#528,#529));
#386=AXIS2_PLACEMENT_3D('',#530,#531,#532);
#387=PRE_DEFINED_MARKER('');
#388=COLOUR_RGB('',0.498039215803146,0.498039215803146,0.498039215803146);
#389=DRAUGHTING_PRE_DEFINED_CURVE_FONT('continuous');
#390=COLOUR_RGB('',0.498039215803146,0.498039215803146,0.498039215803146);
#391=CARTESIAN_POINT('',(-7.7762503467721E-016,6.35,-19.037));
#392=VECTOR('',#533,1.0);
#393=SURFACE_SIDE_STYLE('',(#534));
#394=EDGE_LOOP('',(#535,#536,#537,#538));
#395=AXIS2_PLACEMENT_3D('',#539,#540,#541);
#396=DRAUGHTING_PRE_DEFINED_CURVE_FONT('continuous');
#397=COLOUR_RGB('',0.800000011920929,0.800000011920929,0.800000011920929);
#398=CARTESIAN_POINT('',(-4.12992369794828E-016,3.37245,-50.795));
#399=VECTOR('',#542,1.0);
#400=DRAUGHTING_PRE_DEFINED_CURVE_FONT('continuous');
#401=COLOUR_RGB('',0.800000011920929,0.800000011920929,0.800000011920929);
#402=AXIS2_PLACEMENT_3D('',#543,#544,#545);
#403=DRAUGHTING_PRE_DEFINED_CURVE_FONT('continuous');
#404=COLOUR_RGB('',0.800000011920929,0.800000011920929,0.800000011920929);
#405=CARTESIAN_POINT('',(4.12992369794828E-016,-3.37245,-50.795));
#406=VECTOR('',#546,1.0);
#407=PRE_DEFINED_MARKER('');
#408=COLOUR_RGB('',0.498039215803146,0.498039215803146,0.498039215803146);
#409=SURFACE_SIDE_STYLE('',(#547));
#410=PRE_DEFINED_MARKER('');
#411=COLOUR_RGB('',0.800000011920929,0.800000011920929,0.800000011920929);
#412=SURFACE_SIDE_STYLE('',(#548));
#413=EDGE_LOOP('',(#549,#550,#551));
#414=AXIS2_PLACEMENT_3D('',#552,#553,#554);
#415=SURFACE_SIDE_STYLE('',(#555));
#416=EDGE_LOOP('',(#556,#557,#558,#559));
#417=AXIS2_PLACEMENT_3D('',#560,#561,#562);
#418=PRE_DEFINED_MARKER('');
#419=COLOUR_RGB('',0.498039215803146,0.498039215803146,0.498039215803146);
#420=DRAUGHTING_PRE_DEFINED_CURVE_FONT('continuous');
#421=COLOUR_RGB('',0.498039215803146,0.498039215803146,0.498039215803146);
#422=AXIS2_PLACEMENT_3D('',#563,#564,#565);
#423=PRE_DEFINED_MARKER('');
#424=COLOUR_RGB('',0.800000011920929,0.800000011920929,0.800000011920929);
#425=DRAUGHTING_PRE_DEFINED_CURVE_FONT('continuous');
#426=COLOUR_RGB('',0.498039215803146,0.498039215803146,0.498039215803146);
#427=AXIS2_PLACEMENT_3D('',#566,#567,#568);
#428=DRAUGHTING_PRE_DEFINED_CURVE_FONT('continuous');
#429=COLOUR_RGB('',0.800000011920929,0.800000011920929,0.800000011920929);
#430=AXIS2_PLACEMENT_3D('',#569,#570,#571);
#431=DRAUGHTING_PRE_DEFINED_CURVE_FONT('continuous');
#432=COLOUR_RGB('',0.498039215803146,0.498039215803146,0.498039215803146);
#433=AXIS2_PLACEMENT_3D('',#572,#573,#574);
#434=PRE_DEFINED_MARKER('');
#435=COLOUR_RGB('',0.800000011920929,0.800000011920929,0.800000011920929);
#436=PRE_DEFINED_MARKER('');
#437=COLOUR_RGB('',0.800000011920929,0.800000011920929,0.800000011920929);
#438=PRE_DEFINED_MARKER('');
#439=COLOUR_RGB('',0.498039215803146,0.498039215803146,0.498039215803146);
#440=DRAUGHTING_PRE_DEFINED_CURVE_FONT('continuous');
#441=COLOUR_RGB('',0.498039215803146,0.498039215803146,0.498039215803146);
#442=AXIS2_PLACEMENT_3D('',#575,#576,#577);
#444=SURFACE_STYLE_FILL_AREA(#578);
#445=ORIENTED_EDGE('',*,*,#90,.F.);
#446=ORIENTED_EDGE('',*,*,#156,.T.);
#447=ORIENTED_EDGE('',*,*,#86,.F.);
#448=ORIENTED_EDGE('',*,*,#94,.F.);
#449=CARTESIAN_POINT('',(0.0,0.0,-0.387000000000008));
#450=DIRECTION('',(0.0,-0.0,-1.0));
#451=DIRECTION('',(0.0,1.0,0.0));
#452=CARTESIAN_POINT('',(0.0,0.0,-50.79));
#453=DIRECTION('',(0.0,0.0,-1.0));
#454=DIRECTION('',(0.0,1.0,0.0));
#455=SURFACE_STYLE_FILL_AREA(#579);
#456=ORIENTED_EDGE('',*,*,#90,.T.);
#457=ORIENTED_EDGE('',*,*,#164,.F.);
#458=ORIENTED_EDGE('',*,*,#86,.T.);
#459=ORIENTED_EDGE('',*,*,#172,.T.);
#460=CARTESIAN_POINT('',(0.0,0.0,-0.387000000000008));
#461=DIRECTION('',(0.0,-0.0,-1.0));
#462=DIRECTION('',(0.0,1.0,0.0));
#463=DIRECTION('',(-6.12303176911191E-017,0.500000000000002,0.866025403784438));
#464=CARTESIAN_POINT('',(0.0,0.0,-79.39));
#465=DIRECTION('',(0.0,0.0,-1.0));
#466=DIRECTION('',(0.0,1.0,0.0));
#467=DIRECTION('',(-6.12303176911191E-017,0.500000000000002,-0.866025403784438));
#468=DIRECTION('',(-0.0,-0.0,1.0));
#469=CARTESIAN_POINT('',(0.0,0.0,-0.784000000000006));
#470=DIRECTION('',(0.0,0.0,-1.0));
#471=DIRECTION('',(0.0,1.0,0.0));
#472=DIRECTION('',(-4.28184039794419E-022,3.49650349647397E-006,-0.999999999993887));
#473=SURFACE_STYLE_FILL_AREA(#580);
#474=ORIENTED_EDGE('',*,*,#82,.F.);
#475=ORIENTED_EDGE('',*,*,#114,.F.);
#476=ORIENTED_EDGE('',*,*,#162,.T.);
#477=ORIENTED_EDGE('',*,*,#120,.T.);
#478=CARTESIAN_POINT('',(0.0,6.7474,-50.79));
#479=DIRECTION('',(-0.0,0.0,1.0));
#480=DIRECTION('',(0.0,-1.0,0.0));
#481=SURFACE_STYLE_FILL_AREA(#581);
#482=ORIENTED_EDGE('',*,*,#156,.F.);
#483=ORIENTED_EDGE('',*,*,#172,.F.);
#484=CARTESIAN_POINT('',(0.0,2.94579194313172,0.00999999999999091));
#485=DIRECTION('',(-0.0,0.0,1.0));
#486=DIRECTION('',(0.0,-1.0,0.0));
#487=CARTESIAN_POINT('',(0.0,0.0,-50.79));
#488=DIRECTION('',(0.0,0.0,-1.0));
#489=DIRECTION('',(0.0,-1.0,0.0));
#490=SURFACE_STYLE_FILL_AREA(#582);
#491=ORIENTED_EDGE('',*,*,#134,.T.);
#492=ORIENTED_EDGE('',*,*,#160,.F.);
#493=ORIENTED_EDGE('',*,*,#92,.T.);
#494=ORIENTED_EDGE('',*,*,#164,.T.);
#495=CARTESIAN_POINT('',(0.0,0.0,-19.037));
#496=DIRECTION('',(-0.0,-0.0,1.0));
#497=DIRECTION('',(0.0,1.0,0.0));
#498=SURFACE_STYLE_FILL_AREA(#583);
#499=ORIENTED_EDGE('',*,*,#142,.F.);
#500=ORIENTED_EDGE('',*,*,#138,.F.);
#501=ORIENTED_EDGE('',*,*,#120,.F.);
#502=CARTESIAN_POINT('',(0.0,0.0,-50.795));
#503=DIRECTION('',(-0.0,-0.0,1.0));
#504=DIRECTION('',(0.0,1.0,0.0));
#505=SURFACE_STYLE_FILL_AREA(#584);
#506=ORIENTED_EDGE('',*,*,#134,.F.);
#507=ORIENTED_EDGE('',*,*,#94,.T.);
#508=ORIENTED_EDGE('',*,*,#92,.F.);
#509=ORIENTED_EDGE('',*,*,#102,.F.);
#510=CARTESIAN_POINT('',(0.0,0.0,-19.037));
#511=DIRECTION('',(-0.0,-0.0,1.0));
#512=DIRECTION('',(0.0,1.0,0.0));
#513=CARTESIAN_POINT('',(0.0,0.0,-50.79));
#514=DIRECTION('',(0.0,0.0,-1.0));
#515=DIRECTION('',(0.0,1.0,0.0));
#516=SURFACE_STYLE_FILL_AREA(#585);
#517=CARTESIAN_POINT('',(0.0,0.0,-50.79));
#518=DIRECTION('',(0.0,0.0,-1.0));
#519=DIRECTION('',(0.0,1.0,0.0));
#520=DIRECTION('',(-4.28184039794419E-022,3.49650349647397E-006,0.999999999993887));
#521=SURFACE_STYLE_FILL_AREA(#586);
#522=ORIENTED_EDGE('',*,*,#160,.T.);
#523=ORIENTED_EDGE('',*,*,#102,.T.);
#524=CARTESIAN_POINT('',(0.0,0.0,-50.79));
#525=DIRECTION('',(0.0,0.0,-1.0));
#526=DIRECTION('',(0.0,-1.0,0.0));
#527=SURFACE_STYLE_FILL_AREA(#587);
#528=ORIENTED_EDGE('',*,*,#140,.T.);
#529=ORIENTED_EDGE('',*,*,#88,.T.);
#530=CARTESIAN_POINT('',(0.0,3.3725,-79.39));
#531=DIRECTION('',(0.0,0.0,-1.0));
#532=DIRECTION('',(0.0,1.0,0.0));
#533=DIRECTION('',(0.0,0.0,-1.0));
#534=SURFACE_STYLE_FILL_AREA(#588);
#535=ORIENTED_EDGE('',*,*,#96,.F.);
#536=ORIENTED_EDGE('',*,*,#82,.T.);
#537=ORIENTED_EDGE('',*,*,#122,.F.);
#538=ORIENTED_EDGE('',*,*,#140,.F.);
#539=CARTESIAN_POINT('',(0.0,0.0,-65.09));
#540=DIRECTION('',(0.0,-0.0,-1.0));
#541=DIRECTION('',(0.0,1.0,0.0));
#542=DIRECTION('',(1.22460500791626E-016,-0.999998900947957,-0.00148260003995352));
#543=CARTESIAN_POINT('',(0.0,0.0,-79.39));
#544=DIRECTION('',(0.0,0.0,-1.0));
#545=DIRECTION('',(0.0,1.0,0.0));
#546=DIRECTION('',(1.22460500791626E-016,-0.999998900947957,0.00148260003995352));
#547=SURFACE_STYLE_FILL_AREA(#589);
#548=SURFACE_STYLE_FILL_AREA(#590);
#549=ORIENTED_EDGE('',*,*,#142,.T.);
#550=ORIENTED_EDGE('',*,*,#162,.F.);
#551=ORIENTED_EDGE('',*,*,#138,.T.);
#552=CARTESIAN_POINT('',(0.0,0.0,-50.795));
#553=DIRECTION('',(-0.0,-0.0,1.0));
#554=DIRECTION('',(0.0,1.0,0.0));
#555=SURFACE_STYLE_FILL_AREA(#591);
#556=ORIENTED_EDGE('',*,*,#96,.T.);
#557=ORIENTED_EDGE('',*,*,#88,.F.);
#558=ORIENTED_EDGE('',*,*,#122,.T.);
#559=ORIENTED_EDGE('',*,*,#114,.T.);
#560=CARTESIAN_POINT('',(0.0,0.0,-65.09));
#561=DIRECTION('',(0.0,-0.0,-1.0));
#562=DIRECTION('',(0.0,1.0,0.0));
#563=CARTESIAN_POINT('',(0.0,0.0,0.00999999999999091));
#564=DIRECTION('',(0.0,0.0,-1.0));
#565=DIRECTION('',(0.0,1.0,0.0));
#566=CARTESIAN_POINT('',(0.0,0.0,-50.79));
#567=DIRECTION('',(0.0,0.0,-1.0));
#568=DIRECTION('',(0.0,-1.0,0.0));
#569=CARTESIAN_POINT('',(0.0,0.0,-50.79));
#570=DIRECTION('',(0.0,0.0,-1.0));
#571=DIRECTION('',(0.0,1.0,0.0));
#572=CARTESIAN_POINT('',(0.0,0.0,-0.784000000000006));
#573=DIRECTION('',(0.0,0.0,-1.0));
#574=DIRECTION('',(0.0,1.0,0.0));
#575=CARTESIAN_POINT('',(0.0,0.0,0.00999999999999091));
#576=DIRECTION('',(0.0,0.0,-1.0));
#577=DIRECTION('',(0.0,1.0,0.0));
#578=FILL_AREA_STYLE('',(#592));
#579=FILL_AREA_STYLE('',(#593));
#580=FILL_AREA_STYLE('',(#594));
#581=FILL_AREA_STYLE('',(#595));
#582=FILL_AREA_STYLE('',(#596));
#583=FILL_AREA_STYLE('',(#597));
#584=FILL_AREA_STYLE('',(#598));
#585=FILL_AREA_STYLE('',(#599));
#586=FILL_AREA_STYLE('',(#600));
#587=FILL_AREA_STYLE('',(#601));
#588=FILL_AREA_STYLE('',(#602));
#589=FILL_AREA_STYLE('',(#603));
#590=FILL_AREA_STYLE('',(#604));
#591=FILL_AREA_STYLE('',(#605));
#592=FILL_AREA_STYLE_COLOUR('',#606);
#593=FILL_AREA_STYLE_COLOUR('',#607);
#594=FILL_AREA_STYLE_COLOUR('',#608);
#595=FILL_AREA_STYLE_COLOUR('',#609);
#596=FILL_AREA_STYLE_COLOUR('',#610);
#597=FILL_AREA_STYLE_COLOUR('',#611);
#598=FILL_AREA_STYLE_COLOUR('',#612);
#599=FILL_AREA_STYLE_COLOUR('',#613);
#600=FILL_AREA_STYLE_COLOUR('',#614);
#601=FILL_AREA_STYLE_COLOUR('',#615);
#602=FILL_AREA_STYLE_COLOUR('',#616);
#603=FILL_AREA_STYLE_COLOUR('',#617);
#604=FILL_AREA_STYLE_COLOUR('',#618);
#605=FILL_AREA_STYLE_COLOUR('',#619);
#606=COLOUR_RGB('',0.498039215803146,0.498039215803146,0.498039215803146);
#607=COLOUR_RGB('',0.498039215803146,0.498039215803146,0.498039215803146);
#608=COLOUR_RGB('',0.800000011920929,0.800000011920929,0.800000011920929);
#609=COLOUR_RGB('',0.498039215803146,0.498039215803146,0.498039215803146);
#610=COLOUR_RGB('',0.498039215803146,0.498039215803146,0.498039215803146);
#611=COLOUR_RGB('',0.800000011920929,0.800000011920929,0.800000011920929);
#612=COLOUR_RGB('',0.498039215803146,0.498039215803146,0.498039215803146);
#613=COLOUR_RGB('',0.800000011920929,0.800000011920929,0.800000011920929);
#614=COLOUR_RGB('',0.498039215803146,0.498039215803146,0.498039215803146);
#615=COLOUR_RGB('',0.800000011920929,0.800000011920929,0.800000011920929);
#616=COLOUR_RGB('',0.800000011920929,0.800000011920929,0.800000011920929);
#617=COLOUR_RGB('',0.800000011920929,0.800000011920929,0.800000011920929);
#618=COLOUR_RGB('',0.800000011920929,0.800000011920929,0.800000011920929);
#619=COLOUR_RGB('',0.800000011920929,0.800000011920929,0.800000011920929);
#620=AXIS2_PLACEMENT_3D('PCS',#621,#622,#623);
#621=CARTESIAN_POINT('',(0.0,0.0,0.0));
#622=DIRECTION('',(0.0,0.0,1.0));
#623=DIRECTION('',(1.0,0.0,0.0));
#624=AXIS2_PLACEMENT_3D('CIP',#625,#626,#627);
#625=CARTESIAN_POINT('',(0.0,0.0,-79.4));
#626=DIRECTION('',(0.0,0.0,1.0));
#627=DIRECTION('',(1.0,0.0,0.0));
#628=AXIS2_PLACEMENT_3D('CRP',#629,#630,#631);
#629=CARTESIAN_POINT('',(-6.75,0.0,-79.4));
#630=DIRECTION('',(0.0,0.0,1.0));
#631=DIRECTION('',(1.0,0.0,0.0));
#632=AXIS2_PLACEMENT_3D('MCS',#633,#634,#635);
#633=CARTESIAN_POINT('',(0.0,0.0,-37.3));
#634=DIRECTION('',(0.0,0.0,1.0));
#635=DIRECTION('',(1.0,0.0,0.0));
#636=CONSTRUCTIVE_GEOMETRY_REPRESENTATION_RELATIONSHIP('coordinate systems',$,#65,#637);
#637=CONSTRUCTIVE_GEOMETRY_REPRESENTATION('coordinate systems',(#620,#624,#628,#632),#10);
ENDSEC;
END-ISO-10303-21;
