ISO-10303-21;
HEADER;
FILE_DESCRIPTION(('no description'),'unknown implementation level');
FILE_NAME('solidaUsPpIfy8NSiRFGMo2cPZQa1Kt8_1.STP','  ',('CIMSOURCE GmbH'),('CADClick - KiM GmbH - www.kimweb.de'),'unknown preprocess','ACIS','unknown authorization');
FILE_SCHEMA(('automotive_design'));
ENDSEC;
DATA;
#1=MECHANICAL_DESIGN_GEOMETRIC_PRESENTATION_REPRESENTATION(' ',(#14,#15,#16,#17,#18,#19,#20,#21,#22,#23,#24,#25,#26,#27,#28,#29,#30,#31,#32,#33,#34,#35,#36,#37,#38,#39,#40,#41,#42,#43,#44,#45,#46,#47,#48,#49,#50,#51,#52,#53,#54,#55,#56,#57,#58,#59,#60),#10);
#2=PRODUCT_DEFINITION_CONTEXT('',#61,'design');
#3=APPLICATION_PROTOCOL_DEFINITION('INTERNATIONAL STANDARD','automotive_design',1994,#61);
#4=PRODUCT_CATEGORY_RELATIONSHIP('NONE','NONE',#62,#63);
#5=SHAPE_DEFINITION_REPRESENTATION(#64,#65);
#6=PRODUCT_DEFINITION_CONTEXT('',#66,'design');
#7=APPLICATION_PROTOCOL_DEFINITION('INTERNATIONAL STANDARD','automotive_design',1994,#66);
#8=PRODUCT_CATEGORY_RELATIONSHIP('NONE','NONE',#67,#68);
#9=SHAPE_DEFINITION_REPRESENTATION(#69,#70);
#10= (GEOMETRIC_REPRESENTATION_CONTEXT(3)GLOBAL_UNCERTAINTY_ASSIGNED_CONTEXT((#73))GLOBAL_UNIT_ASSIGNED_CONTEXT((#75,#76,#77))REPRESENTATION_CONTEXT('NONE','WORKSPACE'));
#14=STYLED_ITEM('',(#79),#80);
#15=STYLED_ITEM('',(#81),#82);
#16=STYLED_ITEM('',(#83),#84);
#17=STYLED_ITEM('',(#85),#86);
#18=STYLED_ITEM('',(#87),#88);
#19=STYLED_ITEM('',(#89),#90);
#20=STYLED_ITEM('',(#91),#92);
#21=STYLED_ITEM('',(#93),#94);
#22=STYLED_ITEM('',(#95),#96);
#23=STYLED_ITEM('',(#97),#98);
#24=STYLED_ITEM('',(#99),#100);
#25=STYLED_ITEM('',(#101),#102);
#26=STYLED_ITEM('',(#103),#104);
#27=STYLED_ITEM('',(#105),#106);
#28=STYLED_ITEM('',(#107),#108);
#29=STYLED_ITEM('',(#109),#110);
#30=STYLED_ITEM('',(#111),#112);
#31=STYLED_ITEM('',(#113),#114);
#32=STYLED_ITEM('',(#115),#116);
#33=STYLED_ITEM('',(#117),#118);
#34=STYLED_ITEM('',(#119),#120);
#35=STYLED_ITEM('',(#121),#122);
#36=STYLED_ITEM('',(#123),#124);
#37=STYLED_ITEM('',(#125),#126);
#38=STYLED_ITEM('',(#127),#128);
#39=STYLED_ITEM('',(#129),#130);
#40=STYLED_ITEM('',(#131),#132);
#41=STYLED_ITEM('',(#133),#134);
#42=STYLED_ITEM('',(#135),#136);
#43=STYLED_ITEM('',(#137),#138);
#44=STYLED_ITEM('',(#139),#140);
#45=STYLED_ITEM('',(#141),#142);
#46=STYLED_ITEM('',(#143),#144);
#47=STYLED_ITEM('',(#145),#146);
#48=STYLED_ITEM('',(#147),#148);
#49=STYLED_ITEM('',(#149),#150);
#50=STYLED_ITEM('',(#151),#152);
#51=STYLED_ITEM('',(#153),#154);
#52=STYLED_ITEM('',(#155),#156);
#53=STYLED_ITEM('',(#157),#158);
#54=STYLED_ITEM('',(#159),#160);
#55=STYLED_ITEM('',(#161),#162);
#56=STYLED_ITEM('',(#163),#164);
#57=STYLED_ITEM('',(#165),#166);
#58=STYLED_ITEM('',(#167),#168);
#59=STYLED_ITEM('',(#169),#170);
#60=STYLED_ITEM('',(#171),#172);
#61=APPLICATION_CONTEXT(' ');
#62=PRODUCT_CATEGORY('part','NONE');
#63=PRODUCT_RELATED_PRODUCT_CATEGORY('detail',' ',(#173));
#64=PRODUCT_DEFINITION_SHAPE('NONE','NONE',#174);
#65=ADVANCED_BREP_SHAPE_REPRESENTATION('1',(#118,#175),#10);
#66=APPLICATION_CONTEXT(' ');
#67=PRODUCT_CATEGORY('part','NONE');
#68=PRODUCT_RELATED_PRODUCT_CATEGORY('detail',' ',(#176));
#69=PRODUCT_DEFINITION_SHAPE('NONE','NONE',#177);
#70=ADVANCED_BREP_SHAPE_REPRESENTATION('2',(#80,#178),#10);
#73=UNCERTAINTY_MEASURE_WITH_UNIT(LENGTH_MEASURE(1.0E-006),#75,'','');
#75= (CONVERSION_BASED_UNIT('MILLIMETRE',#181)LENGTH_UNIT()NAMED_UNIT(#184));
#76= (NAMED_UNIT(#186)PLANE_ANGLE_UNIT()SI_UNIT($,.RADIAN.));
#77= (NAMED_UNIT(#186)SOLID_ANGLE_UNIT()SI_UNIT($,.STERADIAN.));
#79=PRESENTATION_STYLE_ASSIGNMENT((#192));
#80=MANIFOLD_SOLID_BREP('2',#193);
#81=PRESENTATION_STYLE_ASSIGNMENT((#194));
#82=ADVANCED_FACE('',(#195),#196,.T.);
#83=PRESENTATION_STYLE_ASSIGNMENT((#197));
#84=VERTEX_POINT('',#198);
#85=PRESENTATION_STYLE_ASSIGNMENT((#199));
#86=ADVANCED_FACE('',(#200),#201,.T.);
#87=PRESENTATION_STYLE_ASSIGNMENT((#202));
#88=VERTEX_POINT('',#203);
#89=PRESENTATION_STYLE_ASSIGNMENT((#204));
#90=VERTEX_POINT('',#205);
#91=PRESENTATION_STYLE_ASSIGNMENT((#206));
#92=EDGE_CURVE('',#100,#90,#207,.T.);
#93=PRESENTATION_STYLE_ASSIGNMENT((#208));
#94=ADVANCED_FACE('',(#209),#210,.T.);
#95=PRESENTATION_STYLE_ASSIGNMENT((#211));
#96=EDGE_CURVE('',#154,#124,#212,.T.);
#97=PRESENTATION_STYLE_ASSIGNMENT((#213));
#98=VERTEX_POINT('',#214);
#99=PRESENTATION_STYLE_ASSIGNMENT((#215));
#100=VERTEX_POINT('',#216);
#101=PRESENTATION_STYLE_ASSIGNMENT((#217));
#102=EDGE_CURVE('',#138,#120,#218,.T.);
#103=PRESENTATION_STYLE_ASSIGNMENT((#219));
#104=EDGE_CURVE('',#84,#138,#220,.T.);
#105=PRESENTATION_STYLE_ASSIGNMENT((#221));
#106=ADVANCED_FACE('',(#222),#223,.F.);
#107=PRESENTATION_STYLE_ASSIGNMENT((#224));
#108=EDGE_CURVE('',#150,#124,#225,.T.);
#109=PRESENTATION_STYLE_ASSIGNMENT((#226));
#110=ADVANCED_FACE('',(#227),#228,.T.);
#111=PRESENTATION_STYLE_ASSIGNMENT((#229));
#112=ADVANCED_FACE('',(#230),#231,.T.);
#113=PRESENTATION_STYLE_ASSIGNMENT((#232));
#114=EDGE_CURVE('',#100,#98,#233,.T.);
#115=PRESENTATION_STYLE_ASSIGNMENT((#234));
#116=EDGE_CURVE('',#88,#84,#235,.T.);
#117=PRESENTATION_STYLE_ASSIGNMENT((#236));
#118=MANIFOLD_SOLID_BREP('1',#237);
#119=PRESENTATION_STYLE_ASSIGNMENT((#238));
#120=VERTEX_POINT('',#239);
#121=PRESENTATION_STYLE_ASSIGNMENT((#240));
#122=EDGE_CURVE('',#84,#88,#241,.T.);
#123=PRESENTATION_STYLE_ASSIGNMENT((#242));
#124=VERTEX_POINT('',#243);
#125=PRESENTATION_STYLE_ASSIGNMENT((#244));
#126=ADVANCED_FACE('',(#245),#246,.T.);
#127=PRESENTATION_STYLE_ASSIGNMENT((#247));
#128=ADVANCED_FACE('',(#248),#249,.F.);
#129=PRESENTATION_STYLE_ASSIGNMENT((#250));
#130=EDGE_CURVE('',#90,#100,#251,.T.);
#131=PRESENTATION_STYLE_ASSIGNMENT((#252));
#132=EDGE_CURVE('',#150,#154,#253,.T.);
#133=PRESENTATION_STYLE_ASSIGNMENT((#254));
#134=EDGE_CURVE('',#166,#98,#255,.T.);
#135=PRESENTATION_STYLE_ASSIGNMENT((#256));
#136=VERTEX_POINT('',#257);
#137=PRESENTATION_STYLE_ASSIGNMENT((#258));
#138=VERTEX_POINT('',#259);
#139=PRESENTATION_STYLE_ASSIGNMENT((#260));
#140=EDGE_CURVE('',#136,#138,#261,.T.);
#141=PRESENTATION_STYLE_ASSIGNMENT((#262));
#142=EDGE_CURVE('',#138,#136,#263,.T.);
#143=PRESENTATION_STYLE_ASSIGNMENT((#264));
#144=EDGE_CURVE('',#124,#150,#265,.T.);
#145=PRESENTATION_STYLE_ASSIGNMENT((#266));
#146=VERTEX_POINT('',#267);
#147=PRESENTATION_STYLE_ASSIGNMENT((#268));
#148=ADVANCED_FACE('',(#269),#270,.T.);
#149=PRESENTATION_STYLE_ASSIGNMENT((#271));
#150=VERTEX_POINT('',#272);
#151=PRESENTATION_STYLE_ASSIGNMENT((#273));
#152=EDGE_CURVE('',#120,#146,#274,.T.);
#153=PRESENTATION_STYLE_ASSIGNMENT((#275));
#154=VERTEX_POINT('',#276);
#155=PRESENTATION_STYLE_ASSIGNMENT((#277));
#156=EDGE_CURVE('',#98,#166,#278,.T.);
#157=PRESENTATION_STYLE_ASSIGNMENT((#279));
#158=EDGE_CURVE('',#166,#90,#280,.T.);
#159=PRESENTATION_STYLE_ASSIGNMENT((#281));
#160=ADVANCED_FACE('',(#282),#283,.T.);
#161=PRESENTATION_STYLE_ASSIGNMENT((#284));
#162=EDGE_CURVE('',#136,#88,#285,.T.);
#163=PRESENTATION_STYLE_ASSIGNMENT((#286));
#164=ADVANCED_FACE('',(#287),#288,.T.);
#165=PRESENTATION_STYLE_ASSIGNMENT((#289));
#166=VERTEX_POINT('',#290);
#167=PRESENTATION_STYLE_ASSIGNMENT((#291));
#168=EDGE_CURVE('',#146,#136,#292,.T.);
#169=PRESENTATION_STYLE_ASSIGNMENT((#293));
#170=EDGE_CURVE('',#146,#120,#294,.T.);
#171=PRESENTATION_STYLE_ASSIGNMENT((#295));
#172=ADVANCED_FACE('',(#296,#297),#298,.T.);
#173=PRODUCT('1','1','PART-1-DESC',(#299));
#174=PRODUCT_DEFINITION('NONE','NONE',#300,#2);
#175=AXIS2_PLACEMENT_3D('',#301,#302,#303);
#176=PRODUCT('2','2','PART-2-DESC',(#304));
#177=PRODUCT_DEFINITION('NONE','NONE',#305,#6);
#178=AXIS2_PLACEMENT_3D('',#306,#307,#308);
#181=LENGTH_MEASURE_WITH_UNIT(LENGTH_MEASURE(1.0),#309);
#184=DIMENSIONAL_EXPONENTS(1.0,0.0,0.0,0.0,0.0,0.0,0.0);
#186=DIMENSIONAL_EXPONENTS(0.0,0.0,0.0,0.0,0.0,0.0,0.0);
#192=SURFACE_STYLE_USAGE(.BOTH.,#310);
#193=CLOSED_SHELL('',(#86,#112,#82,#148,#164,#160));
#194=SURFACE_STYLE_USAGE(.BOTH.,#311);
#195=FACE_OUTER_BOUND('',#312,.T.);
#196=PLANE('',#313);
#197=POINT_STYLE(' ',#314,POSITIVE_LENGTH_MEASURE(1.0E-006),#315);
#198=CARTESIAN_POINT('',(0.0,-6.35,-50.79));
#199=SURFACE_STYLE_USAGE(.BOTH.,#316);
#200=FACE_OUTER_BOUND('',#317,.T.);
#201=CYLINDRICAL_SURFACE('',#318,6.35);
#202=POINT_STYLE(' ',#319,POSITIVE_LENGTH_MEASURE(1.0E-006),#320);
#203=CARTESIAN_POINT('',(-7.7762503467721E-016,6.35,-50.79));
#204=POINT_STYLE(' ',#321,POSITIVE_LENGTH_MEASURE(1.0E-006),#322);
#205=CARTESIAN_POINT('',(8.87827360457685E-016,-7.2499,-50.79));
#206=CURVE_STYLE('',#323,POSITIVE_LENGTH_MEASURE(1.0E-006),#324);
#207=CIRCLE('',#325,7.2499);
#208=SURFACE_STYLE_USAGE(.BOTH.,#326);
#209=FACE_OUTER_BOUND('',#327,.T.);
#210=CONICAL_SURFACE('',#328,7.24995,3.4965034964811E-006);
#211=CURVE_STYLE('',#329,POSITIVE_LENGTH_MEASURE(1.0E-006),#330);
#212=LINE('',#331,#332);
#213=POINT_STYLE(' ',#333,POSITIVE_LENGTH_MEASURE(1.0E-006),#334);
#214=CARTESIAN_POINT('',(0.0,7.25,-79.39));
#215=POINT_STYLE(' ',#335,POSITIVE_LENGTH_MEASURE(1.0E-006),#336);
#216=CARTESIAN_POINT('',(0.0,7.2499,-50.79));
#217=CURVE_STYLE('',#337,POSITIVE_LENGTH_MEASURE(1.0E-006),#338);
#218=LINE('',#339,#340);
#219=CURVE_STYLE('',#341,POSITIVE_LENGTH_MEASURE(1.0E-006),#342);
#220=LINE('',#343,#344);
#221=SURFACE_STYLE_USAGE(.BOTH.,#345);
#222=FACE_OUTER_BOUND('',#346,.T.);
#223=CONICAL_SURFACE('',#347,3.62245,1.56941604637013);
#224=CURVE_STYLE('',#348,POSITIVE_LENGTH_MEASURE(1.0E-006),#349);
#225=CIRCLE('',#350,7.2449);
#226=SURFACE_STYLE_USAGE(.BOTH.,#351);
#227=FACE_OUTER_BOUND('',#352,.T.);
#228=PLANE('',#353);
#229=SURFACE_STYLE_USAGE(.BOTH.,#354);
#230=FACE_OUTER_BOUND('',#355,.T.);
#231=CONICAL_SURFACE('',#356,6.12079194313172,0.523598775598301);
#232=CURVE_STYLE('',#357,POSITIVE_LENGTH_MEASURE(1.0E-006),#358);
#233=LINE('',#359,#360);
#234=CURVE_STYLE('',#361,POSITIVE_LENGTH_MEASURE(1.0E-006),#362);
#235=CIRCLE('',#363,6.35);
#236=SURFACE_STYLE_USAGE(.BOTH.,#364);
#237=CLOSED_SHELL('',(#94,#128,#106,#172,#126,#110));
#238=POINT_STYLE(' ',#365,POSITIVE_LENGTH_MEASURE(1.0E-006),#366);
#239=CARTESIAN_POINT('',(7.21487106119574E-016,-5.89158388626344,0.00999999999999091));
#240=CURVE_STYLE('',#367,POSITIVE_LENGTH_MEASURE(1.0E-006),#368);
#241=CIRCLE('',#369,6.35);
#242=POINT_STYLE(' ',#370,POSITIVE_LENGTH_MEASURE(1.0E-006),#371);
#243=CARTESIAN_POINT('',(8.87215057280774E-016,-7.2449,-50.79));
#244=SURFACE_STYLE_USAGE(.BOTH.,#372);
#245=FACE_OUTER_BOUND('',#373,.T.);
#246=CONICAL_SURFACE('',#374,7.24995,3.4965034964811E-006);
#247=SURFACE_STYLE_USAGE(.BOTH.,#375);
#248=FACE_OUTER_BOUND('',#376,.T.);
#249=CONICAL_SURFACE('',#377,3.62245,1.56941604637013);
#250=CURVE_STYLE('',#378,POSITIVE_LENGTH_MEASURE(1.0E-006),#379);
#251=CIRCLE('',#380,7.2499);
#252=CURVE_STYLE('',#381,POSITIVE_LENGTH_MEASURE(1.0E-006),#382);
#253=LINE('',#383,#384);
#254=CURVE_STYLE('',#385,POSITIVE_LENGTH_MEASURE(1.0E-006),#386);
#255=CIRCLE('',#387,7.25);
#256=POINT_STYLE(' ',#388,POSITIVE_LENGTH_MEASURE(1.0E-006),#389);
#257=CARTESIAN_POINT('',(0.0,6.35,-0.784000000000006));
#258=POINT_STYLE(' ',#390,POSITIVE_LENGTH_MEASURE(1.0E-006),#391);
#259=CARTESIAN_POINT('',(7.7762503467721E-016,-6.35,-0.784000000000006));
#260=CURVE_STYLE('',#392,POSITIVE_LENGTH_MEASURE(1.0E-006),#393);
#261=CIRCLE('',#394,6.35);
#262=CURVE_STYLE('',#395,POSITIVE_LENGTH_MEASURE(1.0E-006),#396);
#263=CIRCLE('',#397,6.35);
#264=CURVE_STYLE('',#398,POSITIVE_LENGTH_MEASURE(1.0E-006),#399);
#265=CIRCLE('',#400,7.2449);
#266=POINT_STYLE(' ',#401,POSITIVE_LENGTH_MEASURE(1.0E-006),#402);
#267=CARTESIAN_POINT('',(0.0,5.89158388626344,0.00999999999999091));
#268=SURFACE_STYLE_USAGE(.BOTH.,#403);
#269=FACE_OUTER_BOUND('',#404,.T.);
#270=PLANE('',#405);
#271=POINT_STYLE(' ',#406,POSITIVE_LENGTH_MEASURE(1.0E-006),#407);
#272=CARTESIAN_POINT('',(0.0,7.2449,-50.79));
#273=CURVE_STYLE('',#408,POSITIVE_LENGTH_MEASURE(1.0E-006),#409);
#274=CIRCLE('',#410,5.89158388626344);
#275=POINT_STYLE(' ',#411,POSITIVE_LENGTH_MEASURE(1.0E-006),#412);
#276=CARTESIAN_POINT('',(0.0,0.0,-50.8));
#277=CURVE_STYLE('',#413,POSITIVE_LENGTH_MEASURE(1.0E-006),#414);
#278=CIRCLE('',#415,7.25);
#279=CURVE_STYLE('',#416,POSITIVE_LENGTH_MEASURE(1.0E-006),#417);
#280=LINE('',#418,#419);
#281=SURFACE_STYLE_USAGE(.BOTH.,#420);
#282=FACE_OUTER_BOUND('',#421,.T.);
#283=CYLINDRICAL_SURFACE('',#422,6.35);
#284=CURVE_STYLE('',#423,POSITIVE_LENGTH_MEASURE(1.0E-006),#424);
#285=LINE('',#425,#426);
#286=SURFACE_STYLE_USAGE(.BOTH.,#427);
#287=FACE_OUTER_BOUND('',#428,.T.);
#288=CONICAL_SURFACE('',#429,6.12079194313172,0.523598775598301);
#289=POINT_STYLE(' ',#430,POSITIVE_LENGTH_MEASURE(1.0E-006),#431);
#290=CARTESIAN_POINT('',(8.87839606521223E-016,-7.25,-79.39));
#291=CURVE_STYLE('',#432,POSITIVE_LENGTH_MEASURE(1.0E-006),#433);
#292=LINE('',#434,#435);
#293=CURVE_STYLE('',#436,POSITIVE_LENGTH_MEASURE(1.0E-006),#437);
#294=CIRCLE('',#438,5.89158388626344);
#295=SURFACE_STYLE_USAGE(.BOTH.,#439);
#296=FACE_OUTER_BOUND('',#440,.T.);
#297=FACE_BOUND('',#441,.T.);
#298=PLANE('',#442);
#299=PRODUCT_CONTEXT('',#61,'mechanical');
#300=PRODUCT_DEFINITION_FORMATION_WITH_SPECIFIED_SOURCE(' ','NONE',#173,.NOT_KNOWN.);
#301=CARTESIAN_POINT('',(0.0,0.0,0.0));
#302=DIRECTION('',(0.0,0.0,1.0));
#303=DIRECTION('',(1.0,0.0,0.0));
#304=PRODUCT_CONTEXT('',#66,'mechanical');
#305=PRODUCT_DEFINITION_FORMATION_WITH_SPECIFIED_SOURCE(' ','NONE',#176,.NOT_KNOWN.);
#306=CARTESIAN_POINT('',(0.0,0.0,0.0));
#307=DIRECTION('',(0.0,0.0,1.0));
#308=DIRECTION('',(1.0,0.0,0.0));
#309= (NAMED_UNIT(#184)LENGTH_UNIT()SI_UNIT(.MILLI.,.METRE.));
#310=SURFACE_SIDE_STYLE('',(#444));
#311=SURFACE_SIDE_STYLE('',(#445));
#312=EDGE_LOOP('',(#446,#447));
#313=AXIS2_PLACEMENT_3D('',#448,#449,#450);
#314=PRE_DEFINED_MARKER('');
#315=COLOUR_RGB('',0.498039215803146,0.498039215803146,0.498039215803146);
#316=SURFACE_SIDE_STYLE('',(#451));
#317=EDGE_LOOP('',(#452,#453,#454,#455));
#318=AXIS2_PLACEMENT_3D('',#456,#457,#458);
#319=PRE_DEFINED_MARKER('');
#320=COLOUR_RGB('',0.498039215803146,0.498039215803146,0.498039215803146);
#321=PRE_DEFINED_MARKER('');
#322=COLOUR_RGB('',0.800000011920929,0.800000011920929,0.800000011920929);
#323=DRAUGHTING_PRE_DEFINED_CURVE_FONT('continuous');
#324=COLOUR_RGB('',0.800000011920929,0.800000011920929,0.800000011920929);
#325=AXIS2_PLACEMENT_3D('',#459,#460,#461);
#326=SURFACE_SIDE_STYLE('',(#462));
#327=EDGE_LOOP('',(#463,#464,#465,#466));
#328=AXIS2_PLACEMENT_3D('',#467,#468,#469);
#329=DRAUGHTING_PRE_DEFINED_CURVE_FONT('continuous');
#330=COLOUR_RGB('',0.800000011920929,0.800000011920929,0.800000011920929);
#331=CARTESIAN_POINT('',(4.43607528640387E-016,-3.62245,-50.795));
#332=VECTOR('',#470,1.0);
#333=PRE_DEFINED_MARKER('');
#334=COLOUR_RGB('',0.800000011920929,0.800000011920929,0.800000011920929);
#335=PRE_DEFINED_MARKER('');
#336=COLOUR_RGB('',0.800000011920929,0.800000011920929,0.800000011920929);
#337=DRAUGHTING_PRE_DEFINED_CURVE_FONT('continuous');
#338=COLOUR_RGB('',0.498039215803146,0.498039215803146,0.498039215803146);
#339=CARTESIAN_POINT('',(7.49556070398392E-016,-6.12079194313172,-0.387000000000008));
#340=VECTOR('',#471,1.0);
#341=DRAUGHTING_PRE_DEFINED_CURVE_FONT('continuous');
#342=COLOUR_RGB('',0.498039215803146,0.498039215803146,0.498039215803146);
#343=CARTESIAN_POINT('',(7.7762503467721E-016,-6.35,-18.537));
#344=VECTOR('',#472,1.0);
#345=SURFACE_SIDE_STYLE('',(#473));
#346=EDGE_LOOP('',(#474,#475,#476));
#347=AXIS2_PLACEMENT_3D('',#477,#478,#479);
#348=DRAUGHTING_PRE_DEFINED_CURVE_FONT('continuous');
#349=COLOUR_RGB('',0.800000011920929,0.800000011920929,0.800000011920929);
#350=AXIS2_PLACEMENT_3D('',#480,#481,#482);
#351=SURFACE_SIDE_STYLE('',(#483));
#352=EDGE_LOOP('',(#484,#485));
#353=AXIS2_PLACEMENT_3D('',#486,#487,#488);
#354=SURFACE_SIDE_STYLE('',(#489));
#355=EDGE_LOOP('',(#490,#491,#492,#493));
#356=AXIS2_PLACEMENT_3D('',#494,#495,#496);
#357=DRAUGHTING_PRE_DEFINED_CURVE_FONT('continuous');
#358=COLOUR_RGB('',0.800000011920929,0.800000011920929,0.800000011920929);
#359=CARTESIAN_POINT('',(-8.87833483489454E-016,7.24995,-65.09));
#360=VECTOR('',#497,1.0);
#361=DRAUGHTING_PRE_DEFINED_CURVE_FONT('continuous');
#362=COLOUR_RGB('',0.498039215803146,0.498039215803146,0.498039215803146);
#363=AXIS2_PLACEMENT_3D('',#498,#499,#500);
#364=SURFACE_SIDE_STYLE('',(#501));
#365=PRE_DEFINED_MARKER('');
#366=COLOUR_RGB('',0.498039215803146,0.498039215803146,0.498039215803146);
#367=DRAUGHTING_PRE_DEFINED_CURVE_FONT('continuous');
#368=COLOUR_RGB('',0.498039215803146,0.498039215803146,0.498039215803146);
#369=AXIS2_PLACEMENT_3D('',#502,#503,#504);
#370=PRE_DEFINED_MARKER('');
#371=COLOUR_RGB('',0.800000011920929,0.800000011920929,0.800000011920929);
#372=SURFACE_SIDE_STYLE('',(#505));
#373=EDGE_LOOP('',(#506,#507,#508,#509));
#374=AXIS2_PLACEMENT_3D('',#510,#511,#512);
#375=SURFACE_SIDE_STYLE('',(#513));
#376=EDGE_LOOP('',(#514,#515,#516));
#377=AXIS2_PLACEMENT_3D('',#517,#518,#519);
#378=DRAUGHTING_PRE_DEFINED_CURVE_FONT('continuous');
#379=COLOUR_RGB('',0.800000011920929,0.800000011920929,0.800000011920929);
#380=AXIS2_PLACEMENT_3D('',#520,#521,#522);
#381=DRAUGHTING_PRE_DEFINED_CURVE_FONT('continuous');
#382=COLOUR_RGB('',0.800000011920929,0.800000011920929,0.800000011920929);
#383=CARTESIAN_POINT('',(-4.43607528640387E-016,3.62245,-50.795));
#384=VECTOR('',#523,1.0);
#385=DRAUGHTING_PRE_DEFINED_CURVE_FONT('continuous');
#386=COLOUR_RGB('',0.800000011920929,0.800000011920929,0.800000011920929);
#387=AXIS2_PLACEMENT_3D('',#524,#525,#526);
#388=PRE_DEFINED_MARKER('');
#389=COLOUR_RGB('',0.498039215803146,0.498039215803146,0.498039215803146);
#390=PRE_DEFINED_MARKER('');
#391=COLOUR_RGB('',0.498039215803146,0.498039215803146,0.498039215803146);
#392=DRAUGHTING_PRE_DEFINED_CURVE_FONT('continuous');
#393=COLOUR_RGB('',0.498039215803146,0.498039215803146,0.498039215803146);
#394=AXIS2_PLACEMENT_3D('',#527,#528,#529);
#395=DRAUGHTING_PRE_DEFINED_CURVE_FONT('continuous');
#396=COLOUR_RGB('',0.498039215803146,0.498039215803146,0.498039215803146);
#397=AXIS2_PLACEMENT_3D('',#530,#531,#532);
#398=DRAUGHTING_PRE_DEFINED_CURVE_FONT('continuous');
#399=COLOUR_RGB('',0.800000011920929,0.800000011920929,0.800000011920929);
#400=AXIS2_PLACEMENT_3D('',#533,#534,#535);
#401=PRE_DEFINED_MARKER('');
#402=COLOUR_RGB('',0.498039215803146,0.498039215803146,0.498039215803146);
#403=SURFACE_SIDE_STYLE('',(#536));
#404=EDGE_LOOP('',(#537,#538));
#405=AXIS2_PLACEMENT_3D('',#539,#540,#541);
#406=PRE_DEFINED_MARKER('');
#407=COLOUR_RGB('',0.800000011920929,0.800000011920929,0.800000011920929);
#408=DRAUGHTING_PRE_DEFINED_CURVE_FONT('continuous');
#409=COLOUR_RGB('',0.498039215803146,0.498039215803146,0.498039215803146);
#410=AXIS2_PLACEMENT_3D('',#542,#543,#544);
#411=PRE_DEFINED_MARKER('');
#412=COLOUR_RGB('',0.800000011920929,0.800000011920929,0.800000011920929);
#413=DRAUGHTING_PRE_DEFINED_CURVE_FONT('continuous');
#414=COLOUR_RGB('',0.800000011920929,0.800000011920929,0.800000011920929);
#415=AXIS2_PLACEMENT_3D('',#545,#546,#547);
#416=DRAUGHTING_PRE_DEFINED_CURVE_FONT('continuous');
#417=COLOUR_RGB('',0.800000011920929,0.800000011920929,0.800000011920929);
#418=CARTESIAN_POINT('',(8.87833483489454E-016,-7.24995,-65.09));
#419=VECTOR('',#548,1.0);
#420=SURFACE_SIDE_STYLE('',(#549));
#421=EDGE_LOOP('',(#550,#551,#552,#553));
#422=AXIS2_PLACEMENT_3D('',#554,#555,#556);
#423=DRAUGHTING_PRE_DEFINED_CURVE_FONT('continuous');
#424=COLOUR_RGB('',0.498039215803146,0.498039215803146,0.498039215803146);
#425=CARTESIAN_POINT('',(-7.7762503467721E-016,6.35,-18.537));
#426=VECTOR('',#557,1.0);
#427=SURFACE_SIDE_STYLE('',(#558));
#428=EDGE_LOOP('',(#559,#560,#561,#562));
#429=AXIS2_PLACEMENT_3D('',#563,#564,#565);
#430=PRE_DEFINED_MARKER('');
#431=COLOUR_RGB('',0.800000011920929,0.800000011920929,0.800000011920929);
#432=DRAUGHTING_PRE_DEFINED_CURVE_FONT('continuous');
#433=COLOUR_RGB('',0.498039215803146,0.498039215803146,0.498039215803146);
#434=CARTESIAN_POINT('',(-7.49556070398392E-016,6.12079194313172,-0.387000000000008));
#435=VECTOR('',#566,1.0);
#436=DRAUGHTING_PRE_DEFINED_CURVE_FONT('continuous');
#437=COLOUR_RGB('',0.498039215803146,0.498039215803146,0.498039215803146);
#438=AXIS2_PLACEMENT_3D('',#567,#568,#569);
#439=SURFACE_SIDE_STYLE('',(#570));
#440=EDGE_LOOP('',(#571,#572));
#441=EDGE_LOOP('',(#573,#574));
#442=AXIS2_PLACEMENT_3D('',#575,#576,#577);
#444=SURFACE_STYLE_FILL_AREA(#578);
#445=SURFACE_STYLE_FILL_AREA(#579);
#446=ORIENTED_EDGE('',*,*,#122,.T.);
#447=ORIENTED_EDGE('',*,*,#116,.T.);
#448=CARTESIAN_POINT('',(0.0,0.0,-50.79));
#449=DIRECTION('',(0.0,0.0,-1.0));
#450=DIRECTION('',(0.0,-1.0,0.0));
#451=SURFACE_STYLE_FILL_AREA(#580);
#452=ORIENTED_EDGE('',*,*,#162,.F.);
#453=ORIENTED_EDGE('',*,*,#140,.T.);
#454=ORIENTED_EDGE('',*,*,#104,.F.);
#455=ORIENTED_EDGE('',*,*,#116,.F.);
#456=CARTESIAN_POINT('',(0.0,0.0,-18.537));
#457=DIRECTION('',(-0.0,-0.0,1.0));
#458=DIRECTION('',(0.0,1.0,0.0));
#459=CARTESIAN_POINT('',(0.0,0.0,-50.79));
#460=DIRECTION('',(0.0,0.0,-1.0));
#461=DIRECTION('',(0.0,1.0,0.0));
#462=SURFACE_STYLE_FILL_AREA(#581);
#463=ORIENTED_EDGE('',*,*,#114,.F.);
#464=ORIENTED_EDGE('',*,*,#92,.T.);
#465=ORIENTED_EDGE('',*,*,#158,.F.);
#466=ORIENTED_EDGE('',*,*,#156,.F.);
#467=CARTESIAN_POINT('',(0.0,0.0,-65.09));
#468=DIRECTION('',(0.0,-0.0,-1.0));
#469=DIRECTION('',(0.0,1.0,0.0));
#470=DIRECTION('',(1.22460518727844E-016,-0.999999047413126,0.0013802799864917));
#471=DIRECTION('',(-6.12303176911191E-017,0.500000000000002,0.866025403784438));
#472=DIRECTION('',(-0.0,-0.0,1.0));
#473=SURFACE_STYLE_FILL_AREA(#582);
#474=ORIENTED_EDGE('',*,*,#96,.T.);
#475=ORIENTED_EDGE('',*,*,#108,.F.);
#476=ORIENTED_EDGE('',*,*,#132,.T.);
#477=CARTESIAN_POINT('',(0.0,0.0,-50.795));
#478=DIRECTION('',(-0.0,-0.0,1.0));
#479=DIRECTION('',(0.0,1.0,0.0));
#480=CARTESIAN_POINT('',(0.0,0.0,-50.79));
#481=DIRECTION('',(0.0,0.0,-1.0));
#482=DIRECTION('',(0.0,1.0,0.0));
#483=SURFACE_STYLE_FILL_AREA(#583);
#484=ORIENTED_EDGE('',*,*,#156,.T.);
#485=ORIENTED_EDGE('',*,*,#134,.T.);
#486=CARTESIAN_POINT('',(0.0,3.6225,-79.39));
#487=DIRECTION('',(0.0,0.0,-1.0));
#488=DIRECTION('',(0.0,1.0,0.0));
#489=SURFACE_STYLE_FILL_AREA(#584);
#490=ORIENTED_EDGE('',*,*,#168,.F.);
#491=ORIENTED_EDGE('',*,*,#170,.T.);
#492=ORIENTED_EDGE('',*,*,#102,.F.);
#493=ORIENTED_EDGE('',*,*,#140,.F.);
#494=CARTESIAN_POINT('',(0.0,0.0,-0.387000000000008));
#495=DIRECTION('',(0.0,-0.0,-1.0));
#496=DIRECTION('',(0.0,1.0,0.0));
#497=DIRECTION('',(-4.28184039794419E-022,3.49650349647397E-006,-0.999999999993887));
#498=CARTESIAN_POINT('',(0.0,0.0,-50.79));
#499=DIRECTION('',(0.0,0.0,-1.0));
#500=DIRECTION('',(0.0,-1.0,0.0));
#501=SURFACE_STYLE_FILL_AREA(#585);
#502=CARTESIAN_POINT('',(0.0,0.0,-50.79));
#503=DIRECTION('',(0.0,0.0,-1.0));
#504=DIRECTION('',(0.0,-1.0,0.0));
#505=SURFACE_STYLE_FILL_AREA(#586);
#506=ORIENTED_EDGE('',*,*,#114,.T.);
#507=ORIENTED_EDGE('',*,*,#134,.F.);
#508=ORIENTED_EDGE('',*,*,#158,.T.);
#509=ORIENTED_EDGE('',*,*,#130,.T.);
#510=CARTESIAN_POINT('',(0.0,0.0,-65.09));
#511=DIRECTION('',(0.0,-0.0,-1.0));
#512=DIRECTION('',(0.0,1.0,0.0));
#513=SURFACE_STYLE_FILL_AREA(#587);
#514=ORIENTED_EDGE('',*,*,#96,.F.);
#515=ORIENTED_EDGE('',*,*,#132,.F.);
#516=ORIENTED_EDGE('',*,*,#144,.F.);
#517=CARTESIAN_POINT('',(0.0,0.0,-50.795));
#518=DIRECTION('',(-0.0,-0.0,1.0));
#519=DIRECTION('',(0.0,1.0,0.0));
#520=CARTESIAN_POINT('',(0.0,0.0,-50.79));
#521=DIRECTION('',(0.0,0.0,-1.0));
#522=DIRECTION('',(0.0,1.0,0.0));
#523=DIRECTION('',(1.22460518727844E-016,-0.999999047413126,-0.0013802799864917));
#524=CARTESIAN_POINT('',(0.0,0.0,-79.39));
#525=DIRECTION('',(0.0,0.0,-1.0));
#526=DIRECTION('',(0.0,1.0,0.0));
#527=CARTESIAN_POINT('',(0.0,0.0,-0.784000000000006));
#528=DIRECTION('',(0.0,0.0,-1.0));
#529=DIRECTION('',(0.0,1.0,0.0));
#530=CARTESIAN_POINT('',(0.0,0.0,-0.784000000000006));
#531=DIRECTION('',(0.0,0.0,-1.0));
#532=DIRECTION('',(0.0,1.0,0.0));
#533=CARTESIAN_POINT('',(0.0,0.0,-50.79));
#534=DIRECTION('',(0.0,0.0,-1.0));
#535=DIRECTION('',(0.0,1.0,0.0));
#536=SURFACE_STYLE_FILL_AREA(#588);
#537=ORIENTED_EDGE('',*,*,#170,.F.);
#538=ORIENTED_EDGE('',*,*,#152,.F.);
#539=CARTESIAN_POINT('',(0.0,2.94579194313172,0.00999999999999091));
#540=DIRECTION('',(-0.0,0.0,1.0));
#541=DIRECTION('',(0.0,-1.0,0.0));
#542=CARTESIAN_POINT('',(0.0,0.0,0.00999999999999091));
#543=DIRECTION('',(0.0,0.0,-1.0));
#544=DIRECTION('',(0.0,1.0,0.0));
#545=CARTESIAN_POINT('',(0.0,0.0,-79.39));
#546=DIRECTION('',(0.0,0.0,-1.0));
#547=DIRECTION('',(0.0,1.0,0.0));
#548=DIRECTION('',(-4.28184039794419E-022,3.49650349647397E-006,0.999999999993887));
#549=SURFACE_STYLE_FILL_AREA(#589);
#550=ORIENTED_EDGE('',*,*,#162,.T.);
#551=ORIENTED_EDGE('',*,*,#122,.F.);
#552=ORIENTED_EDGE('',*,*,#104,.T.);
#553=ORIENTED_EDGE('',*,*,#142,.T.);
#554=CARTESIAN_POINT('',(0.0,0.0,-18.537));
#555=DIRECTION('',(-0.0,-0.0,1.0));
#556=DIRECTION('',(0.0,1.0,0.0));
#557=DIRECTION('',(0.0,0.0,-1.0));
#558=SURFACE_STYLE_FILL_AREA(#590);
#559=ORIENTED_EDGE('',*,*,#168,.T.);
#560=ORIENTED_EDGE('',*,*,#142,.F.);
#561=ORIENTED_EDGE('',*,*,#102,.T.);
#562=ORIENTED_EDGE('',*,*,#152,.T.);
#563=CARTESIAN_POINT('',(0.0,0.0,-0.387000000000008));
#564=DIRECTION('',(0.0,-0.0,-1.0));
#565=DIRECTION('',(0.0,1.0,0.0));
#566=DIRECTION('',(-6.12303176911191E-017,0.500000000000002,-0.866025403784438));
#567=CARTESIAN_POINT('',(0.0,0.0,0.00999999999999091));
#568=DIRECTION('',(0.0,0.0,-1.0));
#569=DIRECTION('',(0.0,1.0,0.0));
#570=SURFACE_STYLE_FILL_AREA(#591);
#571=ORIENTED_EDGE('',*,*,#92,.F.);
#572=ORIENTED_EDGE('',*,*,#130,.F.);
#573=ORIENTED_EDGE('',*,*,#108,.T.);
#574=ORIENTED_EDGE('',*,*,#144,.T.);
#575=CARTESIAN_POINT('',(0.0,7.2474,-50.79));
#576=DIRECTION('',(-0.0,0.0,1.0));
#577=DIRECTION('',(0.0,-1.0,0.0));
#578=FILL_AREA_STYLE('',(#592));
#579=FILL_AREA_STYLE('',(#593));
#580=FILL_AREA_STYLE('',(#594));
#581=FILL_AREA_STYLE('',(#595));
#582=FILL_AREA_STYLE('',(#596));
#583=FILL_AREA_STYLE('',(#597));
#584=FILL_AREA_STYLE('',(#598));
#585=FILL_AREA_STYLE('',(#599));
#586=FILL_AREA_STYLE('',(#600));
#587=FILL_AREA_STYLE('',(#601));
#588=FILL_AREA_STYLE('',(#602));
#589=FILL_AREA_STYLE('',(#603));
#590=FILL_AREA_STYLE('',(#604));
#591=FILL_AREA_STYLE('',(#605));
#592=FILL_AREA_STYLE_COLOUR('',#606);
#593=FILL_AREA_STYLE_COLOUR('',#607);
#594=FILL_AREA_STYLE_COLOUR('',#608);
#595=FILL_AREA_STYLE_COLOUR('',#609);
#596=FILL_AREA_STYLE_COLOUR('',#610);
#597=FILL_AREA_STYLE_COLOUR('',#611);
#598=FILL_AREA_STYLE_COLOUR('',#612);
#599=FILL_AREA_STYLE_COLOUR('',#613);
#600=FILL_AREA_STYLE_COLOUR('',#614);
#601=FILL_AREA_STYLE_COLOUR('',#615);
#602=FILL_AREA_STYLE_COLOUR('',#616);
#603=FILL_AREA_STYLE_COLOUR('',#617);
#604=FILL_AREA_STYLE_COLOUR('',#618);
#605=FILL_AREA_STYLE_COLOUR('',#619);
#606=COLOUR_RGB('',0.800000011920929,0.800000011920929,0.800000011920929);
#607=COLOUR_RGB('',0.498039215803146,0.498039215803146,0.498039215803146);
#608=COLOUR_RGB('',0.498039215803146,0.498039215803146,0.498039215803146);
#609=COLOUR_RGB('',0.800000011920929,0.800000011920929,0.800000011920929);
#610=COLOUR_RGB('',0.800000011920929,0.800000011920929,0.800000011920929);
#611=COLOUR_RGB('',0.800000011920929,0.800000011920929,0.800000011920929);
#612=COLOUR_RGB('',0.498039215803146,0.498039215803146,0.498039215803146);
#613=COLOUR_RGB('',0.800000011920929,0.800000011920929,0.800000011920929);
#614=COLOUR_RGB('',0.800000011920929,0.800000011920929,0.800000011920929);
#615=COLOUR_RGB('',0.800000011920929,0.800000011920929,0.800000011920929);
#616=COLOUR_RGB('',0.498039215803146,0.498039215803146,0.498039215803146);
#617=COLOUR_RGB('',0.498039215803146,0.498039215803146,0.498039215803146);
#618=COLOUR_RGB('',0.498039215803146,0.498039215803146,0.498039215803146);
#619=COLOUR_RGB('',0.800000011920929,0.800000011920929,0.800000011920929);
#620=AXIS2_PLACEMENT_3D('PCS',#621,#622,#623);
#621=CARTESIAN_POINT('',(0.0,0.0,0.0));
#622=DIRECTION('',(0.0,0.0,1.0));
#623=DIRECTION('',(1.0,0.0,0.0));
#624=AXIS2_PLACEMENT_3D('CIP',#625,#626,#627);
#625=CARTESIAN_POINT('',(0.0,0.0,-79.4));
#626=DIRECTION('',(0.0,0.0,1.0));
#627=DIRECTION('',(1.0,0.0,0.0));
#628=AXIS2_PLACEMENT_3D('CRP',#629,#630,#631);
#629=CARTESIAN_POINT('',(-7.25,0.0,-79.4));
#630=DIRECTION('',(0.0,0.0,1.0));
#631=DIRECTION('',(1.0,0.0,0.0));
#632=AXIS2_PLACEMENT_3D('MCS',#633,#634,#635);
#633=CARTESIAN_POINT('',(0.0,0.0,-36.3));
#634=DIRECTION('',(0.0,0.0,1.0));
#635=DIRECTION('',(1.0,0.0,0.0));
#636=CONSTRUCTIVE_GEOMETRY_REPRESENTATION_RELATIONSHIP('coordinate systems',$,#65,#637);
#637=CONSTRUCTIVE_GEOMETRY_REPRESENTATION('coordinate systems',(#620,#624,#628,#632),#10);
ENDSEC;
END-ISO-10303-21;
