ISO-10303-21;
HEADER;
FILE_DESCRIPTION(('no description'),'unknown implementation level');
FILE_NAME('solidsXkrYWJ5vp9V5nvekJtSclOuzEE_1.STP','  ',('CIMSOURCE GmbH'),('CADClick - KiM GmbH - www.kimweb.de'),'unknown preprocess','ACIS','unknown authorization');
FILE_SCHEMA(('automotive_design'));
ENDSEC;
DATA;
#1=MECHANICAL_DESIGN_GEOMETRIC_PRESENTATION_REPRESENTATION(' ',(#14,#15,#16,#17,#18,#19,#20,#21,#22,#23,#24,#25,#26,#27,#28,#29,#30,#31,#32,#33,#34,#35,#36,#37,#38,#39,#40,#41,#42,#43,#44,#45,#46,#47,#48,#49,#50,#51,#52,#53,#54,#55,#56,#57,#58,#59,#60),#10);
#2=PRODUCT_DEFINITION_CONTEXT('',#61,'design');
#3=APPLICATION_PROTOCOL_DEFINITION('INTERNATIONAL STANDARD','automotive_design',1994,#61);
#4=PRODUCT_CATEGORY_RELATIONSHIP('NONE','NONE',#62,#63);
#5=SHAPE_DEFINITION_REPRESENTATION(#64,#65);
#6=PRODUCT_DEFINITION_CONTEXT('',#66,'design');
#7=APPLICATION_PROTOCOL_DEFINITION('INTERNATIONAL STANDARD','automotive_design',1994,#66);
#8=PRODUCT_CATEGORY_RELATIONSHIP('NONE','NONE',#67,#68);
#9=SHAPE_DEFINITION_REPRESENTATION(#69,#70);
#10= (GEOMETRIC_REPRESENTATION_CONTEXT(3)GLOBAL_UNCERTAINTY_ASSIGNED_CONTEXT((#73))GLOBAL_UNIT_ASSIGNED_CONTEXT((#75,#76,#77))REPRESENTATION_CONTEXT('NONE','WORKSPACE'));
#14=STYLED_ITEM('',(#79),#80);
#15=STYLED_ITEM('',(#81),#82);
#16=STYLED_ITEM('',(#83),#84);
#17=STYLED_ITEM('',(#85),#86);
#18=STYLED_ITEM('',(#87),#88);
#19=STYLED_ITEM('',(#89),#90);
#20=STYLED_ITEM('',(#91),#92);
#21=STYLED_ITEM('',(#93),#94);
#22=STYLED_ITEM('',(#95),#96);
#23=STYLED_ITEM('',(#97),#98);
#24=STYLED_ITEM('',(#99),#100);
#25=STYLED_ITEM('',(#101),#102);
#26=STYLED_ITEM('',(#103),#104);
#27=STYLED_ITEM('',(#105),#106);
#28=STYLED_ITEM('',(#107),#108);
#29=STYLED_ITEM('',(#109),#110);
#30=STYLED_ITEM('',(#111),#112);
#31=STYLED_ITEM('',(#113),#114);
#32=STYLED_ITEM('',(#115),#116);
#33=STYLED_ITEM('',(#117),#118);
#34=STYLED_ITEM('',(#119),#120);
#35=STYLED_ITEM('',(#121),#122);
#36=STYLED_ITEM('',(#123),#124);
#37=STYLED_ITEM('',(#125),#126);
#38=STYLED_ITEM('',(#127),#128);
#39=STYLED_ITEM('',(#129),#130);
#40=STYLED_ITEM('',(#131),#132);
#41=STYLED_ITEM('',(#133),#134);
#42=STYLED_ITEM('',(#135),#136);
#43=STYLED_ITEM('',(#137),#138);
#44=STYLED_ITEM('',(#139),#140);
#45=STYLED_ITEM('',(#141),#142);
#46=STYLED_ITEM('',(#143),#144);
#47=STYLED_ITEM('',(#145),#146);
#48=STYLED_ITEM('',(#147),#148);
#49=STYLED_ITEM('',(#149),#150);
#50=STYLED_ITEM('',(#151),#152);
#51=STYLED_ITEM('',(#153),#154);
#52=STYLED_ITEM('',(#155),#156);
#53=STYLED_ITEM('',(#157),#158);
#54=STYLED_ITEM('',(#159),#160);
#55=STYLED_ITEM('',(#161),#162);
#56=STYLED_ITEM('',(#163),#164);
#57=STYLED_ITEM('',(#165),#166);
#58=STYLED_ITEM('',(#167),#168);
#59=STYLED_ITEM('',(#169),#170);
#60=STYLED_ITEM('',(#171),#172);
#61=APPLICATION_CONTEXT(' ');
#62=PRODUCT_CATEGORY('part','NONE');
#63=PRODUCT_RELATED_PRODUCT_CATEGORY('detail',' ',(#173));
#64=PRODUCT_DEFINITION_SHAPE('NONE','NONE',#174);
#65=ADVANCED_BREP_SHAPE_REPRESENTATION('1',(#124,#175),#10);
#66=APPLICATION_CONTEXT(' ');
#67=PRODUCT_CATEGORY('part','NONE');
#68=PRODUCT_RELATED_PRODUCT_CATEGORY('detail',' ',(#176));
#69=PRODUCT_DEFINITION_SHAPE('NONE','NONE',#177);
#70=ADVANCED_BREP_SHAPE_REPRESENTATION('2',(#110,#178),#10);
#73=UNCERTAINTY_MEASURE_WITH_UNIT(LENGTH_MEASURE(1.0E-006),#75,'','');
#75= (CONVERSION_BASED_UNIT('MILLIMETRE',#181)LENGTH_UNIT()NAMED_UNIT(#184));
#76= (NAMED_UNIT(#186)PLANE_ANGLE_UNIT()SI_UNIT($,.RADIAN.));
#77= (NAMED_UNIT(#186)SOLID_ANGLE_UNIT()SI_UNIT($,.STERADIAN.));
#79=PRESENTATION_STYLE_ASSIGNMENT((#192));
#80=VERTEX_POINT('',#193);
#81=PRESENTATION_STYLE_ASSIGNMENT((#194));
#82=EDGE_CURVE('',#126,#142,#195,.T.);
#83=PRESENTATION_STYLE_ASSIGNMENT((#196));
#84=EDGE_CURVE('',#172,#80,#197,.T.);
#85=PRESENTATION_STYLE_ASSIGNMENT((#198));
#86=EDGE_CURVE('',#102,#152,#199,.T.);
#87=PRESENTATION_STYLE_ASSIGNMENT((#200));
#88=EDGE_CURVE('',#152,#102,#201,.T.);
#89=PRESENTATION_STYLE_ASSIGNMENT((#202));
#90=EDGE_CURVE('',#170,#120,#203,.T.);
#91=PRESENTATION_STYLE_ASSIGNMENT((#204));
#92=EDGE_CURVE('',#142,#126,#205,.T.);
#93=PRESENTATION_STYLE_ASSIGNMENT((#206));
#94=EDGE_CURVE('',#80,#140,#207,.T.);
#95=PRESENTATION_STYLE_ASSIGNMENT((#208));
#96=VERTEX_POINT('',#209);
#97=PRESENTATION_STYLE_ASSIGNMENT((#210));
#98=ADVANCED_FACE('',(#211),#212,.F.);
#99=PRESENTATION_STYLE_ASSIGNMENT((#213));
#100=EDGE_CURVE('',#126,#96,#214,.T.);
#101=PRESENTATION_STYLE_ASSIGNMENT((#215));
#102=VERTEX_POINT('',#216);
#103=PRESENTATION_STYLE_ASSIGNMENT((#217));
#104=ADVANCED_FACE('',(#218),#219,.T.);
#105=PRESENTATION_STYLE_ASSIGNMENT((#220));
#106=EDGE_CURVE('',#144,#140,#221,.T.);
#107=PRESENTATION_STYLE_ASSIGNMENT((#222));
#108=ADVANCED_FACE('',(#223),#224,.T.);
#109=PRESENTATION_STYLE_ASSIGNMENT((#225));
#110=MANIFOLD_SOLID_BREP('2',#226);
#111=PRESENTATION_STYLE_ASSIGNMENT((#227));
#112=ADVANCED_FACE('',(#228),#229,.T.);
#113=PRESENTATION_STYLE_ASSIGNMENT((#230));
#114=EDGE_CURVE('',#118,#142,#231,.T.);
#115=PRESENTATION_STYLE_ASSIGNMENT((#232));
#116=EDGE_CURVE('',#140,#144,#233,.T.);
#117=PRESENTATION_STYLE_ASSIGNMENT((#234));
#118=VERTEX_POINT('',#235);
#119=PRESENTATION_STYLE_ASSIGNMENT((#236));
#120=VERTEX_POINT('',#237);
#121=PRESENTATION_STYLE_ASSIGNMENT((#238));
#122=ADVANCED_FACE('',(#239),#240,.T.);
#123=PRESENTATION_STYLE_ASSIGNMENT((#241));
#124=MANIFOLD_SOLID_BREP('1',#242);
#125=PRESENTATION_STYLE_ASSIGNMENT((#243));
#126=VERTEX_POINT('',#244);
#127=PRESENTATION_STYLE_ASSIGNMENT((#245));
#128=ADVANCED_FACE('',(#246,#247),#248,.T.);
#129=PRESENTATION_STYLE_ASSIGNMENT((#249));
#130=EDGE_CURVE('',#172,#102,#250,.T.);
#131=PRESENTATION_STYLE_ASSIGNMENT((#251));
#132=ADVANCED_FACE('',(#252),#253,.F.);
#133=PRESENTATION_STYLE_ASSIGNMENT((#254));
#134=ADVANCED_FACE('',(#255),#256,.T.);
#135=PRESENTATION_STYLE_ASSIGNMENT((#257));
#136=EDGE_CURVE('',#120,#170,#258,.T.);
#137=PRESENTATION_STYLE_ASSIGNMENT((#259));
#138=ADVANCED_FACE('',(#260),#261,.T.);
#139=PRESENTATION_STYLE_ASSIGNMENT((#262));
#140=VERTEX_POINT('',#263);
#141=PRESENTATION_STYLE_ASSIGNMENT((#264));
#142=VERTEX_POINT('',#265);
#143=PRESENTATION_STYLE_ASSIGNMENT((#266));
#144=VERTEX_POINT('',#267);
#145=PRESENTATION_STYLE_ASSIGNMENT((#268));
#146=EDGE_CURVE('',#144,#172,#269,.T.);
#147=PRESENTATION_STYLE_ASSIGNMENT((#270));
#148=EDGE_CURVE('',#152,#80,#271,.T.);
#149=PRESENTATION_STYLE_ASSIGNMENT((#272));
#150=ADVANCED_FACE('',(#273),#274,.T.);
#151=PRESENTATION_STYLE_ASSIGNMENT((#275));
#152=VERTEX_POINT('',#276);
#153=PRESENTATION_STYLE_ASSIGNMENT((#277));
#154=EDGE_CURVE('',#164,#170,#278,.T.);
#155=PRESENTATION_STYLE_ASSIGNMENT((#279));
#156=EDGE_CURVE('',#96,#118,#280,.T.);
#157=PRESENTATION_STYLE_ASSIGNMENT((#281));
#158=ADVANCED_FACE('',(#282),#283,.T.);
#159=PRESENTATION_STYLE_ASSIGNMENT((#284));
#160=EDGE_CURVE('',#80,#172,#285,.T.);
#161=PRESENTATION_STYLE_ASSIGNMENT((#286));
#162=EDGE_CURVE('',#118,#96,#287,.T.);
#163=PRESENTATION_STYLE_ASSIGNMENT((#288));
#164=VERTEX_POINT('',#289);
#165=PRESENTATION_STYLE_ASSIGNMENT((#290));
#166=ADVANCED_FACE('',(#291),#292,.T.);
#167=PRESENTATION_STYLE_ASSIGNMENT((#293));
#168=EDGE_CURVE('',#120,#164,#294,.T.);
#169=PRESENTATION_STYLE_ASSIGNMENT((#295));
#170=VERTEX_POINT('',#296);
#171=PRESENTATION_STYLE_ASSIGNMENT((#297));
#172=VERTEX_POINT('',#298);
#173=PRODUCT('1','1','PART-1-DESC',(#299));
#174=PRODUCT_DEFINITION('NONE','NONE',#300,#2);
#175=AXIS2_PLACEMENT_3D('',#301,#302,#303);
#176=PRODUCT('2','2','PART-2-DESC',(#304));
#177=PRODUCT_DEFINITION('NONE','NONE',#305,#6);
#178=AXIS2_PLACEMENT_3D('',#306,#307,#308);
#181=LENGTH_MEASURE_WITH_UNIT(LENGTH_MEASURE(1.0),#309);
#184=DIMENSIONAL_EXPONENTS(1.0,0.0,0.0,0.0,0.0,0.0,0.0);
#186=DIMENSIONAL_EXPONENTS(0.0,0.0,0.0,0.0,0.0,0.0,0.0);
#192=POINT_STYLE(' ',#310,POSITIVE_LENGTH_MEASURE(1.0E-006),#311);
#193=CARTESIAN_POINT('',(0.0,6.35,-0.783999999999992));
#194=CURVE_STYLE('',#312,POSITIVE_LENGTH_MEASURE(1.0E-006),#313);
#195=CIRCLE('',#314,6.35);
#196=CURVE_STYLE('',#315,POSITIVE_LENGTH_MEASURE(1.0E-006),#316);
#197=CIRCLE('',#317,6.35);
#198=CURVE_STYLE('',#318,POSITIVE_LENGTH_MEASURE(1.0E-006),#319);
#199=CIRCLE('',#320,5.89158388626344);
#200=CURVE_STYLE('',#321,POSITIVE_LENGTH_MEASURE(1.0E-006),#322);
#201=CIRCLE('',#323,5.89158388626344);
#202=CURVE_STYLE('',#324,POSITIVE_LENGTH_MEASURE(1.0E-006),#325);
#203=CIRCLE('',#326,6.89997106471731);
#204=CURVE_STYLE('',#327,POSITIVE_LENGTH_MEASURE(1.0E-006),#328);
#205=CIRCLE('',#329,6.35);
#206=CURVE_STYLE('',#330,POSITIVE_LENGTH_MEASURE(1.0E-006),#331);
#207=LINE('',#332,#333);
#208=POINT_STYLE(' ',#334,POSITIVE_LENGTH_MEASURE(1.0E-006),#335);
#209=CARTESIAN_POINT('',(8.45587143881249E-016,-6.90497106471731,-50.79));
#210=SURFACE_STYLE_USAGE(.BOTH.,#336);
#211=FACE_OUTER_BOUND('',#337,.T.);
#212=CONICAL_SURFACE('',#338,3.44998553235866,1.56934704636969);
#213=CURVE_STYLE('',#339,POSITIVE_LENGTH_MEASURE(1.0E-006),#340);
#214=LINE('',#341,#342);
#215=POINT_STYLE(' ',#343,POSITIVE_LENGTH_MEASURE(1.0E-006),#344);
#216=CARTESIAN_POINT('',(7.21487106119574E-016,-5.89158388626344,0.0100000000000051));
#217=SURFACE_STYLE_USAGE(.BOTH.,#345);
#218=FACE_OUTER_BOUND('',#346,.T.);
#219=PLANE('',#347);
#220=CURVE_STYLE('',#348,POSITIVE_LENGTH_MEASURE(1.0E-006),#349);
#221=CIRCLE('',#350,6.35);
#222=SURFACE_STYLE_USAGE(.BOTH.,#351);
#223=FACE_OUTER_BOUND('',#352,.T.);
#224=CYLINDRICAL_SURFACE('',#353,6.35);
#225=SURFACE_STYLE_USAGE(.BOTH.,#354);
#226=CLOSED_SHELL('',(#158,#138,#112,#166,#134,#108));
#227=SURFACE_STYLE_USAGE(.BOTH.,#355);
#228=FACE_OUTER_BOUND('',#356,.T.);
#229=PLANE('',#357);
#230=CURVE_STYLE('',#358,POSITIVE_LENGTH_MEASURE(1.0E-006),#359);
#231=LINE('',#360,#361);
#232=CURVE_STYLE('',#362,POSITIVE_LENGTH_MEASURE(1.0E-006),#363);
#233=CIRCLE('',#364,6.35);
#234=POINT_STYLE(' ',#365,POSITIVE_LENGTH_MEASURE(1.0E-006),#366);
#235=CARTESIAN_POINT('',(0.0,6.90497106471731,-50.79));
#236=POINT_STYLE(' ',#367,POSITIVE_LENGTH_MEASURE(1.0E-006),#368);
#237=CARTESIAN_POINT('',(0.0,6.89997106471731,-50.79));
#238=SURFACE_STYLE_USAGE(.BOTH.,#369);
#239=FACE_OUTER_BOUND('',#370,.T.);
#240=CONICAL_SURFACE('',#371,6.62748553235866,0.0174501488235018);
#241=SURFACE_STYLE_USAGE(.BOTH.,#372);
#242=CLOSED_SHELL('',(#150,#98,#132,#128,#122,#104));
#243=POINT_STYLE(' ',#373,POSITIVE_LENGTH_MEASURE(1.0E-006),#374);
#244=CARTESIAN_POINT('',(7.77625034677209E-016,-6.35,-82.59));
#245=SURFACE_STYLE_USAGE(.BOTH.,#375);
#246=FACE_OUTER_BOUND('',#376,.T.);
#247=FACE_BOUND('',#377,.T.);
#248=PLANE('',#378);
#249=CURVE_STYLE('',#379,POSITIVE_LENGTH_MEASURE(1.0E-006),#380);
#250=LINE('',#381,#382);
#251=SURFACE_STYLE_USAGE(.BOTH.,#383);
#252=FACE_OUTER_BOUND('',#384,.T.);
#253=CONICAL_SURFACE('',#385,3.44998553235866,1.56934704636969);
#254=SURFACE_STYLE_USAGE(.BOTH.,#386);
#255=FACE_OUTER_BOUND('',#387,.T.);
#256=CONICAL_SURFACE('',#388,6.12079194313172,0.523598775598301);
#257=CURVE_STYLE('',#389,POSITIVE_LENGTH_MEASURE(1.0E-006),#390);
#258=CIRCLE('',#391,6.89997106471731);
#259=SURFACE_STYLE_USAGE(.BOTH.,#392);
#260=FACE_OUTER_BOUND('',#393,.T.);
#261=CONICAL_SURFACE('',#394,6.12079194313172,0.523598775598301);
#262=POINT_STYLE(' ',#395,POSITIVE_LENGTH_MEASURE(1.0E-006),#396);
#263=CARTESIAN_POINT('',(-7.7762503467721E-016,6.35,-50.79));
#264=POINT_STYLE(' ',#397,POSITIVE_LENGTH_MEASURE(1.0E-006),#398);
#265=CARTESIAN_POINT('',(0.0,6.35,-82.59));
#266=POINT_STYLE(' ',#399,POSITIVE_LENGTH_MEASURE(1.0E-006),#400);
#267=CARTESIAN_POINT('',(0.0,-6.35,-50.79));
#268=CURVE_STYLE('',#401,POSITIVE_LENGTH_MEASURE(1.0E-006),#402);
#269=LINE('',#403,#404);
#270=CURVE_STYLE('',#405,POSITIVE_LENGTH_MEASURE(1.0E-006),#406);
#271=LINE('',#407,#408);
#272=SURFACE_STYLE_USAGE(.BOTH.,#409);
#273=FACE_OUTER_BOUND('',#410,.T.);
#274=CONICAL_SURFACE('',#411,6.62748553235866,0.0174501488235018);
#275=POINT_STYLE(' ',#412,POSITIVE_LENGTH_MEASURE(1.0E-006),#413);
#276=CARTESIAN_POINT('',(0.0,5.89158388626344,0.0100000000000051));
#277=CURVE_STYLE('',#414,POSITIVE_LENGTH_MEASURE(1.0E-006),#415);
#278=LINE('',#416,#417);
#279=CURVE_STYLE('',#418,POSITIVE_LENGTH_MEASURE(1.0E-006),#419);
#280=CIRCLE('',#420,6.90497106471731);
#281=SURFACE_STYLE_USAGE(.BOTH.,#421);
#282=FACE_OUTER_BOUND('',#422,.T.);
#283=CYLINDRICAL_SURFACE('',#423,6.35);
#284=CURVE_STYLE('',#424,POSITIVE_LENGTH_MEASURE(1.0E-006),#425);
#285=CIRCLE('',#426,6.35);
#286=CURVE_STYLE('',#427,POSITIVE_LENGTH_MEASURE(1.0E-006),#428);
#287=CIRCLE('',#429,6.90497106471731);
#288=POINT_STYLE(' ',#430,POSITIVE_LENGTH_MEASURE(1.0E-006),#431);
#289=CARTESIAN_POINT('',(0.0,0.0,-50.8));
#290=SURFACE_STYLE_USAGE(.BOTH.,#432);
#291=FACE_OUTER_BOUND('',#433,.T.);
#292=PLANE('',#434);
#293=CURVE_STYLE('',#435,POSITIVE_LENGTH_MEASURE(1.0E-006),#436);
#294=LINE('',#437,#438);
#295=POINT_STYLE(' ',#439,POSITIVE_LENGTH_MEASURE(1.0E-006),#440);
#296=CARTESIAN_POINT('',(8.44974840704338E-016,-6.89997106471731,-50.79));
#297=POINT_STYLE(' ',#441,POSITIVE_LENGTH_MEASURE(1.0E-006),#442);
#298=CARTESIAN_POINT('',(7.7762503467721E-016,-6.35,-0.783999999999992));
#299=PRODUCT_CONTEXT('',#61,'mechanical');
#300=PRODUCT_DEFINITION_FORMATION_WITH_SPECIFIED_SOURCE(' ','NONE',#173,.NOT_KNOWN.);
#301=CARTESIAN_POINT('',(0.0,0.0,0.0));
#302=DIRECTION('',(0.0,0.0,1.0));
#303=DIRECTION('',(1.0,0.0,0.0));
#304=PRODUCT_CONTEXT('',#66,'mechanical');
#305=PRODUCT_DEFINITION_FORMATION_WITH_SPECIFIED_SOURCE(' ','NONE',#176,.NOT_KNOWN.);
#306=CARTESIAN_POINT('',(0.0,0.0,0.0));
#307=DIRECTION('',(0.0,0.0,1.0));
#308=DIRECTION('',(1.0,0.0,0.0));
#309= (NAMED_UNIT(#184)LENGTH_UNIT()SI_UNIT(.MILLI.,.METRE.));
#310=PRE_DEFINED_MARKER('');
#311=COLOUR_RGB('',0.498039215803146,0.498039215803146,0.498039215803146);
#312=DRAUGHTING_PRE_DEFINED_CURVE_FONT('continuous');
#313=COLOUR_RGB('',0.800000011920929,0.800000011920929,0.800000011920929);
#314=AXIS2_PLACEMENT_3D('',#444,#445,#446);
#315=DRAUGHTING_PRE_DEFINED_CURVE_FONT('continuous');
#316=COLOUR_RGB('',0.498039215803146,0.498039215803146,0.498039215803146);
#317=AXIS2_PLACEMENT_3D('',#447,#448,#449);
#318=DRAUGHTING_PRE_DEFINED_CURVE_FONT('continuous');
#319=COLOUR_RGB('',0.498039215803146,0.498039215803146,0.498039215803146);
#320=AXIS2_PLACEMENT_3D('',#450,#451,#452);
#321=DRAUGHTING_PRE_DEFINED_CURVE_FONT('continuous');
#322=COLOUR_RGB('',0.498039215803146,0.498039215803146,0.498039215803146);
#323=AXIS2_PLACEMENT_3D('',#453,#454,#455);
#324=DRAUGHTING_PRE_DEFINED_CURVE_FONT('continuous');
#325=COLOUR_RGB('',0.800000011920929,0.800000011920929,0.800000011920929);
#326=AXIS2_PLACEMENT_3D('',#456,#457,#458);
#327=DRAUGHTING_PRE_DEFINED_CURVE_FONT('continuous');
#328=COLOUR_RGB('',0.800000011920929,0.800000011920929,0.800000011920929);
#329=AXIS2_PLACEMENT_3D('',#459,#460,#461);
#330=DRAUGHTING_PRE_DEFINED_CURVE_FONT('continuous');
#331=COLOUR_RGB('',0.498039215803146,0.498039215803146,0.498039215803146);
#332=CARTESIAN_POINT('',(-7.7762503467721E-016,6.35,-19.437));
#333=VECTOR('',#462,1.0);
#334=PRE_DEFINED_MARKER('');
#335=COLOUR_RGB('',0.800000011920929,0.800000011920929,0.800000011920929);
#336=SURFACE_SIDE_STYLE('',(#463));
#337=EDGE_LOOP('',(#464,#465,#466));
#338=AXIS2_PLACEMENT_3D('',#467,#468,#469);
#339=DRAUGHTING_PRE_DEFINED_CURVE_FONT('continuous');
#340=COLOUR_RGB('',0.800000011920929,0.800000011920929,0.800000011920929);
#341=CARTESIAN_POINT('',(8.11606089279229E-016,-6.62748553235866,-66.69));
#342=VECTOR('',#470,1.0);
#343=PRE_DEFINED_MARKER('');
#344=COLOUR_RGB('',0.498039215803146,0.498039215803146,0.498039215803146);
#345=SURFACE_SIDE_STYLE('',(#471));
#346=EDGE_LOOP('',(#472,#473));
#347=AXIS2_PLACEMENT_3D('',#474,#475,#476);
#348=DRAUGHTING_PRE_DEFINED_CURVE_FONT('continuous');
#349=COLOUR_RGB('',0.498039215803146,0.498039215803146,0.498039215803146);
#350=AXIS2_PLACEMENT_3D('',#477,#478,#479);
#351=SURFACE_SIDE_STYLE('',(#480));
#352=EDGE_LOOP('',(#481,#482,#483,#484));
#353=AXIS2_PLACEMENT_3D('',#485,#486,#487);
#354=SURFACE_SIDE_STYLE('',(#488));
#355=SURFACE_SIDE_STYLE('',(#489));
#356=EDGE_LOOP('',(#490,#491));
#357=AXIS2_PLACEMENT_3D('',#492,#493,#494);
#358=DRAUGHTING_PRE_DEFINED_CURVE_FONT('continuous');
#359=COLOUR_RGB('',0.800000011920929,0.800000011920929,0.800000011920929);
#360=CARTESIAN_POINT('',(-8.11606089279229E-016,6.62748553235866,-66.69));
#361=VECTOR('',#495,1.0);
#362=DRAUGHTING_PRE_DEFINED_CURVE_FONT('continuous');
#363=COLOUR_RGB('',0.498039215803146,0.498039215803146,0.498039215803146);
#364=AXIS2_PLACEMENT_3D('',#496,#497,#498);
#365=PRE_DEFINED_MARKER('');
#366=COLOUR_RGB('',0.800000011920929,0.800000011920929,0.800000011920929);
#367=PRE_DEFINED_MARKER('');
#368=COLOUR_RGB('',0.800000011920929,0.800000011920929,0.800000011920929);
#369=SURFACE_SIDE_STYLE('',(#499));
#370=EDGE_LOOP('',(#500,#501,#502,#503));
#371=AXIS2_PLACEMENT_3D('',#504,#505,#506);
#372=SURFACE_SIDE_STYLE('',(#507));
#373=PRE_DEFINED_MARKER('');
#374=COLOUR_RGB('',0.800000011920929,0.800000011920929,0.800000011920929);
#375=SURFACE_SIDE_STYLE('',(#508));
#376=EDGE_LOOP('',(#509,#510));
#377=EDGE_LOOP('',(#511,#512));
#378=AXIS2_PLACEMENT_3D('',#513,#514,#515);
#379=DRAUGHTING_PRE_DEFINED_CURVE_FONT('continuous');
#380=COLOUR_RGB('',0.498039215803146,0.498039215803146,0.498039215803146);
#381=CARTESIAN_POINT('',(7.49556070398392E-016,-6.12079194313172,-0.386999999999993));
#382=VECTOR('',#516,1.0);
#383=SURFACE_SIDE_STYLE('',(#517));
#384=EDGE_LOOP('',(#518,#519,#520));
#385=AXIS2_PLACEMENT_3D('',#521,#522,#523);
#386=SURFACE_SIDE_STYLE('',(#524));
#387=EDGE_LOOP('',(#525,#526,#527,#528));
#388=AXIS2_PLACEMENT_3D('',#529,#530,#531);
#389=DRAUGHTING_PRE_DEFINED_CURVE_FONT('continuous');
#390=COLOUR_RGB('',0.800000011920929,0.800000011920929,0.800000011920929);
#391=AXIS2_PLACEMENT_3D('',#532,#533,#534);
#392=SURFACE_SIDE_STYLE('',(#535));
#393=EDGE_LOOP('',(#536,#537,#538,#539));
#394=AXIS2_PLACEMENT_3D('',#540,#541,#542);
#395=PRE_DEFINED_MARKER('');
#396=COLOUR_RGB('',0.498039215803146,0.498039215803146,0.498039215803146);
#397=PRE_DEFINED_MARKER('');
#398=COLOUR_RGB('',0.800000011920929,0.800000011920929,0.800000011920929);
#399=PRE_DEFINED_MARKER('');
#400=COLOUR_RGB('',0.498039215803146,0.498039215803146,0.498039215803146);
#401=DRAUGHTING_PRE_DEFINED_CURVE_FONT('continuous');
#402=COLOUR_RGB('',0.498039215803146,0.498039215803146,0.498039215803146);
#403=CARTESIAN_POINT('',(7.7762503467721E-016,-6.35,-19.437));
#404=VECTOR('',#543,1.0);
#405=DRAUGHTING_PRE_DEFINED_CURVE_FONT('continuous');
#406=COLOUR_RGB('',0.498039215803146,0.498039215803146,0.498039215803146);
#407=CARTESIAN_POINT('',(-7.49556070398392E-016,6.12079194313172,-0.386999999999993));
#408=VECTOR('',#544,1.0);
#409=SURFACE_SIDE_STYLE('',(#545));
#410=EDGE_LOOP('',(#546,#547,#548,#549));
#411=AXIS2_PLACEMENT_3D('',#550,#551,#552);
#412=PRE_DEFINED_MARKER('');
#413=COLOUR_RGB('',0.498039215803146,0.498039215803146,0.498039215803146);
#414=DRAUGHTING_PRE_DEFINED_CURVE_FONT('continuous');
#415=COLOUR_RGB('',0.800000011920929,0.800000011920929,0.800000011920929);
#416=CARTESIAN_POINT('',(4.22487420352169E-016,-3.44998553235866,-50.795));
#417=VECTOR('',#553,1.0);
#418=DRAUGHTING_PRE_DEFINED_CURVE_FONT('continuous');
#419=COLOUR_RGB('',0.800000011920929,0.800000011920929,0.800000011920929);
#420=AXIS2_PLACEMENT_3D('',#554,#555,#556);
#421=SURFACE_SIDE_STYLE('',(#557));
#422=EDGE_LOOP('',(#558,#559,#560,#561));
#423=AXIS2_PLACEMENT_3D('',#562,#563,#564);
#424=DRAUGHTING_PRE_DEFINED_CURVE_FONT('continuous');
#425=COLOUR_RGB('',0.498039215803146,0.498039215803146,0.498039215803146);
#426=AXIS2_PLACEMENT_3D('',#565,#566,#567);
#427=DRAUGHTING_PRE_DEFINED_CURVE_FONT('continuous');
#428=COLOUR_RGB('',0.800000011920929,0.800000011920929,0.800000011920929);
#429=AXIS2_PLACEMENT_3D('',#568,#569,#570);
#430=PRE_DEFINED_MARKER('');
#431=COLOUR_RGB('',0.800000011920929,0.800000011920929,0.800000011920929);
#432=SURFACE_SIDE_STYLE('',(#571));
#433=EDGE_LOOP('',(#572,#573));
#434=AXIS2_PLACEMENT_3D('',#574,#575,#576);
#435=DRAUGHTING_PRE_DEFINED_CURVE_FONT('continuous');
#436=COLOUR_RGB('',0.800000011920929,0.800000011920929,0.800000011920929);
#437=CARTESIAN_POINT('',(-4.22487420352169E-016,3.44998553235866,-50.795));
#438=VECTOR('',#577,1.0);
#439=PRE_DEFINED_MARKER('');
#440=COLOUR_RGB('',0.800000011920929,0.800000011920929,0.800000011920929);
#441=PRE_DEFINED_MARKER('');
#442=COLOUR_RGB('',0.498039215803146,0.498039215803146,0.498039215803146);
#444=CARTESIAN_POINT('',(0.0,0.0,-82.59));
#445=DIRECTION('',(0.0,0.0,-1.0));
#446=DIRECTION('',(0.0,1.0,0.0));
#447=CARTESIAN_POINT('',(0.0,0.0,-0.783999999999992));
#448=DIRECTION('',(0.0,0.0,-1.0));
#449=DIRECTION('',(0.0,1.0,0.0));
#450=CARTESIAN_POINT('',(0.0,0.0,0.0100000000000051));
#451=DIRECTION('',(0.0,0.0,-1.0));
#452=DIRECTION('',(0.0,1.0,0.0));
#453=CARTESIAN_POINT('',(0.0,0.0,0.0100000000000051));
#454=DIRECTION('',(0.0,0.0,-1.0));
#455=DIRECTION('',(0.0,1.0,0.0));
#456=CARTESIAN_POINT('',(0.0,0.0,-50.79));
#457=DIRECTION('',(0.0,0.0,-1.0));
#458=DIRECTION('',(0.0,1.0,0.0));
#459=CARTESIAN_POINT('',(0.0,0.0,-82.59));
#460=DIRECTION('',(0.0,0.0,-1.0));
#461=DIRECTION('',(0.0,1.0,0.0));
#462=DIRECTION('',(0.0,0.0,-1.0));
#463=SURFACE_STYLE_FILL_AREA(#578);
#464=ORIENTED_EDGE('',*,*,#154,.F.);
#465=ORIENTED_EDGE('',*,*,#168,.F.);
#466=ORIENTED_EDGE('',*,*,#90,.F.);
#467=CARTESIAN_POINT('',(0.0,0.0,-50.795));
#468=DIRECTION('',(-0.0,-0.0,1.0));
#469=DIRECTION('',(0.0,1.0,0.0));
#470=DIRECTION('',(2.13684786081873E-018,-0.017449263219556,0.999847750016519));
#471=SURFACE_STYLE_FILL_AREA(#579);
#472=ORIENTED_EDGE('',*,*,#92,.T.);
#473=ORIENTED_EDGE('',*,*,#82,.T.);
#474=CARTESIAN_POINT('',(0.0,3.1725,-82.59));
#475=DIRECTION('',(0.0,0.0,-1.0));
#476=DIRECTION('',(0.0,1.0,0.0));
#477=CARTESIAN_POINT('',(0.0,0.0,-50.79));
#478=DIRECTION('',(0.0,0.0,-1.0));
#479=DIRECTION('',(0.0,-1.0,0.0));
#480=SURFACE_STYLE_FILL_AREA(#580);
#481=ORIENTED_EDGE('',*,*,#94,.T.);
#482=ORIENTED_EDGE('',*,*,#106,.F.);
#483=ORIENTED_EDGE('',*,*,#146,.T.);
#484=ORIENTED_EDGE('',*,*,#84,.T.);
#485=CARTESIAN_POINT('',(0.0,0.0,-19.437));
#486=DIRECTION('',(-0.0,-0.0,1.0));
#487=DIRECTION('',(0.0,1.0,0.0));
#488=SURFACE_STYLE_FILL_AREA(#581);
#489=SURFACE_STYLE_FILL_AREA(#582);
#490=ORIENTED_EDGE('',*,*,#106,.T.);
#491=ORIENTED_EDGE('',*,*,#116,.T.);
#492=CARTESIAN_POINT('',(0.0,0.0,-50.79));
#493=DIRECTION('',(0.0,0.0,-1.0));
#494=DIRECTION('',(0.0,-1.0,0.0));
#495=DIRECTION('',(2.13684786081873E-018,-0.017449263219556,-0.999847750016519));
#496=CARTESIAN_POINT('',(0.0,0.0,-50.79));
#497=DIRECTION('',(0.0,0.0,-1.0));
#498=DIRECTION('',(0.0,-1.0,0.0));
#499=SURFACE_STYLE_FILL_AREA(#583);
#500=ORIENTED_EDGE('',*,*,#114,.T.);
#501=ORIENTED_EDGE('',*,*,#82,.F.);
#502=ORIENTED_EDGE('',*,*,#100,.T.);
#503=ORIENTED_EDGE('',*,*,#156,.T.);
#504=CARTESIAN_POINT('',(0.0,0.0,-66.69));
#505=DIRECTION('',(-0.0,-0.0,1.0));
#506=DIRECTION('',(0.0,1.0,0.0));
#507=SURFACE_STYLE_FILL_AREA(#584);
#508=SURFACE_STYLE_FILL_AREA(#585);
#509=ORIENTED_EDGE('',*,*,#162,.F.);
#510=ORIENTED_EDGE('',*,*,#156,.F.);
#511=ORIENTED_EDGE('',*,*,#136,.T.);
#512=ORIENTED_EDGE('',*,*,#90,.T.);
#513=CARTESIAN_POINT('',(0.0,6.90247106471731,-50.79));
#514=DIRECTION('',(-0.0,0.0,1.0));
#515=DIRECTION('',(0.0,-1.0,0.0));
#516=DIRECTION('',(-6.12303176911191E-017,0.500000000000002,0.866025403784438));
#517=SURFACE_STYLE_FILL_AREA(#586);
#518=ORIENTED_EDGE('',*,*,#154,.T.);
#519=ORIENTED_EDGE('',*,*,#136,.F.);
#520=ORIENTED_EDGE('',*,*,#168,.T.);
#521=CARTESIAN_POINT('',(0.0,0.0,-50.795));
#522=DIRECTION('',(-0.0,-0.0,1.0));
#523=DIRECTION('',(0.0,1.0,0.0));
#524=SURFACE_STYLE_FILL_AREA(#587);
#525=ORIENTED_EDGE('',*,*,#148,.T.);
#526=ORIENTED_EDGE('',*,*,#84,.F.);
#527=ORIENTED_EDGE('',*,*,#130,.T.);
#528=ORIENTED_EDGE('',*,*,#86,.T.);
#529=CARTESIAN_POINT('',(0.0,0.0,-0.386999999999993));
#530=DIRECTION('',(0.0,-0.0,-1.0));
#531=DIRECTION('',(0.0,1.0,0.0));
#532=CARTESIAN_POINT('',(0.0,0.0,-50.79));
#533=DIRECTION('',(0.0,0.0,-1.0));
#534=DIRECTION('',(0.0,1.0,0.0));
#535=SURFACE_STYLE_FILL_AREA(#588);
#536=ORIENTED_EDGE('',*,*,#148,.F.);
#537=ORIENTED_EDGE('',*,*,#88,.T.);
#538=ORIENTED_EDGE('',*,*,#130,.F.);
#539=ORIENTED_EDGE('',*,*,#160,.F.);
#540=CARTESIAN_POINT('',(0.0,0.0,-0.386999999999993));
#541=DIRECTION('',(0.0,-0.0,-1.0));
#542=DIRECTION('',(0.0,1.0,0.0));
#543=DIRECTION('',(-0.0,-0.0,1.0));
#544=DIRECTION('',(-6.12303176911191E-017,0.500000000000002,-0.866025403784438));
#545=SURFACE_STYLE_FILL_AREA(#589);
#546=ORIENTED_EDGE('',*,*,#114,.F.);
#547=ORIENTED_EDGE('',*,*,#162,.T.);
#548=ORIENTED_EDGE('',*,*,#100,.F.);
#549=ORIENTED_EDGE('',*,*,#92,.F.);
#550=CARTESIAN_POINT('',(0.0,0.0,-66.69));
#551=DIRECTION('',(-0.0,-0.0,1.0));
#552=DIRECTION('',(0.0,1.0,0.0));
#553=DIRECTION('',(1.22460506773259E-016,-0.999998949793308,0.00144927991786356));
#554=CARTESIAN_POINT('',(0.0,0.0,-50.79));
#555=DIRECTION('',(0.0,0.0,-1.0));
#556=DIRECTION('',(0.0,1.0,0.0));
#557=SURFACE_STYLE_FILL_AREA(#590);
#558=ORIENTED_EDGE('',*,*,#94,.F.);
#559=ORIENTED_EDGE('',*,*,#160,.T.);
#560=ORIENTED_EDGE('',*,*,#146,.F.);
#561=ORIENTED_EDGE('',*,*,#116,.F.);
#562=CARTESIAN_POINT('',(0.0,0.0,-19.437));
#563=DIRECTION('',(-0.0,-0.0,1.0));
#564=DIRECTION('',(0.0,1.0,0.0));
#565=CARTESIAN_POINT('',(0.0,0.0,-0.783999999999992));
#566=DIRECTION('',(0.0,0.0,-1.0));
#567=DIRECTION('',(0.0,1.0,0.0));
#568=CARTESIAN_POINT('',(0.0,0.0,-50.79));
#569=DIRECTION('',(0.0,0.0,-1.0));
#570=DIRECTION('',(0.0,1.0,0.0));
#571=SURFACE_STYLE_FILL_AREA(#591);
#572=ORIENTED_EDGE('',*,*,#88,.F.);
#573=ORIENTED_EDGE('',*,*,#86,.F.);
#574=CARTESIAN_POINT('',(0.0,2.94579194313172,0.0100000000000051));
#575=DIRECTION('',(-0.0,0.0,1.0));
#576=DIRECTION('',(0.0,-1.0,0.0));
#577=DIRECTION('',(1.22460506773259E-016,-0.999998949793308,-0.00144927991786356));
#578=FILL_AREA_STYLE('',(#592));
#579=FILL_AREA_STYLE('',(#593));
#580=FILL_AREA_STYLE('',(#594));
#581=FILL_AREA_STYLE('',(#595));
#582=FILL_AREA_STYLE('',(#596));
#583=FILL_AREA_STYLE('',(#597));
#584=FILL_AREA_STYLE('',(#598));
#585=FILL_AREA_STYLE('',(#599));
#586=FILL_AREA_STYLE('',(#600));
#587=FILL_AREA_STYLE('',(#601));
#588=FILL_AREA_STYLE('',(#602));
#589=FILL_AREA_STYLE('',(#603));
#590=FILL_AREA_STYLE('',(#604));
#591=FILL_AREA_STYLE('',(#605));
#592=FILL_AREA_STYLE_COLOUR('',#606);
#593=FILL_AREA_STYLE_COLOUR('',#607);
#594=FILL_AREA_STYLE_COLOUR('',#608);
#595=FILL_AREA_STYLE_COLOUR('',#609);
#596=FILL_AREA_STYLE_COLOUR('',#610);
#597=FILL_AREA_STYLE_COLOUR('',#611);
#598=FILL_AREA_STYLE_COLOUR('',#612);
#599=FILL_AREA_STYLE_COLOUR('',#613);
#600=FILL_AREA_STYLE_COLOUR('',#614);
#601=FILL_AREA_STYLE_COLOUR('',#615);
#602=FILL_AREA_STYLE_COLOUR('',#616);
#603=FILL_AREA_STYLE_COLOUR('',#617);
#604=FILL_AREA_STYLE_COLOUR('',#618);
#605=FILL_AREA_STYLE_COLOUR('',#619);
#606=COLOUR_RGB('',0.800000011920929,0.800000011920929,0.800000011920929);
#607=COLOUR_RGB('',0.800000011920929,0.800000011920929,0.800000011920929);
#608=COLOUR_RGB('',0.498039215803146,0.498039215803146,0.498039215803146);
#609=COLOUR_RGB('',0.800000011920929,0.800000011920929,0.800000011920929);
#610=COLOUR_RGB('',0.498039215803146,0.498039215803146,0.498039215803146);
#611=COLOUR_RGB('',0.800000011920929,0.800000011920929,0.800000011920929);
#612=COLOUR_RGB('',0.800000011920929,0.800000011920929,0.800000011920929);
#613=COLOUR_RGB('',0.800000011920929,0.800000011920929,0.800000011920929);
#614=COLOUR_RGB('',0.800000011920929,0.800000011920929,0.800000011920929);
#615=COLOUR_RGB('',0.498039215803146,0.498039215803146,0.498039215803146);
#616=COLOUR_RGB('',0.498039215803146,0.498039215803146,0.498039215803146);
#617=COLOUR_RGB('',0.800000011920929,0.800000011920929,0.800000011920929);
#618=COLOUR_RGB('',0.498039215803146,0.498039215803146,0.498039215803146);
#619=COLOUR_RGB('',0.498039215803146,0.498039215803146,0.498039215803146);
#620=AXIS2_PLACEMENT_3D('PCS',#621,#622,#623);
#621=CARTESIAN_POINT('',(0.0,0.0,0.0));
#622=DIRECTION('',(0.0,0.0,1.0));
#623=DIRECTION('',(1.0,0.0,0.0));
#624=AXIS2_PLACEMENT_3D('CIP',#625,#626,#627);
#625=CARTESIAN_POINT('',(0.0,0.0,-82.6));
#626=DIRECTION('',(0.0,0.0,1.0));
#627=DIRECTION('',(1.0,0.0,0.0));
#628=AXIS2_PLACEMENT_3D('CRP',#629,#630,#631);
#629=CARTESIAN_POINT('',(-6.35,0.0,-82.6));
#630=DIRECTION('',(0.0,0.0,1.0));
#631=DIRECTION('',(1.0,0.0,0.0));
#632=AXIS2_PLACEMENT_3D('MCS',#633,#634,#635);
#633=CARTESIAN_POINT('',(0.0,0.0,-38.1));
#634=DIRECTION('',(0.0,0.0,1.0));
#635=DIRECTION('',(1.0,0.0,0.0));
#636=CONSTRUCTIVE_GEOMETRY_REPRESENTATION_RELATIONSHIP('coordinate systems',$,#65,#637);
#637=CONSTRUCTIVE_GEOMETRY_REPRESENTATION('coordinate systems',(#620,#624,#628,#632),#10);
ENDSEC;
END-ISO-10303-21;
