ISO-10303-21;
HEADER;
FILE_DESCRIPTION(('no description'),'unknown implementation level');
FILE_NAME('solidG8FOeNUHqG9aZuEpLk0axTA5Dsw_1.STP','  ',('CIMSOURCE GmbH'),('CADClick - KiM GmbH - www.kimweb.de'),'unknown preprocess','ACIS','unknown authorization');
FILE_SCHEMA(('automotive_design'));
ENDSEC;
DATA;
#1=MECHANICAL_DESIGN_GEOMETRIC_PRESENTATION_REPRESENTATION(' ',(#14,#15,#16,#17,#18,#19,#20,#21,#22,#23,#24,#25,#26,#27,#28,#29,#30,#31,#32,#33,#34,#35,#36,#37,#38,#39,#40,#41,#42,#43,#44,#45,#46,#47,#48,#49,#50,#51,#52,#53,#54,#55,#56,#57,#58,#59,#60),#10);
#2=PRODUCT_DEFINITION_CONTEXT('',#61,'design');
#3=APPLICATION_PROTOCOL_DEFINITION('INTERNATIONAL STANDARD','automotive_design',1994,#61);
#4=PRODUCT_CATEGORY_RELATIONSHIP('NONE','NONE',#62,#63);
#5=SHAPE_DEFINITION_REPRESENTATION(#64,#65);
#6=PRODUCT_DEFINITION_CONTEXT('',#66,'design');
#7=APPLICATION_PROTOCOL_DEFINITION('INTERNATIONAL STANDARD','automotive_design',1994,#66);
#8=PRODUCT_CATEGORY_RELATIONSHIP('NONE','NONE',#67,#68);
#9=SHAPE_DEFINITION_REPRESENTATION(#69,#70);
#10= (GEOMETRIC_REPRESENTATION_CONTEXT(3)GLOBAL_UNCERTAINTY_ASSIGNED_CONTEXT((#73))GLOBAL_UNIT_ASSIGNED_CONTEXT((#75,#76,#77))REPRESENTATION_CONTEXT('NONE','WORKSPACE'));
#14=STYLED_ITEM('',(#79),#80);
#15=STYLED_ITEM('',(#81),#82);
#16=STYLED_ITEM('',(#83),#84);
#17=STYLED_ITEM('',(#85),#86);
#18=STYLED_ITEM('',(#87),#88);
#19=STYLED_ITEM('',(#89),#90);
#20=STYLED_ITEM('',(#91),#92);
#21=STYLED_ITEM('',(#93),#94);
#22=STYLED_ITEM('',(#95),#96);
#23=STYLED_ITEM('',(#97),#98);
#24=STYLED_ITEM('',(#99),#100);
#25=STYLED_ITEM('',(#101),#102);
#26=STYLED_ITEM('',(#103),#104);
#27=STYLED_ITEM('',(#105),#106);
#28=STYLED_ITEM('',(#107),#108);
#29=STYLED_ITEM('',(#109),#110);
#30=STYLED_ITEM('',(#111),#112);
#31=STYLED_ITEM('',(#113),#114);
#32=STYLED_ITEM('',(#115),#116);
#33=STYLED_ITEM('',(#117),#118);
#34=STYLED_ITEM('',(#119),#120);
#35=STYLED_ITEM('',(#121),#122);
#36=STYLED_ITEM('',(#123),#124);
#37=STYLED_ITEM('',(#125),#126);
#38=STYLED_ITEM('',(#127),#128);
#39=STYLED_ITEM('',(#129),#130);
#40=STYLED_ITEM('',(#131),#132);
#41=STYLED_ITEM('',(#133),#134);
#42=STYLED_ITEM('',(#135),#136);
#43=STYLED_ITEM('',(#137),#138);
#44=STYLED_ITEM('',(#139),#140);
#45=STYLED_ITEM('',(#141),#142);
#46=STYLED_ITEM('',(#143),#144);
#47=STYLED_ITEM('',(#145),#146);
#48=STYLED_ITEM('',(#147),#148);
#49=STYLED_ITEM('',(#149),#150);
#50=STYLED_ITEM('',(#151),#152);
#51=STYLED_ITEM('',(#153),#154);
#52=STYLED_ITEM('',(#155),#156);
#53=STYLED_ITEM('',(#157),#158);
#54=STYLED_ITEM('',(#159),#160);
#55=STYLED_ITEM('',(#161),#162);
#56=STYLED_ITEM('',(#163),#164);
#57=STYLED_ITEM('',(#165),#166);
#58=STYLED_ITEM('',(#167),#168);
#59=STYLED_ITEM('',(#169),#170);
#60=STYLED_ITEM('',(#171),#172);
#61=APPLICATION_CONTEXT(' ');
#62=PRODUCT_CATEGORY('part','NONE');
#63=PRODUCT_RELATED_PRODUCT_CATEGORY('detail',' ',(#173));
#64=PRODUCT_DEFINITION_SHAPE('NONE','NONE',#174);
#65=ADVANCED_BREP_SHAPE_REPRESENTATION('1',(#130,#175),#10);
#66=APPLICATION_CONTEXT(' ');
#67=PRODUCT_CATEGORY('part','NONE');
#68=PRODUCT_RELATED_PRODUCT_CATEGORY('detail',' ',(#176));
#69=PRODUCT_DEFINITION_SHAPE('NONE','NONE',#177);
#70=ADVANCED_BREP_SHAPE_REPRESENTATION('2',(#136,#178),#10);
#73=UNCERTAINTY_MEASURE_WITH_UNIT(LENGTH_MEASURE(1.0E-006),#75,'','');
#75= (CONVERSION_BASED_UNIT('MILLIMETRE',#181)LENGTH_UNIT()NAMED_UNIT(#184));
#76= (NAMED_UNIT(#186)PLANE_ANGLE_UNIT()SI_UNIT($,.RADIAN.));
#77= (NAMED_UNIT(#186)SOLID_ANGLE_UNIT()SI_UNIT($,.STERADIAN.));
#79=PRESENTATION_STYLE_ASSIGNMENT((#192));
#80=EDGE_CURVE('',#104,#114,#193,.T.);
#81=PRESENTATION_STYLE_ASSIGNMENT((#194));
#82=ADVANCED_FACE('',(#195),#196,.T.);
#83=PRESENTATION_STYLE_ASSIGNMENT((#197));
#84=VERTEX_POINT('',#198);
#85=PRESENTATION_STYLE_ASSIGNMENT((#199));
#86=EDGE_CURVE('',#158,#84,#200,.T.);
#87=PRESENTATION_STYLE_ASSIGNMENT((#201));
#88=VERTEX_POINT('',#202);
#89=PRESENTATION_STYLE_ASSIGNMENT((#203));
#90=VERTEX_POINT('',#204);
#91=PRESENTATION_STYLE_ASSIGNMENT((#205));
#92=VERTEX_POINT('',#206);
#93=PRESENTATION_STYLE_ASSIGNMENT((#207));
#94=EDGE_CURVE('',#170,#156,#208,.T.);
#95=PRESENTATION_STYLE_ASSIGNMENT((#209));
#96=ADVANCED_FACE('',(#210),#211,.T.);
#97=PRESENTATION_STYLE_ASSIGNMENT((#212));
#98=ADVANCED_FACE('',(#213),#214,.T.);
#99=PRESENTATION_STYLE_ASSIGNMENT((#215));
#100=EDGE_CURVE('',#164,#146,#216,.T.);
#101=PRESENTATION_STYLE_ASSIGNMENT((#217));
#102=EDGE_CURVE('',#84,#88,#218,.T.);
#103=PRESENTATION_STYLE_ASSIGNMENT((#219));
#104=VERTEX_POINT('',#220);
#105=PRESENTATION_STYLE_ASSIGNMENT((#221));
#106=EDGE_CURVE('',#104,#170,#222,.T.);
#107=PRESENTATION_STYLE_ASSIGNMENT((#223));
#108=ADVANCED_FACE('',(#224),#225,.T.);
#109=PRESENTATION_STYLE_ASSIGNMENT((#226));
#110=EDGE_CURVE('',#140,#158,#227,.T.);
#111=PRESENTATION_STYLE_ASSIGNMENT((#228));
#112=VERTEX_POINT('',#229);
#113=PRESENTATION_STYLE_ASSIGNMENT((#230));
#114=VERTEX_POINT('',#231);
#115=PRESENTATION_STYLE_ASSIGNMENT((#232));
#116=ADVANCED_FACE('',(#233),#234,.T.);
#117=PRESENTATION_STYLE_ASSIGNMENT((#235));
#118=EDGE_CURVE('',#156,#164,#236,.T.);
#119=PRESENTATION_STYLE_ASSIGNMENT((#237));
#120=EDGE_CURVE('',#88,#84,#238,.T.);
#121=PRESENTATION_STYLE_ASSIGNMENT((#239));
#122=EDGE_CURVE('',#164,#156,#240,.T.);
#123=PRESENTATION_STYLE_ASSIGNMENT((#241));
#124=EDGE_CURVE('',#92,#112,#242,.T.);
#125=PRESENTATION_STYLE_ASSIGNMENT((#243));
#126=EDGE_CURVE('',#114,#104,#244,.T.);
#127=PRESENTATION_STYLE_ASSIGNMENT((#245));
#128=EDGE_CURVE('',#146,#170,#246,.T.);
#129=PRESENTATION_STYLE_ASSIGNMENT((#247));
#130=MANIFOLD_SOLID_BREP('1',#248);
#131=PRESENTATION_STYLE_ASSIGNMENT((#249));
#132=EDGE_CURVE('',#112,#90,#250,.T.);
#133=PRESENTATION_STYLE_ASSIGNMENT((#251));
#134=EDGE_CURVE('',#170,#146,#252,.T.);
#135=PRESENTATION_STYLE_ASSIGNMENT((#253));
#136=MANIFOLD_SOLID_BREP('2',#254);
#137=PRESENTATION_STYLE_ASSIGNMENT((#255));
#138=EDGE_CURVE('',#88,#140,#256,.T.);
#139=PRESENTATION_STYLE_ASSIGNMENT((#257));
#140=VERTEX_POINT('',#258);
#141=PRESENTATION_STYLE_ASSIGNMENT((#259));
#142=ADVANCED_FACE('',(#260,#261),#262,.T.);
#143=PRESENTATION_STYLE_ASSIGNMENT((#263));
#144=ADVANCED_FACE('',(#264),#265,.T.);
#145=PRESENTATION_STYLE_ASSIGNMENT((#266));
#146=VERTEX_POINT('',#267);
#147=PRESENTATION_STYLE_ASSIGNMENT((#268));
#148=EDGE_CURVE('',#112,#92,#269,.T.);
#149=PRESENTATION_STYLE_ASSIGNMENT((#270));
#150=ADVANCED_FACE('',(#271),#272,.T.);
#151=PRESENTATION_STYLE_ASSIGNMENT((#273));
#152=ADVANCED_FACE('',(#274),#275,.F.);
#153=PRESENTATION_STYLE_ASSIGNMENT((#276));
#154=EDGE_CURVE('',#146,#114,#277,.T.);
#155=PRESENTATION_STYLE_ASSIGNMENT((#278));
#156=VERTEX_POINT('',#279);
#157=PRESENTATION_STYLE_ASSIGNMENT((#280));
#158=VERTEX_POINT('',#281);
#159=PRESENTATION_STYLE_ASSIGNMENT((#282));
#160=EDGE_CURVE('',#158,#140,#283,.T.);
#161=PRESENTATION_STYLE_ASSIGNMENT((#284));
#162=ADVANCED_FACE('',(#285),#286,.T.);
#163=PRESENTATION_STYLE_ASSIGNMENT((#287));
#164=VERTEX_POINT('',#288);
#165=PRESENTATION_STYLE_ASSIGNMENT((#289));
#166=ADVANCED_FACE('',(#290),#291,.F.);
#167=PRESENTATION_STYLE_ASSIGNMENT((#292));
#168=ADVANCED_FACE('',(#293),#294,.T.);
#169=PRESENTATION_STYLE_ASSIGNMENT((#295));
#170=VERTEX_POINT('',#296);
#171=PRESENTATION_STYLE_ASSIGNMENT((#297));
#172=EDGE_CURVE('',#90,#92,#298,.T.);
#173=PRODUCT('1','1','PART-1-DESC',(#299));
#174=PRODUCT_DEFINITION('NONE','NONE',#300,#2);
#175=AXIS2_PLACEMENT_3D('',#301,#302,#303);
#176=PRODUCT('2','2','PART-2-DESC',(#304));
#177=PRODUCT_DEFINITION('NONE','NONE',#305,#6);
#178=AXIS2_PLACEMENT_3D('',#306,#307,#308);
#181=LENGTH_MEASURE_WITH_UNIT(LENGTH_MEASURE(1.0),#309);
#184=DIMENSIONAL_EXPONENTS(1.0,0.0,0.0,0.0,0.0,0.0,0.0);
#186=DIMENSIONAL_EXPONENTS(0.0,0.0,0.0,0.0,0.0,0.0,0.0);
#192=CURVE_STYLE('',#310,POSITIVE_LENGTH_MEASURE(1.0E-006),#311);
#193=CIRCLE('',#312,5.89158388626344);
#194=SURFACE_STYLE_USAGE(.BOTH.,#313);
#195=FACE_OUTER_BOUND('',#314,.T.);
#196=CONICAL_SURFACE('',#315,6.84916485694702,0.0174515448006355);
#197=POINT_STYLE(' ',#316,POSITIVE_LENGTH_MEASURE(1.0E-006),#317);
#198=CARTESIAN_POINT('',(8.99881125761641E-016,-7.34832971389404,-50.79));
#199=CURVE_STYLE('',#318,POSITIVE_LENGTH_MEASURE(1.0E-006),#319);
#200=LINE('',#320,#321);
#201=POINT_STYLE(' ',#322,POSITIVE_LENGTH_MEASURE(1.0E-006),#323);
#202=CARTESIAN_POINT('',(0.0,7.34832971389404,-50.79));
#203=POINT_STYLE(' ',#324,POSITIVE_LENGTH_MEASURE(1.0E-006),#325);
#204=CARTESIAN_POINT('',(0.0,0.0,-50.8));
#205=POINT_STYLE(' ',#326,POSITIVE_LENGTH_MEASURE(1.0E-006),#327);
#206=CARTESIAN_POINT('',(8.9926882258473E-016,-7.34332971389404,-50.79));
#207=CURVE_STYLE('',#328,POSITIVE_LENGTH_MEASURE(1.0E-006),#329);
#208=LINE('',#330,#331);
#209=SURFACE_STYLE_USAGE(.BOTH.,#332);
#210=FACE_OUTER_BOUND('',#333,.T.);
#211=CONICAL_SURFACE('',#334,6.12079194313172,0.523598775598301);
#212=SURFACE_STYLE_USAGE(.BOTH.,#335);
#213=FACE_OUTER_BOUND('',#336,.T.);
#214=PLANE('',#337);
#215=CURVE_STYLE('',#338,POSITIVE_LENGTH_MEASURE(1.0E-006),#339);
#216=LINE('',#340,#341);
#217=CURVE_STYLE('',#342,POSITIVE_LENGTH_MEASURE(1.0E-006),#343);
#218=CIRCLE('',#344,7.34832971389404);
#219=POINT_STYLE(' ',#345,POSITIVE_LENGTH_MEASURE(1.0E-006),#346);
#220=CARTESIAN_POINT('',(0.0,5.89158388626344,0.0100000000000051));
#221=CURVE_STYLE('',#347,POSITIVE_LENGTH_MEASURE(1.0E-006),#348);
#222=LINE('',#349,#350);
#223=SURFACE_STYLE_USAGE(.BOTH.,#351);
#224=FACE_OUTER_BOUND('',#352,.T.);
#225=CONICAL_SURFACE('',#353,6.84916485694702,0.0174515448006355);
#226=CURVE_STYLE('',#354,POSITIVE_LENGTH_MEASURE(1.0E-006),#355);
#227=CIRCLE('',#356,6.35);
#228=POINT_STYLE(' ',#357,POSITIVE_LENGTH_MEASURE(1.0E-006),#358);
#229=CARTESIAN_POINT('',(0.0,7.34332971389404,-50.79));
#230=POINT_STYLE(' ',#359,POSITIVE_LENGTH_MEASURE(1.0E-006),#360);
#231=CARTESIAN_POINT('',(7.21487106119574E-016,-5.89158388626344,0.0100000000000051));
#232=SURFACE_STYLE_USAGE(.BOTH.,#361);
#233=FACE_OUTER_BOUND('',#362,.T.);
#234=CYLINDRICAL_SURFACE('',#363,6.35);
#235=CURVE_STYLE('',#364,POSITIVE_LENGTH_MEASURE(1.0E-006),#365);
#236=CIRCLE('',#366,6.35);
#237=CURVE_STYLE('',#367,POSITIVE_LENGTH_MEASURE(1.0E-006),#368);
#238=CIRCLE('',#369,7.34832971389404);
#239=CURVE_STYLE('',#370,POSITIVE_LENGTH_MEASURE(1.0E-006),#371);
#240=CIRCLE('',#372,6.35);
#241=CURVE_STYLE('',#373,POSITIVE_LENGTH_MEASURE(1.0E-006),#374);
#242=CIRCLE('',#375,7.34332971389404);
#243=CURVE_STYLE('',#376,POSITIVE_LENGTH_MEASURE(1.0E-006),#377);
#244=CIRCLE('',#378,5.89158388626344);
#245=CURVE_STYLE('',#379,POSITIVE_LENGTH_MEASURE(1.0E-006),#380);
#246=CIRCLE('',#381,6.35);
#247=SURFACE_STYLE_USAGE(.BOTH.,#382);
#248=CLOSED_SHELL('',(#82,#152,#166,#142,#108,#98));
#249=CURVE_STYLE('',#383,POSITIVE_LENGTH_MEASURE(1.0E-006),#384);
#250=LINE('',#385,#386);
#251=CURVE_STYLE('',#387,POSITIVE_LENGTH_MEASURE(1.0E-006),#388);
#252=CIRCLE('',#389,6.35);
#253=SURFACE_STYLE_USAGE(.BOTH.,#390);
#254=CLOSED_SHELL('',(#168,#96,#150,#162,#144,#116));
#255=CURVE_STYLE('',#391,POSITIVE_LENGTH_MEASURE(1.0E-006),#392);
#256=LINE('',#393,#394);
#257=POINT_STYLE(' ',#395,POSITIVE_LENGTH_MEASURE(1.0E-006),#396);
#258=CARTESIAN_POINT('',(0.0,6.35,-107.99));
#259=SURFACE_STYLE_USAGE(.BOTH.,#397);
#260=FACE_OUTER_BOUND('',#398,.T.);
#261=FACE_BOUND('',#399,.T.);
#262=PLANE('',#400);
#263=SURFACE_STYLE_USAGE(.BOTH.,#401);
#264=FACE_OUTER_BOUND('',#402,.T.);
#265=CONICAL_SURFACE('',#403,6.12079194313172,0.523598775598301);
#266=POINT_STYLE(' ',#404,POSITIVE_LENGTH_MEASURE(1.0E-006),#405);
#267=CARTESIAN_POINT('',(7.7762503467721E-016,-6.35,-0.783999999999992));
#268=CURVE_STYLE('',#406,POSITIVE_LENGTH_MEASURE(1.0E-006),#407);
#269=CIRCLE('',#408,7.34332971389404);
#270=SURFACE_STYLE_USAGE(.BOTH.,#409);
#271=FACE_OUTER_BOUND('',#410,.T.);
#272=PLANE('',#411);
#273=SURFACE_STYLE_USAGE(.BOTH.,#412);
#274=FACE_OUTER_BOUND('',#413,.T.);
#275=CONICAL_SURFACE('',#414,3.67166485694702,1.56943454757374);
#276=CURVE_STYLE('',#415,POSITIVE_LENGTH_MEASURE(1.0E-006),#416);
#277=LINE('',#417,#418);
#278=POINT_STYLE(' ',#419,POSITIVE_LENGTH_MEASURE(1.0E-006),#420);
#279=CARTESIAN_POINT('',(-7.7762503467721E-016,6.35,-50.79));
#280=POINT_STYLE(' ',#421,POSITIVE_LENGTH_MEASURE(1.0E-006),#422);
#281=CARTESIAN_POINT('',(7.77625034677209E-016,-6.35,-107.99));
#282=CURVE_STYLE('',#423,POSITIVE_LENGTH_MEASURE(1.0E-006),#424);
#283=CIRCLE('',#425,6.35);
#284=SURFACE_STYLE_USAGE(.BOTH.,#426);
#285=FACE_OUTER_BOUND('',#427,.T.);
#286=PLANE('',#428);
#287=POINT_STYLE(' ',#429,POSITIVE_LENGTH_MEASURE(1.0E-006),#430);
#288=CARTESIAN_POINT('',(0.0,-6.35,-50.79));
#289=SURFACE_STYLE_USAGE(.BOTH.,#431);
#290=FACE_OUTER_BOUND('',#432,.T.);
#291=CONICAL_SURFACE('',#433,3.67166485694702,1.56943454757374);
#292=SURFACE_STYLE_USAGE(.BOTH.,#434);
#293=FACE_OUTER_BOUND('',#435,.T.);
#294=CYLINDRICAL_SURFACE('',#436,6.35);
#295=POINT_STYLE(' ',#437,POSITIVE_LENGTH_MEASURE(1.0E-006),#438);
#296=CARTESIAN_POINT('',(0.0,6.35,-0.783999999999992));
#297=CURVE_STYLE('',#439,POSITIVE_LENGTH_MEASURE(1.0E-006),#440);
#298=LINE('',#441,#442);
#299=PRODUCT_CONTEXT('',#61,'mechanical');
#300=PRODUCT_DEFINITION_FORMATION_WITH_SPECIFIED_SOURCE(' ','NONE',#173,.NOT_KNOWN.);
#301=CARTESIAN_POINT('',(0.0,0.0,0.0));
#302=DIRECTION('',(0.0,0.0,1.0));
#303=DIRECTION('',(1.0,0.0,0.0));
#304=PRODUCT_CONTEXT('',#66,'mechanical');
#305=PRODUCT_DEFINITION_FORMATION_WITH_SPECIFIED_SOURCE(' ','NONE',#176,.NOT_KNOWN.);
#306=CARTESIAN_POINT('',(0.0,0.0,0.0));
#307=DIRECTION('',(0.0,0.0,1.0));
#308=DIRECTION('',(1.0,0.0,0.0));
#309= (NAMED_UNIT(#184)LENGTH_UNIT()SI_UNIT(.MILLI.,.METRE.));
#310=DRAUGHTING_PRE_DEFINED_CURVE_FONT('continuous');
#311=COLOUR_RGB('',0.498039215803146,0.498039215803146,0.498039215803146);
#312=AXIS2_PLACEMENT_3D('',#444,#445,#446);
#313=SURFACE_SIDE_STYLE('',(#447));
#314=EDGE_LOOP('',(#448,#449,#450,#451));
#315=AXIS2_PLACEMENT_3D('',#452,#453,#454);
#316=PRE_DEFINED_MARKER('');
#317=COLOUR_RGB('',0.800000011920929,0.800000011920929,0.800000011920929);
#318=DRAUGHTING_PRE_DEFINED_CURVE_FONT('continuous');
#319=COLOUR_RGB('',0.800000011920929,0.800000011920929,0.800000011920929);
#320=CARTESIAN_POINT('',(8.38753080219425E-016,-6.84916485694702,-79.39));
#321=VECTOR('',#455,1.0);
#322=PRE_DEFINED_MARKER('');
#323=COLOUR_RGB('',0.800000011920929,0.800000011920929,0.800000011920929);
#324=PRE_DEFINED_MARKER('');
#325=COLOUR_RGB('',0.800000011920929,0.800000011920929,0.800000011920929);
#326=PRE_DEFINED_MARKER('');
#327=COLOUR_RGB('',0.800000011920929,0.800000011920929,0.800000011920929);
#328=DRAUGHTING_PRE_DEFINED_CURVE_FONT('continuous');
#329=COLOUR_RGB('',0.498039215803146,0.498039215803146,0.498039215803146);
#330=CARTESIAN_POINT('',(-7.7762503467721E-016,6.35,-19.437));
#331=VECTOR('',#456,1.0);
#332=SURFACE_SIDE_STYLE('',(#457));
#333=EDGE_LOOP('',(#458,#459,#460,#461));
#334=AXIS2_PLACEMENT_3D('',#462,#463,#464);
#335=SURFACE_SIDE_STYLE('',(#465));
#336=EDGE_LOOP('',(#466,#467));
#337=AXIS2_PLACEMENT_3D('',#468,#469,#470);
#338=DRAUGHTING_PRE_DEFINED_CURVE_FONT('continuous');
#339=COLOUR_RGB('',0.498039215803146,0.498039215803146,0.498039215803146);
#340=CARTESIAN_POINT('',(7.7762503467721E-016,-6.35,-19.437));
#341=VECTOR('',#471,1.0);
#342=DRAUGHTING_PRE_DEFINED_CURVE_FONT('continuous');
#343=COLOUR_RGB('',0.800000011920929,0.800000011920929,0.800000011920929);
#344=AXIS2_PLACEMENT_3D('',#472,#473,#474);
#345=PRE_DEFINED_MARKER('');
#346=COLOUR_RGB('',0.498039215803146,0.498039215803146,0.498039215803146);
#347=DRAUGHTING_PRE_DEFINED_CURVE_FONT('continuous');
#348=COLOUR_RGB('',0.498039215803146,0.498039215803146,0.498039215803146);
#349=CARTESIAN_POINT('',(-7.49556070398392E-016,6.12079194313172,-0.386999999999993));
#350=VECTOR('',#475,1.0);
#351=SURFACE_SIDE_STYLE('',(#476));
#352=EDGE_LOOP('',(#477,#478,#479,#480));
#353=AXIS2_PLACEMENT_3D('',#481,#482,#483);
#354=DRAUGHTING_PRE_DEFINED_CURVE_FONT('continuous');
#355=COLOUR_RGB('',0.800000011920929,0.800000011920929,0.800000011920929);
#356=AXIS2_PLACEMENT_3D('',#484,#485,#486);
#357=PRE_DEFINED_MARKER('');
#358=COLOUR_RGB('',0.800000011920929,0.800000011920929,0.800000011920929);
#359=PRE_DEFINED_MARKER('');
#360=COLOUR_RGB('',0.498039215803146,0.498039215803146,0.498039215803146);
#361=SURFACE_SIDE_STYLE('',(#487));
#362=EDGE_LOOP('',(#488,#489,#490,#491));
#363=AXIS2_PLACEMENT_3D('',#492,#493,#494);
#364=DRAUGHTING_PRE_DEFINED_CURVE_FONT('continuous');
#365=COLOUR_RGB('',0.498039215803146,0.498039215803146,0.498039215803146);
#366=AXIS2_PLACEMENT_3D('',#495,#496,#497);
#367=DRAUGHTING_PRE_DEFINED_CURVE_FONT('continuous');
#368=COLOUR_RGB('',0.800000011920929,0.800000011920929,0.800000011920929);
#369=AXIS2_PLACEMENT_3D('',#498,#499,#500);
#370=DRAUGHTING_PRE_DEFINED_CURVE_FONT('continuous');
#371=COLOUR_RGB('',0.498039215803146,0.498039215803146,0.498039215803146);
#372=AXIS2_PLACEMENT_3D('',#501,#502,#503);
#373=DRAUGHTING_PRE_DEFINED_CURVE_FONT('continuous');
#374=COLOUR_RGB('',0.800000011920929,0.800000011920929,0.800000011920929);
#375=AXIS2_PLACEMENT_3D('',#504,#505,#506);
#376=DRAUGHTING_PRE_DEFINED_CURVE_FONT('continuous');
#377=COLOUR_RGB('',0.498039215803146,0.498039215803146,0.498039215803146);
#378=AXIS2_PLACEMENT_3D('',#507,#508,#509);
#379=DRAUGHTING_PRE_DEFINED_CURVE_FONT('continuous');
#380=COLOUR_RGB('',0.498039215803146,0.498039215803146,0.498039215803146);
#381=AXIS2_PLACEMENT_3D('',#510,#511,#512);
#382=SURFACE_SIDE_STYLE('',(#513));
#383=DRAUGHTING_PRE_DEFINED_CURVE_FONT('continuous');
#384=COLOUR_RGB('',0.800000011920929,0.800000011920929,0.800000011920929);
#385=CARTESIAN_POINT('',(-4.49634411292365E-016,3.67166485694702,-50.795));
#386=VECTOR('',#514,1.0);
#387=DRAUGHTING_PRE_DEFINED_CURVE_FONT('continuous');
#388=COLOUR_RGB('',0.498039215803146,0.498039215803146,0.498039215803146);
#389=AXIS2_PLACEMENT_3D('',#515,#516,#517);
#390=SURFACE_SIDE_STYLE('',(#518));
#391=DRAUGHTING_PRE_DEFINED_CURVE_FONT('continuous');
#392=COLOUR_RGB('',0.800000011920929,0.800000011920929,0.800000011920929);
#393=CARTESIAN_POINT('',(-8.38753080219425E-016,6.84916485694702,-79.39));
#394=VECTOR('',#519,1.0);
#395=PRE_DEFINED_MARKER('');
#396=COLOUR_RGB('',0.800000011920929,0.800000011920929,0.800000011920929);
#397=SURFACE_SIDE_STYLE('',(#520));
#398=EDGE_LOOP('',(#521,#522));
#399=EDGE_LOOP('',(#523,#524));
#400=AXIS2_PLACEMENT_3D('',#525,#526,#527);
#401=SURFACE_SIDE_STYLE('',(#528));
#402=EDGE_LOOP('',(#529,#530,#531,#532));
#403=AXIS2_PLACEMENT_3D('',#533,#534,#535);
#404=PRE_DEFINED_MARKER('');
#405=COLOUR_RGB('',0.498039215803146,0.498039215803146,0.498039215803146);
#406=DRAUGHTING_PRE_DEFINED_CURVE_FONT('continuous');
#407=COLOUR_RGB('',0.800000011920929,0.800000011920929,0.800000011920929);
#408=AXIS2_PLACEMENT_3D('',#536,#537,#538);
#409=SURFACE_SIDE_STYLE('',(#539));
#410=EDGE_LOOP('',(#540,#541));
#411=AXIS2_PLACEMENT_3D('',#542,#543,#544);
#412=SURFACE_SIDE_STYLE('',(#545));
#413=EDGE_LOOP('',(#546,#547,#548));
#414=AXIS2_PLACEMENT_3D('',#549,#550,#551);
#415=DRAUGHTING_PRE_DEFINED_CURVE_FONT('continuous');
#416=COLOUR_RGB('',0.498039215803146,0.498039215803146,0.498039215803146);
#417=CARTESIAN_POINT('',(7.49556070398392E-016,-6.12079194313172,-0.386999999999993));
#418=VECTOR('',#552,1.0);
#419=PRE_DEFINED_MARKER('');
#420=COLOUR_RGB('',0.498039215803146,0.498039215803146,0.498039215803146);
#421=PRE_DEFINED_MARKER('');
#422=COLOUR_RGB('',0.800000011920929,0.800000011920929,0.800000011920929);
#423=DRAUGHTING_PRE_DEFINED_CURVE_FONT('continuous');
#424=COLOUR_RGB('',0.800000011920929,0.800000011920929,0.800000011920929);
#425=AXIS2_PLACEMENT_3D('',#553,#554,#555);
#426=SURFACE_SIDE_STYLE('',(#556));
#427=EDGE_LOOP('',(#557,#558));
#428=AXIS2_PLACEMENT_3D('',#559,#560,#561);
#429=PRE_DEFINED_MARKER('');
#430=COLOUR_RGB('',0.498039215803146,0.498039215803146,0.498039215803146);
#431=SURFACE_SIDE_STYLE('',(#562));
#432=EDGE_LOOP('',(#563,#564,#565));
#433=AXIS2_PLACEMENT_3D('',#566,#567,#568);
#434=SURFACE_SIDE_STYLE('',(#569));
#435=EDGE_LOOP('',(#570,#571,#572,#573));
#436=AXIS2_PLACEMENT_3D('',#574,#575,#576);
#437=PRE_DEFINED_MARKER('');
#438=COLOUR_RGB('',0.498039215803146,0.498039215803146,0.498039215803146);
#439=DRAUGHTING_PRE_DEFINED_CURVE_FONT('continuous');
#440=COLOUR_RGB('',0.800000011920929,0.800000011920929,0.800000011920929);
#441=CARTESIAN_POINT('',(4.49634411292365E-016,-3.67166485694702,-50.795));
#442=VECTOR('',#577,1.0);
#444=CARTESIAN_POINT('',(0.0,0.0,0.0100000000000051));
#445=DIRECTION('',(0.0,0.0,-1.0));
#446=DIRECTION('',(0.0,1.0,0.0));
#447=SURFACE_STYLE_FILL_AREA(#578);
#448=ORIENTED_EDGE('',*,*,#138,.F.);
#449=ORIENTED_EDGE('',*,*,#120,.T.);
#450=ORIENTED_EDGE('',*,*,#86,.F.);
#451=ORIENTED_EDGE('',*,*,#110,.F.);
#452=CARTESIAN_POINT('',(0.0,0.0,-79.39));
#453=DIRECTION('',(-0.0,-0.0,1.0));
#454=DIRECTION('',(0.0,1.0,0.0));
#455=DIRECTION('',(2.13701878703594E-018,-0.0174506589841351,0.999847725656772));
#456=DIRECTION('',(0.0,0.0,-1.0));
#457=SURFACE_STYLE_FILL_AREA(#579);
#458=ORIENTED_EDGE('',*,*,#106,.F.);
#459=ORIENTED_EDGE('',*,*,#80,.T.);
#460=ORIENTED_EDGE('',*,*,#154,.F.);
#461=ORIENTED_EDGE('',*,*,#134,.F.);
#462=CARTESIAN_POINT('',(0.0,0.0,-0.386999999999993));
#463=DIRECTION('',(0.0,-0.0,-1.0));
#464=DIRECTION('',(0.0,1.0,0.0));
#465=SURFACE_STYLE_FILL_AREA(#580);
#466=ORIENTED_EDGE('',*,*,#110,.T.);
#467=ORIENTED_EDGE('',*,*,#160,.T.);
#468=CARTESIAN_POINT('',(0.0,3.1725,-107.99));
#469=DIRECTION('',(0.0,0.0,-1.0));
#470=DIRECTION('',(0.0,1.0,0.0));
#471=DIRECTION('',(-0.0,-0.0,1.0));
#472=CARTESIAN_POINT('',(0.0,0.0,-50.79));
#473=DIRECTION('',(0.0,0.0,-1.0));
#474=DIRECTION('',(0.0,1.0,0.0));
#475=DIRECTION('',(-6.12303176911191E-017,0.500000000000002,-0.866025403784438));
#476=SURFACE_STYLE_FILL_AREA(#581);
#477=ORIENTED_EDGE('',*,*,#138,.T.);
#478=ORIENTED_EDGE('',*,*,#160,.F.);
#479=ORIENTED_EDGE('',*,*,#86,.T.);
#480=ORIENTED_EDGE('',*,*,#102,.T.);
#481=CARTESIAN_POINT('',(0.0,0.0,-79.39));
#482=DIRECTION('',(-0.0,-0.0,1.0));
#483=DIRECTION('',(0.0,1.0,0.0));
#484=CARTESIAN_POINT('',(0.0,0.0,-107.99));
#485=DIRECTION('',(0.0,0.0,-1.0));
#486=DIRECTION('',(0.0,1.0,0.0));
#487=SURFACE_STYLE_FILL_AREA(#582);
#488=ORIENTED_EDGE('',*,*,#94,.T.);
#489=ORIENTED_EDGE('',*,*,#122,.F.);
#490=ORIENTED_EDGE('',*,*,#100,.T.);
#491=ORIENTED_EDGE('',*,*,#128,.T.);
#492=CARTESIAN_POINT('',(0.0,0.0,-19.437));
#493=DIRECTION('',(-0.0,-0.0,1.0));
#494=DIRECTION('',(0.0,1.0,0.0));
#495=CARTESIAN_POINT('',(0.0,0.0,-50.79));
#496=DIRECTION('',(0.0,0.0,-1.0));
#497=DIRECTION('',(0.0,-1.0,0.0));
#498=CARTESIAN_POINT('',(0.0,0.0,-50.79));
#499=DIRECTION('',(0.0,0.0,-1.0));
#500=DIRECTION('',(0.0,1.0,0.0));
#501=CARTESIAN_POINT('',(0.0,0.0,-50.79));
#502=DIRECTION('',(0.0,0.0,-1.0));
#503=DIRECTION('',(0.0,-1.0,0.0));
#504=CARTESIAN_POINT('',(0.0,0.0,-50.79));
#505=DIRECTION('',(0.0,0.0,-1.0));
#506=DIRECTION('',(0.0,1.0,0.0));
#507=CARTESIAN_POINT('',(0.0,0.0,0.0100000000000051));
#508=DIRECTION('',(0.0,0.0,-1.0));
#509=DIRECTION('',(0.0,1.0,0.0));
#510=CARTESIAN_POINT('',(0.0,0.0,-0.783999999999992));
#511=DIRECTION('',(0.0,0.0,-1.0));
#512=DIRECTION('',(0.0,1.0,0.0));
#513=SURFACE_STYLE_FILL_AREA(#583);
#514=DIRECTION('',(1.22460521834143E-016,-0.99999907277882,-0.0013617788002714));
#515=CARTESIAN_POINT('',(0.0,0.0,-0.783999999999992));
#516=DIRECTION('',(0.0,0.0,-1.0));
#517=DIRECTION('',(0.0,1.0,0.0));
#518=SURFACE_STYLE_FILL_AREA(#584);
#519=DIRECTION('',(2.13701878703594E-018,-0.0174506589841351,-0.999847725656772));
#520=SURFACE_STYLE_FILL_AREA(#585);
#521=ORIENTED_EDGE('',*,*,#120,.F.);
#522=ORIENTED_EDGE('',*,*,#102,.F.);
#523=ORIENTED_EDGE('',*,*,#148,.T.);
#524=ORIENTED_EDGE('',*,*,#124,.T.);
#525=CARTESIAN_POINT('',(0.0,7.34582971389404,-50.79));
#526=DIRECTION('',(-0.0,0.0,1.0));
#527=DIRECTION('',(0.0,-1.0,0.0));
#528=SURFACE_STYLE_FILL_AREA(#586);
#529=ORIENTED_EDGE('',*,*,#106,.T.);
#530=ORIENTED_EDGE('',*,*,#128,.F.);
#531=ORIENTED_EDGE('',*,*,#154,.T.);
#532=ORIENTED_EDGE('',*,*,#126,.T.);
#533=CARTESIAN_POINT('',(0.0,0.0,-0.386999999999993));
#534=DIRECTION('',(0.0,-0.0,-1.0));
#535=DIRECTION('',(0.0,1.0,0.0));
#536=CARTESIAN_POINT('',(0.0,0.0,-50.79));
#537=DIRECTION('',(0.0,0.0,-1.0));
#538=DIRECTION('',(0.0,1.0,0.0));
#539=SURFACE_STYLE_FILL_AREA(#587);
#540=ORIENTED_EDGE('',*,*,#122,.T.);
#541=ORIENTED_EDGE('',*,*,#118,.T.);
#542=CARTESIAN_POINT('',(0.0,0.0,-50.79));
#543=DIRECTION('',(0.0,0.0,-1.0));
#544=DIRECTION('',(0.0,-1.0,0.0));
#545=SURFACE_STYLE_FILL_AREA(#588);
#546=ORIENTED_EDGE('',*,*,#172,.F.);
#547=ORIENTED_EDGE('',*,*,#132,.F.);
#548=ORIENTED_EDGE('',*,*,#124,.F.);
#549=CARTESIAN_POINT('',(0.0,0.0,-50.795));
#550=DIRECTION('',(-0.0,-0.0,1.0));
#551=DIRECTION('',(0.0,1.0,0.0));
#552=DIRECTION('',(-6.12303176911191E-017,0.500000000000002,0.866025403784438));
#553=CARTESIAN_POINT('',(0.0,0.0,-107.99));
#554=DIRECTION('',(0.0,0.0,-1.0));
#555=DIRECTION('',(0.0,1.0,0.0));
#556=SURFACE_STYLE_FILL_AREA(#589);
#557=ORIENTED_EDGE('',*,*,#80,.F.);
#558=ORIENTED_EDGE('',*,*,#126,.F.);
#559=CARTESIAN_POINT('',(0.0,2.94579194313172,0.0100000000000051));
#560=DIRECTION('',(-0.0,0.0,1.0));
#561=DIRECTION('',(0.0,-1.0,0.0));
#562=SURFACE_STYLE_FILL_AREA(#590);
#563=ORIENTED_EDGE('',*,*,#172,.T.);
#564=ORIENTED_EDGE('',*,*,#148,.F.);
#565=ORIENTED_EDGE('',*,*,#132,.T.);
#566=CARTESIAN_POINT('',(0.0,0.0,-50.795));
#567=DIRECTION('',(-0.0,-0.0,1.0));
#568=DIRECTION('',(0.0,1.0,0.0));
#569=SURFACE_STYLE_FILL_AREA(#591);
#570=ORIENTED_EDGE('',*,*,#94,.F.);
#571=ORIENTED_EDGE('',*,*,#134,.T.);
#572=ORIENTED_EDGE('',*,*,#100,.F.);
#573=ORIENTED_EDGE('',*,*,#118,.F.);
#574=CARTESIAN_POINT('',(0.0,0.0,-19.437));
#575=DIRECTION('',(-0.0,-0.0,1.0));
#576=DIRECTION('',(0.0,1.0,0.0));
#577=DIRECTION('',(1.22460521834143E-016,-0.99999907277882,0.0013617788002714));
#578=FILL_AREA_STYLE('',(#592));
#579=FILL_AREA_STYLE('',(#593));
#580=FILL_AREA_STYLE('',(#594));
#581=FILL_AREA_STYLE('',(#595));
#582=FILL_AREA_STYLE('',(#596));
#583=FILL_AREA_STYLE('',(#597));
#584=FILL_AREA_STYLE('',(#598));
#585=FILL_AREA_STYLE('',(#599));
#586=FILL_AREA_STYLE('',(#600));
#587=FILL_AREA_STYLE('',(#601));
#588=FILL_AREA_STYLE('',(#602));
#589=FILL_AREA_STYLE('',(#603));
#590=FILL_AREA_STYLE('',(#604));
#591=FILL_AREA_STYLE('',(#605));
#592=FILL_AREA_STYLE_COLOUR('',#606);
#593=FILL_AREA_STYLE_COLOUR('',#607);
#594=FILL_AREA_STYLE_COLOUR('',#608);
#595=FILL_AREA_STYLE_COLOUR('',#609);
#596=FILL_AREA_STYLE_COLOUR('',#610);
#597=FILL_AREA_STYLE_COLOUR('',#611);
#598=FILL_AREA_STYLE_COLOUR('',#612);
#599=FILL_AREA_STYLE_COLOUR('',#613);
#600=FILL_AREA_STYLE_COLOUR('',#614);
#601=FILL_AREA_STYLE_COLOUR('',#615);
#602=FILL_AREA_STYLE_COLOUR('',#616);
#603=FILL_AREA_STYLE_COLOUR('',#617);
#604=FILL_AREA_STYLE_COLOUR('',#618);
#605=FILL_AREA_STYLE_COLOUR('',#619);
#606=COLOUR_RGB('',0.800000011920929,0.800000011920929,0.800000011920929);
#607=COLOUR_RGB('',0.498039215803146,0.498039215803146,0.498039215803146);
#608=COLOUR_RGB('',0.800000011920929,0.800000011920929,0.800000011920929);
#609=COLOUR_RGB('',0.800000011920929,0.800000011920929,0.800000011920929);
#610=COLOUR_RGB('',0.498039215803146,0.498039215803146,0.498039215803146);
#611=COLOUR_RGB('',0.800000011920929,0.800000011920929,0.800000011920929);
#612=COLOUR_RGB('',0.800000011920929,0.800000011920929,0.800000011920929);
#613=COLOUR_RGB('',0.800000011920929,0.800000011920929,0.800000011920929);
#614=COLOUR_RGB('',0.498039215803146,0.498039215803146,0.498039215803146);
#615=COLOUR_RGB('',0.498039215803146,0.498039215803146,0.498039215803146);
#616=COLOUR_RGB('',0.800000011920929,0.800000011920929,0.800000011920929);
#617=COLOUR_RGB('',0.498039215803146,0.498039215803146,0.498039215803146);
#618=COLOUR_RGB('',0.800000011920929,0.800000011920929,0.800000011920929);
#619=COLOUR_RGB('',0.498039215803146,0.498039215803146,0.498039215803146);
#620=AXIS2_PLACEMENT_3D('PCS',#621,#622,#623);
#621=CARTESIAN_POINT('',(0.0,0.0,0.0));
#622=DIRECTION('',(0.0,0.0,1.0));
#623=DIRECTION('',(1.0,0.0,0.0));
#624=AXIS2_PLACEMENT_3D('CIP',#625,#626,#627);
#625=CARTESIAN_POINT('',(0.0,0.0,-108.0));
#626=DIRECTION('',(0.0,0.0,1.0));
#627=DIRECTION('',(1.0,0.0,0.0));
#628=AXIS2_PLACEMENT_3D('CRP',#629,#630,#631);
#629=CARTESIAN_POINT('',(-6.35,0.0,-108.0));
#630=DIRECTION('',(0.0,0.0,1.0));
#631=DIRECTION('',(1.0,0.0,0.0));
#632=AXIS2_PLACEMENT_3D('MCS',#633,#634,#635);
#633=CARTESIAN_POINT('',(0.0,0.0,-38.1));
#634=DIRECTION('',(0.0,0.0,1.0));
#635=DIRECTION('',(1.0,0.0,0.0));
#636=CONSTRUCTIVE_GEOMETRY_REPRESENTATION_RELATIONSHIP('coordinate systems',$,#65,#637);
#637=CONSTRUCTIVE_GEOMETRY_REPRESENTATION('coordinate systems',(#620,#624,#628,#632),#10);
ENDSEC;
END-ISO-10303-21;
