ISO-10303-21;
HEADER;
FILE_DESCRIPTION(('no description'),'unknown implementation level');
FILE_NAME('solid_yyF3bxFM95GfZLXkndOUBDMeiY_1.STP','  ',('CIMSOURCE GmbH'),('CADClick - KiM GmbH - www.kimweb.de'),'unknown preprocess','ACIS','unknown authorization');
FILE_SCHEMA(('automotive_design'));
ENDSEC;
DATA;
#1=MECHANICAL_DESIGN_GEOMETRIC_PRESENTATION_REPRESENTATION(' ',(#14,#15,#16,#17,#18,#19,#20,#21,#22,#23,#24,#25,#26,#27,#28,#29,#30,#31,#32,#33,#34,#35,#36,#37,#38,#39,#40,#41,#42,#43,#44,#45,#46,#47,#48,#49,#50,#51,#52,#53,#54,#55,#56,#57,#58,#59,#60),#10);
#2=PRODUCT_DEFINITION_CONTEXT('',#61,'design');
#3=APPLICATION_PROTOCOL_DEFINITION('INTERNATIONAL STANDARD','automotive_design',1994,#61);
#4=PRODUCT_CATEGORY_RELATIONSHIP('NONE','NONE',#62,#63);
#5=SHAPE_DEFINITION_REPRESENTATION(#64,#65);
#6=PRODUCT_DEFINITION_CONTEXT('',#66,'design');
#7=APPLICATION_PROTOCOL_DEFINITION('INTERNATIONAL STANDARD','automotive_design',1994,#66);
#8=PRODUCT_CATEGORY_RELATIONSHIP('NONE','NONE',#67,#68);
#9=SHAPE_DEFINITION_REPRESENTATION(#69,#70);
#10= (GEOMETRIC_REPRESENTATION_CONTEXT(3)GLOBAL_UNCERTAINTY_ASSIGNED_CONTEXT((#73))GLOBAL_UNIT_ASSIGNED_CONTEXT((#75,#76,#77))REPRESENTATION_CONTEXT('NONE','WORKSPACE'));
#14=STYLED_ITEM('',(#79),#80);
#15=STYLED_ITEM('',(#81),#82);
#16=STYLED_ITEM('',(#83),#84);
#17=STYLED_ITEM('',(#85),#86);
#18=STYLED_ITEM('',(#87),#88);
#19=STYLED_ITEM('',(#89),#90);
#20=STYLED_ITEM('',(#91),#92);
#21=STYLED_ITEM('',(#93),#94);
#22=STYLED_ITEM('',(#95),#96);
#23=STYLED_ITEM('',(#97),#98);
#24=STYLED_ITEM('',(#99),#100);
#25=STYLED_ITEM('',(#101),#102);
#26=STYLED_ITEM('',(#103),#104);
#27=STYLED_ITEM('',(#105),#106);
#28=STYLED_ITEM('',(#107),#108);
#29=STYLED_ITEM('',(#109),#110);
#30=STYLED_ITEM('',(#111),#112);
#31=STYLED_ITEM('',(#113),#114);
#32=STYLED_ITEM('',(#115),#116);
#33=STYLED_ITEM('',(#117),#118);
#34=STYLED_ITEM('',(#119),#120);
#35=STYLED_ITEM('',(#121),#122);
#36=STYLED_ITEM('',(#123),#124);
#37=STYLED_ITEM('',(#125),#126);
#38=STYLED_ITEM('',(#127),#128);
#39=STYLED_ITEM('',(#129),#130);
#40=STYLED_ITEM('',(#131),#132);
#41=STYLED_ITEM('',(#133),#134);
#42=STYLED_ITEM('',(#135),#136);
#43=STYLED_ITEM('',(#137),#138);
#44=STYLED_ITEM('',(#139),#140);
#45=STYLED_ITEM('',(#141),#142);
#46=STYLED_ITEM('',(#143),#144);
#47=STYLED_ITEM('',(#145),#146);
#48=STYLED_ITEM('',(#147),#148);
#49=STYLED_ITEM('',(#149),#150);
#50=STYLED_ITEM('',(#151),#152);
#51=STYLED_ITEM('',(#153),#154);
#52=STYLED_ITEM('',(#155),#156);
#53=STYLED_ITEM('',(#157),#158);
#54=STYLED_ITEM('',(#159),#160);
#55=STYLED_ITEM('',(#161),#162);
#56=STYLED_ITEM('',(#163),#164);
#57=STYLED_ITEM('',(#165),#166);
#58=STYLED_ITEM('',(#167),#168);
#59=STYLED_ITEM('',(#169),#170);
#60=STYLED_ITEM('',(#171),#172);
#61=APPLICATION_CONTEXT(' ');
#62=PRODUCT_CATEGORY('part','NONE');
#63=PRODUCT_RELATED_PRODUCT_CATEGORY('detail',' ',(#173));
#64=PRODUCT_DEFINITION_SHAPE('NONE','NONE',#174);
#65=ADVANCED_BREP_SHAPE_REPRESENTATION('1',(#102,#175),#10);
#66=APPLICATION_CONTEXT(' ');
#67=PRODUCT_CATEGORY('part','NONE');
#68=PRODUCT_RELATED_PRODUCT_CATEGORY('detail',' ',(#176));
#69=PRODUCT_DEFINITION_SHAPE('NONE','NONE',#177);
#70=ADVANCED_BREP_SHAPE_REPRESENTATION('2',(#130,#178),#10);
#73=UNCERTAINTY_MEASURE_WITH_UNIT(LENGTH_MEASURE(1.0E-006),#75,'','');
#75= (CONVERSION_BASED_UNIT('MILLIMETRE',#181)LENGTH_UNIT()NAMED_UNIT(#184));
#76= (NAMED_UNIT(#186)PLANE_ANGLE_UNIT()SI_UNIT($,.RADIAN.));
#77= (NAMED_UNIT(#186)SOLID_ANGLE_UNIT()SI_UNIT($,.STERADIAN.));
#79=PRESENTATION_STYLE_ASSIGNMENT((#192));
#80=VERTEX_POINT('',#193);
#81=PRESENTATION_STYLE_ASSIGNMENT((#194));
#82=VERTEX_POINT('',#195);
#83=PRESENTATION_STYLE_ASSIGNMENT((#196));
#84=VERTEX_POINT('',#197);
#85=PRESENTATION_STYLE_ASSIGNMENT((#198));
#86=ADVANCED_FACE('',(#199),#200,.T.);
#87=PRESENTATION_STYLE_ASSIGNMENT((#201));
#88=EDGE_CURVE('',#134,#144,#202,.T.);
#89=PRESENTATION_STYLE_ASSIGNMENT((#203));
#90=EDGE_CURVE('',#84,#162,#204,.T.);
#91=PRESENTATION_STYLE_ASSIGNMENT((#205));
#92=EDGE_CURVE('',#128,#82,#206,.T.);
#93=PRESENTATION_STYLE_ASSIGNMENT((#207));
#94=EDGE_CURVE('',#158,#168,#208,.T.);
#95=PRESENTATION_STYLE_ASSIGNMENT((#209));
#96=ADVANCED_FACE('',(#210),#211,.T.);
#97=PRESENTATION_STYLE_ASSIGNMENT((#212));
#98=VERTEX_POINT('',#213);
#99=PRESENTATION_STYLE_ASSIGNMENT((#214));
#100=EDGE_CURVE('',#82,#84,#215,.T.);
#101=PRESENTATION_STYLE_ASSIGNMENT((#216));
#102=MANIFOLD_SOLID_BREP('1',#217);
#103=PRESENTATION_STYLE_ASSIGNMENT((#218));
#104=VERTEX_POINT('',#219);
#105=PRESENTATION_STYLE_ASSIGNMENT((#220));
#106=EDGE_CURVE('',#144,#82,#221,.T.);
#107=PRESENTATION_STYLE_ASSIGNMENT((#222));
#108=EDGE_CURVE('',#104,#80,#223,.T.);
#109=PRESENTATION_STYLE_ASSIGNMENT((#224));
#110=ADVANCED_FACE('',(#225),#226,.T.);
#111=PRESENTATION_STYLE_ASSIGNMENT((#227));
#112=ADVANCED_FACE('',(#228),#229,.F.);
#113=PRESENTATION_STYLE_ASSIGNMENT((#230));
#114=ADVANCED_FACE('',(#231,#232),#233,.T.);
#115=PRESENTATION_STYLE_ASSIGNMENT((#234));
#116=EDGE_CURVE('',#168,#158,#235,.T.);
#117=PRESENTATION_STYLE_ASSIGNMENT((#236));
#118=ADVANCED_FACE('',(#237),#238,.T.);
#119=PRESENTATION_STYLE_ASSIGNMENT((#239));
#120=VERTEX_POINT('',#240);
#121=PRESENTATION_STYLE_ASSIGNMENT((#241));
#122=EDGE_CURVE('',#162,#128,#242,.T.);
#123=PRESENTATION_STYLE_ASSIGNMENT((#243));
#124=EDGE_CURVE('',#162,#84,#244,.T.);
#125=PRESENTATION_STYLE_ASSIGNMENT((#245));
#126=EDGE_CURVE('',#144,#134,#246,.T.);
#127=PRESENTATION_STYLE_ASSIGNMENT((#247));
#128=VERTEX_POINT('',#248);
#129=PRESENTATION_STYLE_ASSIGNMENT((#249));
#130=MANIFOLD_SOLID_BREP('2',#250);
#131=PRESENTATION_STYLE_ASSIGNMENT((#251));
#132=ADVANCED_FACE('',(#252),#253,.F.);
#133=PRESENTATION_STYLE_ASSIGNMENT((#254));
#134=VERTEX_POINT('',#255);
#135=PRESENTATION_STYLE_ASSIGNMENT((#256));
#136=EDGE_CURVE('',#104,#98,#257,.T.);
#137=PRESENTATION_STYLE_ASSIGNMENT((#258));
#138=EDGE_CURVE('',#146,#120,#259,.T.);
#139=PRESENTATION_STYLE_ASSIGNMENT((#260));
#140=EDGE_CURVE('',#80,#104,#261,.T.);
#141=PRESENTATION_STYLE_ASSIGNMENT((#262));
#142=EDGE_CURVE('',#128,#134,#263,.T.);
#143=PRESENTATION_STYLE_ASSIGNMENT((#264));
#144=VERTEX_POINT('',#265);
#145=PRESENTATION_STYLE_ASSIGNMENT((#266));
#146=VERTEX_POINT('',#267);
#147=PRESENTATION_STYLE_ASSIGNMENT((#268));
#148=EDGE_CURVE('',#168,#146,#269,.T.);
#149=PRESENTATION_STYLE_ASSIGNMENT((#270));
#150=EDGE_CURVE('',#120,#158,#271,.T.);
#151=PRESENTATION_STYLE_ASSIGNMENT((#272));
#152=ADVANCED_FACE('',(#273),#274,.T.);
#153=PRESENTATION_STYLE_ASSIGNMENT((#275));
#154=ADVANCED_FACE('',(#276),#277,.T.);
#155=PRESENTATION_STYLE_ASSIGNMENT((#278));
#156=ADVANCED_FACE('',(#279),#280,.T.);
#157=PRESENTATION_STYLE_ASSIGNMENT((#281));
#158=VERTEX_POINT('',#282);
#159=PRESENTATION_STYLE_ASSIGNMENT((#283));
#160=EDGE_CURVE('',#120,#146,#284,.T.);
#161=PRESENTATION_STYLE_ASSIGNMENT((#285));
#162=VERTEX_POINT('',#286);
#163=PRESENTATION_STYLE_ASSIGNMENT((#287));
#164=ADVANCED_FACE('',(#288),#289,.T.);
#165=PRESENTATION_STYLE_ASSIGNMENT((#290));
#166=ADVANCED_FACE('',(#291),#292,.T.);
#167=PRESENTATION_STYLE_ASSIGNMENT((#293));
#168=VERTEX_POINT('',#294);
#169=PRESENTATION_STYLE_ASSIGNMENT((#295));
#170=EDGE_CURVE('',#98,#80,#296,.T.);
#171=PRESENTATION_STYLE_ASSIGNMENT((#297));
#172=EDGE_CURVE('',#82,#128,#298,.T.);
#173=PRODUCT('1','1','PART-1-DESC',(#299));
#174=PRODUCT_DEFINITION('NONE','NONE',#300,#2);
#175=AXIS2_PLACEMENT_3D('',#301,#302,#303);
#176=PRODUCT('2','2','PART-2-DESC',(#304));
#177=PRODUCT_DEFINITION('NONE','NONE',#305,#6);
#178=AXIS2_PLACEMENT_3D('',#306,#307,#308);
#181=LENGTH_MEASURE_WITH_UNIT(LENGTH_MEASURE(1.0),#309);
#184=DIMENSIONAL_EXPONENTS(1.0,0.0,0.0,0.0,0.0,0.0,0.0);
#186=DIMENSIONAL_EXPONENTS(0.0,0.0,0.0,0.0,0.0,0.0,0.0);
#192=POINT_STYLE(' ',#310,POSITIVE_LENGTH_MEASURE(1.0E-006),#311);
#193=CARTESIAN_POINT('',(1.20226304501482E-015,-9.81754701224748,-57.09));
#194=POINT_STYLE(' ',#312,POSITIVE_LENGTH_MEASURE(1.0E-006),#313);
#195=CARTESIAN_POINT('',(0.0,9.525,-1.181));
#196=POINT_STYLE(' ',#314,POSITIVE_LENGTH_MEASURE(1.0E-006),#315);
#197=CARTESIAN_POINT('',(-1.16643755201581E-015,9.525,-57.09));
#198=SURFACE_STYLE_USAGE(.BOTH.,#316);
#199=FACE_OUTER_BOUND('',#317,.T.);
#200=CONICAL_SURFACE('',#318,9.18118791469758,0.523598775598298);
#201=CURVE_STYLE('',#319,POSITIVE_LENGTH_MEASURE(1.0E-006),#320);
#202=CIRCLE('',#321,8.83737582939516);
#203=CURVE_STYLE('',#322,POSITIVE_LENGTH_MEASURE(1.0E-006),#323);
#204=CIRCLE('',#324,9.525);
#205=CURVE_STYLE('',#325,POSITIVE_LENGTH_MEASURE(1.0E-006),#326);
#206=CIRCLE('',#327,9.525);
#207=CURVE_STYLE('',#328,POSITIVE_LENGTH_MEASURE(1.0E-006),#329);
#208=CIRCLE('',#330,7.9375);
#209=SURFACE_STYLE_USAGE(.BOTH.,#331);
#210=FACE_OUTER_BOUND('',#332,.T.);
#211=CYLINDRICAL_SURFACE('',#333,9.525);
#212=POINT_STYLE(' ',#334,POSITIVE_LENGTH_MEASURE(1.0E-006),#335);
#213=CARTESIAN_POINT('',(0.0,0.0,-57.1));
#214=CURVE_STYLE('',#336,POSITIVE_LENGTH_MEASURE(1.0E-006),#337);
#215=LINE('',#338,#339);
#216=SURFACE_STYLE_USAGE(.BOTH.,#340);
#217=CLOSED_SHELL('',(#110,#132,#112,#114,#152,#164));
#218=POINT_STYLE(' ',#341,POSITIVE_LENGTH_MEASURE(1.0E-006),#342);
#219=CARTESIAN_POINT('',(0.0,9.81754701224748,-57.09));
#220=CURVE_STYLE('',#343,POSITIVE_LENGTH_MEASURE(1.0E-006),#344);
#221=LINE('',#345,#346);
#222=CURVE_STYLE('',#347,POSITIVE_LENGTH_MEASURE(1.0E-006),#348);
#223=CIRCLE('',#349,9.81754701224748);
#224=SURFACE_STYLE_USAGE(.BOTH.,#350);
#225=FACE_OUTER_BOUND('',#351,.T.);
#226=CONICAL_SURFACE('',#352,8.88002350612374,0.0174523668760268);
#227=SURFACE_STYLE_USAGE(.BOTH.,#353);
#228=FACE_OUTER_BOUND('',#354,.T.);
#229=CONICAL_SURFACE('',#355,4.90877350612374,1.56977774277089);
#230=SURFACE_STYLE_USAGE(.BOTH.,#356);
#231=FACE_OUTER_BOUND('',#357,.T.);
#232=FACE_BOUND('',#358,.T.);
#233=PLANE('',#359);
#234=CURVE_STYLE('',#360,POSITIVE_LENGTH_MEASURE(1.0E-006),#361);
#235=CIRCLE('',#362,7.9375);
#236=SURFACE_STYLE_USAGE(.BOTH.,#363);
#237=FACE_OUTER_BOUND('',#364,.T.);
#238=CONICAL_SURFACE('',#365,9.18118791469758,0.523598775598298);
#239=POINT_STYLE(' ',#366,POSITIVE_LENGTH_MEASURE(1.0E-006),#367);
#240=CARTESIAN_POINT('',(0.0,9.82254701224748,-57.09));
#241=CURVE_STYLE('',#368,POSITIVE_LENGTH_MEASURE(1.0E-006),#369);
#242=LINE('',#370,#371);
#243=CURVE_STYLE('',#372,POSITIVE_LENGTH_MEASURE(1.0E-006),#373);
#244=CIRCLE('',#374,9.525);
#245=CURVE_STYLE('',#375,POSITIVE_LENGTH_MEASURE(1.0E-006),#376);
#246=CIRCLE('',#377,8.83737582939516);
#247=POINT_STYLE(' ',#378,POSITIVE_LENGTH_MEASURE(1.0E-006),#379);
#248=CARTESIAN_POINT('',(1.16643755201581E-015,-9.525,-1.181));
#249=SURFACE_STYLE_USAGE(.BOTH.,#380);
#250=CLOSED_SHELL('',(#166,#86,#154,#156,#118,#96));
#251=SURFACE_STYLE_USAGE(.BOTH.,#381);
#252=FACE_OUTER_BOUND('',#382,.T.);
#253=CONICAL_SURFACE('',#383,4.90877350612374,1.56977774277089);
#254=POINT_STYLE(' ',#384,POSITIVE_LENGTH_MEASURE(1.0E-006),#385);
#255=CARTESIAN_POINT('',(1.08223065917936E-015,-8.83737582939516,0.0100000000000051));
#256=CURVE_STYLE('',#386,POSITIVE_LENGTH_MEASURE(1.0E-006),#387);
#257=LINE('',#388,#389);
#258=CURVE_STYLE('',#390,POSITIVE_LENGTH_MEASURE(1.0E-006),#391);
#259=CIRCLE('',#392,9.82254701224748);
#260=CURVE_STYLE('',#393,POSITIVE_LENGTH_MEASURE(1.0E-006),#394);
#261=CIRCLE('',#395,9.81754701224748);
#262=CURVE_STYLE('',#396,POSITIVE_LENGTH_MEASURE(1.0E-006),#397);
#263=LINE('',#398,#399);
#264=POINT_STYLE(' ',#400,POSITIVE_LENGTH_MEASURE(1.0E-006),#401);
#265=CARTESIAN_POINT('',(0.0,8.83737582939516,0.0100000000000051));
#266=POINT_STYLE(' ',#402,POSITIVE_LENGTH_MEASURE(1.0E-006),#403);
#267=CARTESIAN_POINT('',(1.20287534819173E-015,-9.82254701224748,-57.09));
#268=CURVE_STYLE('',#404,POSITIVE_LENGTH_MEASURE(1.0E-006),#405);
#269=LINE('',#406,#407);
#270=CURVE_STYLE('',#408,POSITIVE_LENGTH_MEASURE(1.0E-006),#409);
#271=LINE('',#410,#411);
#272=SURFACE_STYLE_USAGE(.BOTH.,#412);
#273=FACE_OUTER_BOUND('',#413,.T.);
#274=CONICAL_SURFACE('',#414,8.88002350612374,0.0174523668760268);
#275=SURFACE_STYLE_USAGE(.BOTH.,#415);
#276=FACE_OUTER_BOUND('',#416,.T.);
#277=PLANE('',#417);
#278=SURFACE_STYLE_USAGE(.BOTH.,#418);
#279=FACE_OUTER_BOUND('',#419,.T.);
#280=PLANE('',#420);
#281=POINT_STYLE(' ',#421,POSITIVE_LENGTH_MEASURE(1.0E-006),#422);
#282=CARTESIAN_POINT('',(0.0,7.9375,-165.09));
#283=CURVE_STYLE('',#423,POSITIVE_LENGTH_MEASURE(1.0E-006),#424);
#284=CIRCLE('',#425,9.82254701224748);
#285=POINT_STYLE(' ',#426,POSITIVE_LENGTH_MEASURE(1.0E-006),#427);
#286=CARTESIAN_POINT('',(0.0,-9.525,-57.09));
#287=SURFACE_STYLE_USAGE(.BOTH.,#428);
#288=FACE_OUTER_BOUND('',#429,.T.);
#289=PLANE('',#430);
#290=SURFACE_STYLE_USAGE(.BOTH.,#431);
#291=FACE_OUTER_BOUND('',#432,.T.);
#292=CYLINDRICAL_SURFACE('',#433,9.525);
#293=POINT_STYLE(' ',#434,POSITIVE_LENGTH_MEASURE(1.0E-006),#435);
#294=CARTESIAN_POINT('',(9.72031293346512E-016,-7.9375,-165.09));
#295=CURVE_STYLE('',#436,POSITIVE_LENGTH_MEASURE(1.0E-006),#437);
#296=LINE('',#438,#439);
#297=CURVE_STYLE('',#440,POSITIVE_LENGTH_MEASURE(1.0E-006),#441);
#298=CIRCLE('',#442,9.525);
#299=PRODUCT_CONTEXT('',#61,'mechanical');
#300=PRODUCT_DEFINITION_FORMATION_WITH_SPECIFIED_SOURCE(' ','NONE',#173,.NOT_KNOWN.);
#301=CARTESIAN_POINT('',(0.0,0.0,0.0));
#302=DIRECTION('',(0.0,0.0,1.0));
#303=DIRECTION('',(1.0,0.0,0.0));
#304=PRODUCT_CONTEXT('',#66,'mechanical');
#305=PRODUCT_DEFINITION_FORMATION_WITH_SPECIFIED_SOURCE(' ','NONE',#176,.NOT_KNOWN.);
#306=CARTESIAN_POINT('',(0.0,0.0,0.0));
#307=DIRECTION('',(0.0,0.0,1.0));
#308=DIRECTION('',(1.0,0.0,0.0));
#309= (NAMED_UNIT(#184)LENGTH_UNIT()SI_UNIT(.MILLI.,.METRE.));
#310=PRE_DEFINED_MARKER('');
#311=COLOUR_RGB('',0.800000011920929,0.800000011920929,0.800000011920929);
#312=PRE_DEFINED_MARKER('');
#313=COLOUR_RGB('',0.498039215803146,0.498039215803146,0.498039215803146);
#314=PRE_DEFINED_MARKER('');
#315=COLOUR_RGB('',0.498039215803146,0.498039215803146,0.498039215803146);
#316=SURFACE_SIDE_STYLE('',(#444));
#317=EDGE_LOOP('',(#445,#446,#447,#448));
#318=AXIS2_PLACEMENT_3D('',#449,#450,#451);
#319=DRAUGHTING_PRE_DEFINED_CURVE_FONT('continuous');
#320=COLOUR_RGB('',0.498039215803146,0.498039215803146,0.498039215803146);
#321=AXIS2_PLACEMENT_3D('',#452,#453,#454);
#322=DRAUGHTING_PRE_DEFINED_CURVE_FONT('continuous');
#323=COLOUR_RGB('',0.498039215803146,0.498039215803146,0.498039215803146);
#324=AXIS2_PLACEMENT_3D('',#455,#456,#457);
#325=DRAUGHTING_PRE_DEFINED_CURVE_FONT('continuous');
#326=COLOUR_RGB('',0.498039215803146,0.498039215803146,0.498039215803146);
#327=AXIS2_PLACEMENT_3D('',#458,#459,#460);
#328=DRAUGHTING_PRE_DEFINED_CURVE_FONT('continuous');
#329=COLOUR_RGB('',0.800000011920929,0.800000011920929,0.800000011920929);
#330=AXIS2_PLACEMENT_3D('',#461,#462,#463);
#331=SURFACE_SIDE_STYLE('',(#464));
#332=EDGE_LOOP('',(#465,#466,#467,#468));
#333=AXIS2_PLACEMENT_3D('',#469,#470,#471);
#334=PRE_DEFINED_MARKER('');
#335=COLOUR_RGB('',0.800000011920929,0.800000011920929,0.800000011920929);
#336=DRAUGHTING_PRE_DEFINED_CURVE_FONT('continuous');
#337=COLOUR_RGB('',0.498039215803146,0.498039215803146,0.498039215803146);
#338=CARTESIAN_POINT('',(-1.16643755201581E-015,9.525,-21.198));
#339=VECTOR('',#472,1.0);
#340=SURFACE_SIDE_STYLE('',(#473));
#341=PRE_DEFINED_MARKER('');
#342=COLOUR_RGB('',0.800000011920929,0.800000011920929,0.800000011920929);
#343=DRAUGHTING_PRE_DEFINED_CURVE_FONT('continuous');
#344=COLOUR_RGB('',0.498039215803146,0.498039215803146,0.498039215803146);
#345=CARTESIAN_POINT('',(-1.12433410559759E-015,9.18118791469758,-0.585499999999996));
#346=VECTOR('',#474,1.0);
#347=DRAUGHTING_PRE_DEFINED_CURVE_FONT('continuous');
#348=COLOUR_RGB('',0.800000011920929,0.800000011920929,0.800000011920929);
#349=AXIS2_PLACEMENT_3D('',#475,#476,#477);
#350=SURFACE_SIDE_STYLE('',(#478));
#351=EDGE_LOOP('',(#479,#480,#481,#482));
#352=AXIS2_PLACEMENT_3D('',#483,#484,#485);
#353=SURFACE_SIDE_STYLE('',(#486));
#354=EDGE_LOOP('',(#487,#488,#489));
#355=AXIS2_PLACEMENT_3D('',#490,#491,#492);
#356=SURFACE_SIDE_STYLE('',(#493));
#357=EDGE_LOOP('',(#494,#495));
#358=EDGE_LOOP('',(#496,#497));
#359=AXIS2_PLACEMENT_3D('',#498,#499,#500);
#360=DRAUGHTING_PRE_DEFINED_CURVE_FONT('continuous');
#361=COLOUR_RGB('',0.800000011920929,0.800000011920929,0.800000011920929);
#362=AXIS2_PLACEMENT_3D('',#501,#502,#503);
#363=SURFACE_SIDE_STYLE('',(#504));
#364=EDGE_LOOP('',(#505,#506,#507,#508));
#365=AXIS2_PLACEMENT_3D('',#509,#510,#511);
#366=PRE_DEFINED_MARKER('');
#367=COLOUR_RGB('',0.800000011920929,0.800000011920929,0.800000011920929);
#368=DRAUGHTING_PRE_DEFINED_CURVE_FONT('continuous');
#369=COLOUR_RGB('',0.498039215803146,0.498039215803146,0.498039215803146);
#370=CARTESIAN_POINT('',(1.16643755201581E-015,-9.525,-21.198));
#371=VECTOR('',#512,1.0);
#372=DRAUGHTING_PRE_DEFINED_CURVE_FONT('continuous');
#373=COLOUR_RGB('',0.498039215803146,0.498039215803146,0.498039215803146);
#374=AXIS2_PLACEMENT_3D('',#513,#514,#515);
#375=DRAUGHTING_PRE_DEFINED_CURVE_FONT('continuous');
#376=COLOUR_RGB('',0.498039215803146,0.498039215803146,0.498039215803146);
#377=AXIS2_PLACEMENT_3D('',#516,#517,#518);
#378=PRE_DEFINED_MARKER('');
#379=COLOUR_RGB('',0.498039215803146,0.498039215803146,0.498039215803146);
#380=SURFACE_SIDE_STYLE('',(#519));
#381=SURFACE_SIDE_STYLE('',(#520));
#382=EDGE_LOOP('',(#521,#522,#523));
#383=AXIS2_PLACEMENT_3D('',#524,#525,#526);
#384=PRE_DEFINED_MARKER('');
#385=COLOUR_RGB('',0.498039215803146,0.498039215803146,0.498039215803146);
#386=DRAUGHTING_PRE_DEFINED_CURVE_FONT('continuous');
#387=COLOUR_RGB('',0.800000011920929,0.800000011920929,0.800000011920929);
#388=CARTESIAN_POINT('',(-6.01131522507408E-016,4.90877350612374,-57.095));
#389=VECTOR('',#527,1.0);
#390=DRAUGHTING_PRE_DEFINED_CURVE_FONT('continuous');
#391=COLOUR_RGB('',0.800000011920929,0.800000011920929,0.800000011920929);
#392=AXIS2_PLACEMENT_3D('',#528,#529,#530);
#393=DRAUGHTING_PRE_DEFINED_CURVE_FONT('continuous');
#394=COLOUR_RGB('',0.800000011920929,0.800000011920929,0.800000011920929);
#395=AXIS2_PLACEMENT_3D('',#531,#532,#533);
#396=DRAUGHTING_PRE_DEFINED_CURVE_FONT('continuous');
#397=COLOUR_RGB('',0.498039215803146,0.498039215803146,0.498039215803146);
#398=CARTESIAN_POINT('',(1.12433410559759E-015,-9.18118791469758,-0.585499999999996));
#399=VECTOR('',#534,1.0);
#400=PRE_DEFINED_MARKER('');
#401=COLOUR_RGB('',0.498039215803146,0.498039215803146,0.498039215803146);
#402=PRE_DEFINED_MARKER('');
#403=COLOUR_RGB('',0.800000011920929,0.800000011920929,0.800000011920929);
#404=DRAUGHTING_PRE_DEFINED_CURVE_FONT('continuous');
#405=COLOUR_RGB('',0.800000011920929,0.800000011920929,0.800000011920929);
#406=CARTESIAN_POINT('',(1.08745332076912E-015,-8.88002350612374,-111.09));
#407=VECTOR('',#535,1.0);
#408=DRAUGHTING_PRE_DEFINED_CURVE_FONT('continuous');
#409=COLOUR_RGB('',0.800000011920929,0.800000011920929,0.800000011920929);
#410=CARTESIAN_POINT('',(-1.08745332076912E-015,8.88002350612374,-111.09));
#411=VECTOR('',#536,1.0);
#412=SURFACE_SIDE_STYLE('',(#537));
#413=EDGE_LOOP('',(#538,#539,#540,#541));
#414=AXIS2_PLACEMENT_3D('',#542,#543,#544);
#415=SURFACE_SIDE_STYLE('',(#545));
#416=EDGE_LOOP('',(#546,#547));
#417=AXIS2_PLACEMENT_3D('',#548,#549,#550);
#418=SURFACE_SIDE_STYLE('',(#551));
#419=EDGE_LOOP('',(#552,#553));
#420=AXIS2_PLACEMENT_3D('',#554,#555,#556);
#421=PRE_DEFINED_MARKER('');
#422=COLOUR_RGB('',0.800000011920929,0.800000011920929,0.800000011920929);
#423=DRAUGHTING_PRE_DEFINED_CURVE_FONT('continuous');
#424=COLOUR_RGB('',0.800000011920929,0.800000011920929,0.800000011920929);
#425=AXIS2_PLACEMENT_3D('',#557,#558,#559);
#426=PRE_DEFINED_MARKER('');
#427=COLOUR_RGB('',0.498039215803146,0.498039215803146,0.498039215803146);
#428=SURFACE_SIDE_STYLE('',(#560));
#429=EDGE_LOOP('',(#561,#562));
#430=AXIS2_PLACEMENT_3D('',#563,#564,#565);
#431=SURFACE_SIDE_STYLE('',(#566));
#432=EDGE_LOOP('',(#567,#568,#569,#570));
#433=AXIS2_PLACEMENT_3D('',#571,#572,#573);
#434=PRE_DEFINED_MARKER('');
#435=COLOUR_RGB('',0.800000011920929,0.800000011920929,0.800000011920929);
#436=DRAUGHTING_PRE_DEFINED_CURVE_FONT('continuous');
#437=COLOUR_RGB('',0.800000011920929,0.800000011920929,0.800000011920929);
#438=CARTESIAN_POINT('',(6.01131522507408E-016,-4.90877350612374,-57.095));
#439=VECTOR('',#574,1.0);
#440=DRAUGHTING_PRE_DEFINED_CURVE_FONT('continuous');
#441=COLOUR_RGB('',0.498039215803146,0.498039215803146,0.498039215803146);
#442=AXIS2_PLACEMENT_3D('',#575,#576,#577);
#444=SURFACE_STYLE_FILL_AREA(#578);
#445=ORIENTED_EDGE('',*,*,#106,.F.);
#446=ORIENTED_EDGE('',*,*,#126,.T.);
#447=ORIENTED_EDGE('',*,*,#142,.F.);
#448=ORIENTED_EDGE('',*,*,#172,.F.);
#449=CARTESIAN_POINT('',(0.0,0.0,-0.585499999999996));
#450=DIRECTION('',(0.0,-0.0,-1.0));
#451=DIRECTION('',(0.0,1.0,0.0));
#452=CARTESIAN_POINT('',(0.0,0.0,0.0100000000000051));
#453=DIRECTION('',(0.0,0.0,-1.0));
#454=DIRECTION('',(0.0,1.0,0.0));
#455=CARTESIAN_POINT('',(0.0,0.0,-57.09));
#456=DIRECTION('',(0.0,0.0,-1.0));
#457=DIRECTION('',(0.0,-1.0,0.0));
#458=CARTESIAN_POINT('',(0.0,0.0,-1.181));
#459=DIRECTION('',(0.0,0.0,-1.0));
#460=DIRECTION('',(0.0,1.0,0.0));
#461=CARTESIAN_POINT('',(0.0,0.0,-165.09));
#462=DIRECTION('',(0.0,0.0,-1.0));
#463=DIRECTION('',(0.0,1.0,0.0));
#464=SURFACE_STYLE_FILL_AREA(#579);
#465=ORIENTED_EDGE('',*,*,#100,.T.);
#466=ORIENTED_EDGE('',*,*,#124,.F.);
#467=ORIENTED_EDGE('',*,*,#122,.T.);
#468=ORIENTED_EDGE('',*,*,#92,.T.);
#469=CARTESIAN_POINT('',(0.0,0.0,-21.198));
#470=DIRECTION('',(-0.0,-0.0,1.0));
#471=DIRECTION('',(0.0,1.0,0.0));
#472=DIRECTION('',(0.0,0.0,-1.0));
#473=SURFACE_STYLE_FILL_AREA(#580);
#474=DIRECTION('',(-6.12303176911187E-017,0.499999999999999,-0.866025403784439));
#475=CARTESIAN_POINT('',(0.0,0.0,-57.09));
#476=DIRECTION('',(0.0,0.0,-1.0));
#477=DIRECTION('',(0.0,1.0,0.0));
#478=SURFACE_STYLE_FILL_AREA(#581);
#479=ORIENTED_EDGE('',*,*,#150,.F.);
#480=ORIENTED_EDGE('',*,*,#160,.T.);
#481=ORIENTED_EDGE('',*,*,#148,.F.);
#482=ORIENTED_EDGE('',*,*,#94,.F.);
#483=CARTESIAN_POINT('',(0.0,0.0,-111.09));
#484=DIRECTION('',(-0.0,-0.0,1.0));
#485=DIRECTION('',(0.0,1.0,0.0));
#486=SURFACE_STYLE_FILL_AREA(#582);
#487=ORIENTED_EDGE('',*,*,#170,.T.);
#488=ORIENTED_EDGE('',*,*,#108,.F.);
#489=ORIENTED_EDGE('',*,*,#136,.T.);
#490=CARTESIAN_POINT('',(0.0,0.0,-57.095));
#491=DIRECTION('',(-0.0,-0.0,1.0));
#492=DIRECTION('',(0.0,1.0,0.0));
#493=SURFACE_STYLE_FILL_AREA(#583);
#494=ORIENTED_EDGE('',*,*,#160,.F.);
#495=ORIENTED_EDGE('',*,*,#138,.F.);
#496=ORIENTED_EDGE('',*,*,#108,.T.);
#497=ORIENTED_EDGE('',*,*,#140,.T.);
#498=CARTESIAN_POINT('',(0.0,9.82004701224749,-57.09));
#499=DIRECTION('',(-0.0,0.0,1.0));
#500=DIRECTION('',(0.0,-1.0,0.0));
#501=CARTESIAN_POINT('',(0.0,0.0,-165.09));
#502=DIRECTION('',(0.0,0.0,-1.0));
#503=DIRECTION('',(0.0,1.0,0.0));
#504=SURFACE_STYLE_FILL_AREA(#584);
#505=ORIENTED_EDGE('',*,*,#106,.T.);
#506=ORIENTED_EDGE('',*,*,#92,.F.);
#507=ORIENTED_EDGE('',*,*,#142,.T.);
#508=ORIENTED_EDGE('',*,*,#88,.T.);
#509=CARTESIAN_POINT('',(0.0,0.0,-0.585499999999996));
#510=DIRECTION('',(0.0,-0.0,-1.0));
#511=DIRECTION('',(0.0,1.0,0.0));
#512=DIRECTION('',(-0.0,-0.0,1.0));
#513=CARTESIAN_POINT('',(0.0,0.0,-57.09));
#514=DIRECTION('',(0.0,0.0,-1.0));
#515=DIRECTION('',(0.0,-1.0,0.0));
#516=CARTESIAN_POINT('',(0.0,0.0,0.0100000000000051));
#517=DIRECTION('',(0.0,0.0,-1.0));
#518=DIRECTION('',(0.0,1.0,0.0));
#519=SURFACE_STYLE_FILL_AREA(#585);
#520=SURFACE_STYLE_FILL_AREA(#586);
#521=ORIENTED_EDGE('',*,*,#170,.F.);
#522=ORIENTED_EDGE('',*,*,#136,.F.);
#523=ORIENTED_EDGE('',*,*,#140,.F.);
#524=CARTESIAN_POINT('',(0.0,0.0,-57.095));
#525=DIRECTION('',(-0.0,-0.0,1.0));
#526=DIRECTION('',(0.0,1.0,0.0));
#527=DIRECTION('',(1.22460571854967E-016,-0.999999481243338,-0.00101858384787509));
#528=CARTESIAN_POINT('',(0.0,0.0,-57.09));
#529=DIRECTION('',(0.0,0.0,-1.0));
#530=DIRECTION('',(0.0,1.0,0.0));
#531=CARTESIAN_POINT('',(0.0,0.0,-57.09));
#532=DIRECTION('',(0.0,0.0,-1.0));
#533=DIRECTION('',(0.0,1.0,0.0));
#534=DIRECTION('',(-6.12303176911187E-017,0.499999999999999,0.866025403784439));
#535=DIRECTION('',(2.13711944358024E-018,-0.0174514809343396,0.999847711310677));
#536=DIRECTION('',(2.13711944358024E-018,-0.0174514809343396,-0.999847711310677));
#537=SURFACE_STYLE_FILL_AREA(#587);
#538=ORIENTED_EDGE('',*,*,#150,.T.);
#539=ORIENTED_EDGE('',*,*,#116,.F.);
#540=ORIENTED_EDGE('',*,*,#148,.T.);
#541=ORIENTED_EDGE('',*,*,#138,.T.);
#542=CARTESIAN_POINT('',(0.0,0.0,-111.09));
#543=DIRECTION('',(-0.0,-0.0,1.0));
#544=DIRECTION('',(0.0,1.0,0.0));
#545=SURFACE_STYLE_FILL_AREA(#588);
#546=ORIENTED_EDGE('',*,*,#124,.T.);
#547=ORIENTED_EDGE('',*,*,#90,.T.);
#548=CARTESIAN_POINT('',(0.0,0.0,-57.09));
#549=DIRECTION('',(0.0,0.0,-1.0));
#550=DIRECTION('',(0.0,-1.0,0.0));
#551=SURFACE_STYLE_FILL_AREA(#589);
#552=ORIENTED_EDGE('',*,*,#126,.F.);
#553=ORIENTED_EDGE('',*,*,#88,.F.);
#554=CARTESIAN_POINT('',(0.0,4.41868791469758,0.0100000000000051));
#555=DIRECTION('',(-0.0,0.0,1.0));
#556=DIRECTION('',(0.0,-1.0,0.0));
#557=CARTESIAN_POINT('',(0.0,0.0,-57.09));
#558=DIRECTION('',(0.0,0.0,-1.0));
#559=DIRECTION('',(0.0,1.0,0.0));
#560=SURFACE_STYLE_FILL_AREA(#590);
#561=ORIENTED_EDGE('',*,*,#94,.T.);
#562=ORIENTED_EDGE('',*,*,#116,.T.);
#563=CARTESIAN_POINT('',(0.0,3.96625,-165.09));
#564=DIRECTION('',(0.0,0.0,-1.0));
#565=DIRECTION('',(0.0,1.0,0.0));
#566=SURFACE_STYLE_FILL_AREA(#591);
#567=ORIENTED_EDGE('',*,*,#100,.F.);
#568=ORIENTED_EDGE('',*,*,#172,.T.);
#569=ORIENTED_EDGE('',*,*,#122,.F.);
#570=ORIENTED_EDGE('',*,*,#90,.F.);
#571=CARTESIAN_POINT('',(0.0,0.0,-21.198));
#572=DIRECTION('',(-0.0,-0.0,1.0));
#573=DIRECTION('',(0.0,1.0,0.0));
#574=DIRECTION('',(1.22460571854967E-016,-0.999999481243338,0.00101858384787509));
#575=CARTESIAN_POINT('',(0.0,0.0,-1.181));
#576=DIRECTION('',(0.0,0.0,-1.0));
#577=DIRECTION('',(0.0,1.0,0.0));
#578=FILL_AREA_STYLE('',(#592));
#579=FILL_AREA_STYLE('',(#593));
#580=FILL_AREA_STYLE('',(#594));
#581=FILL_AREA_STYLE('',(#595));
#582=FILL_AREA_STYLE('',(#596));
#583=FILL_AREA_STYLE('',(#597));
#584=FILL_AREA_STYLE('',(#598));
#585=FILL_AREA_STYLE('',(#599));
#586=FILL_AREA_STYLE('',(#600));
#587=FILL_AREA_STYLE('',(#601));
#588=FILL_AREA_STYLE('',(#602));
#589=FILL_AREA_STYLE('',(#603));
#590=FILL_AREA_STYLE('',(#604));
#591=FILL_AREA_STYLE('',(#605));
#592=FILL_AREA_STYLE_COLOUR('',#606);
#593=FILL_AREA_STYLE_COLOUR('',#607);
#594=FILL_AREA_STYLE_COLOUR('',#608);
#595=FILL_AREA_STYLE_COLOUR('',#609);
#596=FILL_AREA_STYLE_COLOUR('',#610);
#597=FILL_AREA_STYLE_COLOUR('',#611);
#598=FILL_AREA_STYLE_COLOUR('',#612);
#599=FILL_AREA_STYLE_COLOUR('',#613);
#600=FILL_AREA_STYLE_COLOUR('',#614);
#601=FILL_AREA_STYLE_COLOUR('',#615);
#602=FILL_AREA_STYLE_COLOUR('',#616);
#603=FILL_AREA_STYLE_COLOUR('',#617);
#604=FILL_AREA_STYLE_COLOUR('',#618);
#605=FILL_AREA_STYLE_COLOUR('',#619);
#606=COLOUR_RGB('',0.498039215803146,0.498039215803146,0.498039215803146);
#607=COLOUR_RGB('',0.498039215803146,0.498039215803146,0.498039215803146);
#608=COLOUR_RGB('',0.800000011920929,0.800000011920929,0.800000011920929);
#609=COLOUR_RGB('',0.800000011920929,0.800000011920929,0.800000011920929);
#610=COLOUR_RGB('',0.800000011920929,0.800000011920929,0.800000011920929);
#611=COLOUR_RGB('',0.800000011920929,0.800000011920929,0.800000011920929);
#612=COLOUR_RGB('',0.498039215803146,0.498039215803146,0.498039215803146);
#613=COLOUR_RGB('',0.800000011920929,0.800000011920929,0.800000011920929);
#614=COLOUR_RGB('',0.800000011920929,0.800000011920929,0.800000011920929);
#615=COLOUR_RGB('',0.800000011920929,0.800000011920929,0.800000011920929);
#616=COLOUR_RGB('',0.498039215803146,0.498039215803146,0.498039215803146);
#617=COLOUR_RGB('',0.498039215803146,0.498039215803146,0.498039215803146);
#618=COLOUR_RGB('',0.800000011920929,0.800000011920929,0.800000011920929);
#619=COLOUR_RGB('',0.498039215803146,0.498039215803146,0.498039215803146);
#620=AXIS2_PLACEMENT_3D('PCS',#621,#622,#623);
#621=CARTESIAN_POINT('',(0.0,0.0,0.0));
#622=DIRECTION('',(0.0,0.0,1.0));
#623=DIRECTION('',(1.0,0.0,0.0));
#624=AXIS2_PLACEMENT_3D('CIP',#625,#626,#627);
#625=CARTESIAN_POINT('',(0.0,0.0,-165.1));
#626=DIRECTION('',(0.0,0.0,1.0));
#627=DIRECTION('',(1.0,0.0,0.0));
#628=AXIS2_PLACEMENT_3D('CRP',#629,#630,#631);
#629=CARTESIAN_POINT('',(-7.9375,0.0,-165.1));
#630=DIRECTION('',(0.0,0.0,1.0));
#631=DIRECTION('',(1.0,0.0,0.0));
#632=AXIS2_PLACEMENT_3D('MCS',#633,#634,#635);
#633=CARTESIAN_POINT('',(0.0,0.0,-41.225));
#634=DIRECTION('',(0.0,0.0,1.0));
#635=DIRECTION('',(1.0,0.0,0.0));
#636=CONSTRUCTIVE_GEOMETRY_REPRESENTATION_RELATIONSHIP('coordinate systems',$,#65,#637);
#637=CONSTRUCTIVE_GEOMETRY_REPRESENTATION('coordinate systems',(#620,#624,#628,#632),#10);
ENDSEC;
END-ISO-10303-21;
