ISO-10303-21;
HEADER;
FILE_DESCRIPTION(('no description'),'unknown implementation level');
FILE_NAME('solid1IBeg_obTXa3qwpUqKiR4YenDkQ_1.STP','  ',('CIMSOURCE GmbH'),('CADClick - KiM GmbH - www.kimweb.de'),'unknown preprocess','ACIS','unknown authorization');
FILE_SCHEMA(('automotive_design'));
ENDSEC;
DATA;
#1=MECHANICAL_DESIGN_GEOMETRIC_PRESENTATION_REPRESENTATION(' ',(#14,#15,#16,#17,#18,#19,#20,#21,#22,#23,#24,#25,#26,#27,#28,#29,#30,#31,#32,#33,#34,#35,#36,#37,#38,#39,#40,#41,#42,#43,#44,#45,#46,#47,#48,#49,#50,#51,#52,#53,#54,#55,#56,#57,#58,#59,#60),#10);
#2=PRODUCT_DEFINITION_CONTEXT('',#61,'design');
#3=APPLICATION_PROTOCOL_DEFINITION('INTERNATIONAL STANDARD','automotive_design',1994,#61);
#4=PRODUCT_CATEGORY_RELATIONSHIP('NONE','NONE',#62,#63);
#5=SHAPE_DEFINITION_REPRESENTATION(#64,#65);
#6=PRODUCT_DEFINITION_CONTEXT('',#66,'design');
#7=APPLICATION_PROTOCOL_DEFINITION('INTERNATIONAL STANDARD','automotive_design',1994,#66);
#8=PRODUCT_CATEGORY_RELATIONSHIP('NONE','NONE',#67,#68);
#9=SHAPE_DEFINITION_REPRESENTATION(#69,#70);
#10= (GEOMETRIC_REPRESENTATION_CONTEXT(3)GLOBAL_UNCERTAINTY_ASSIGNED_CONTEXT((#73))GLOBAL_UNIT_ASSIGNED_CONTEXT((#75,#76,#77))REPRESENTATION_CONTEXT('NONE','WORKSPACE'));
#14=STYLED_ITEM('',(#79),#80);
#15=STYLED_ITEM('',(#81),#82);
#16=STYLED_ITEM('',(#83),#84);
#17=STYLED_ITEM('',(#85),#86);
#18=STYLED_ITEM('',(#87),#88);
#19=STYLED_ITEM('',(#89),#90);
#20=STYLED_ITEM('',(#91),#92);
#21=STYLED_ITEM('',(#93),#94);
#22=STYLED_ITEM('',(#95),#96);
#23=STYLED_ITEM('',(#97),#98);
#24=STYLED_ITEM('',(#99),#100);
#25=STYLED_ITEM('',(#101),#102);
#26=STYLED_ITEM('',(#103),#104);
#27=STYLED_ITEM('',(#105),#106);
#28=STYLED_ITEM('',(#107),#108);
#29=STYLED_ITEM('',(#109),#110);
#30=STYLED_ITEM('',(#111),#112);
#31=STYLED_ITEM('',(#113),#114);
#32=STYLED_ITEM('',(#115),#116);
#33=STYLED_ITEM('',(#117),#118);
#34=STYLED_ITEM('',(#119),#120);
#35=STYLED_ITEM('',(#121),#122);
#36=STYLED_ITEM('',(#123),#124);
#37=STYLED_ITEM('',(#125),#126);
#38=STYLED_ITEM('',(#127),#128);
#39=STYLED_ITEM('',(#129),#130);
#40=STYLED_ITEM('',(#131),#132);
#41=STYLED_ITEM('',(#133),#134);
#42=STYLED_ITEM('',(#135),#136);
#43=STYLED_ITEM('',(#137),#138);
#44=STYLED_ITEM('',(#139),#140);
#45=STYLED_ITEM('',(#141),#142);
#46=STYLED_ITEM('',(#143),#144);
#47=STYLED_ITEM('',(#145),#146);
#48=STYLED_ITEM('',(#147),#148);
#49=STYLED_ITEM('',(#149),#150);
#50=STYLED_ITEM('',(#151),#152);
#51=STYLED_ITEM('',(#153),#154);
#52=STYLED_ITEM('',(#155),#156);
#53=STYLED_ITEM('',(#157),#158);
#54=STYLED_ITEM('',(#159),#160);
#55=STYLED_ITEM('',(#161),#162);
#56=STYLED_ITEM('',(#163),#164);
#57=STYLED_ITEM('',(#165),#166);
#58=STYLED_ITEM('',(#167),#168);
#59=STYLED_ITEM('',(#169),#170);
#60=STYLED_ITEM('',(#171),#172);
#61=APPLICATION_CONTEXT(' ');
#62=PRODUCT_CATEGORY('part','NONE');
#63=PRODUCT_RELATED_PRODUCT_CATEGORY('detail',' ',(#173));
#64=PRODUCT_DEFINITION_SHAPE('NONE','NONE',#174);
#65=ADVANCED_BREP_SHAPE_REPRESENTATION('1',(#132,#175),#10);
#66=APPLICATION_CONTEXT(' ');
#67=PRODUCT_CATEGORY('part','NONE');
#68=PRODUCT_RELATED_PRODUCT_CATEGORY('detail',' ',(#176));
#69=PRODUCT_DEFINITION_SHAPE('NONE','NONE',#177);
#70=ADVANCED_BREP_SHAPE_REPRESENTATION('2',(#168,#178),#10);
#73=UNCERTAINTY_MEASURE_WITH_UNIT(LENGTH_MEASURE(1.0E-006),#75,'','');
#75= (CONVERSION_BASED_UNIT('MILLIMETRE',#181)LENGTH_UNIT()NAMED_UNIT(#184));
#76= (NAMED_UNIT(#186)PLANE_ANGLE_UNIT()SI_UNIT($,.RADIAN.));
#77= (NAMED_UNIT(#186)SOLID_ANGLE_UNIT()SI_UNIT($,.STERADIAN.));
#79=PRESENTATION_STYLE_ASSIGNMENT((#192));
#80=ADVANCED_FACE('',(#193),#194,.T.);
#81=PRESENTATION_STYLE_ASSIGNMENT((#195));
#82=EDGE_CURVE('',#164,#136,#196,.T.);
#83=PRESENTATION_STYLE_ASSIGNMENT((#197));
#84=EDGE_CURVE('',#88,#156,#198,.T.);
#85=PRESENTATION_STYLE_ASSIGNMENT((#199));
#86=VERTEX_POINT('',#200);
#87=PRESENTATION_STYLE_ASSIGNMENT((#201));
#88=VERTEX_POINT('',#202);
#89=PRESENTATION_STYLE_ASSIGNMENT((#203));
#90=ADVANCED_FACE('',(#204),#205,.T.);
#91=PRESENTATION_STYLE_ASSIGNMENT((#206));
#92=EDGE_CURVE('',#136,#164,#207,.T.);
#93=PRESENTATION_STYLE_ASSIGNMENT((#208));
#94=EDGE_CURVE('',#86,#98,#209,.T.);
#95=PRESENTATION_STYLE_ASSIGNMENT((#210));
#96=EDGE_CURVE('',#150,#86,#211,.T.);
#97=PRESENTATION_STYLE_ASSIGNMENT((#212));
#98=VERTEX_POINT('',#213);
#99=PRESENTATION_STYLE_ASSIGNMENT((#214));
#100=VERTEX_POINT('',#215);
#101=PRESENTATION_STYLE_ASSIGNMENT((#216));
#102=EDGE_CURVE('',#100,#116,#217,.T.);
#103=PRESENTATION_STYLE_ASSIGNMENT((#218));
#104=EDGE_CURVE('',#100,#88,#219,.T.);
#105=PRESENTATION_STYLE_ASSIGNMENT((#220));
#106=ADVANCED_FACE('',(#221),#222,.F.);
#107=PRESENTATION_STYLE_ASSIGNMENT((#223));
#108=EDGE_CURVE('',#152,#156,#224,.T.);
#109=PRESENTATION_STYLE_ASSIGNMENT((#225));
#110=ADVANCED_FACE('',(#226),#227,.T.);
#111=PRESENTATION_STYLE_ASSIGNMENT((#228));
#112=VERTEX_POINT('',#229);
#113=PRESENTATION_STYLE_ASSIGNMENT((#230));
#114=ADVANCED_FACE('',(#231),#232,.T.);
#115=PRESENTATION_STYLE_ASSIGNMENT((#233));
#116=VERTEX_POINT('',#234);
#117=PRESENTATION_STYLE_ASSIGNMENT((#235));
#118=EDGE_CURVE('',#98,#150,#236,.T.);
#119=PRESENTATION_STYLE_ASSIGNMENT((#237));
#120=ADVANCED_FACE('',(#238,#239),#240,.T.);
#121=PRESENTATION_STYLE_ASSIGNMENT((#241));
#122=ADVANCED_FACE('',(#242),#243,.T.);
#123=PRESENTATION_STYLE_ASSIGNMENT((#244));
#124=EDGE_CURVE('',#116,#140,#245,.T.);
#125=PRESENTATION_STYLE_ASSIGNMENT((#246));
#126=EDGE_CURVE('',#156,#152,#247,.T.);
#127=PRESENTATION_STYLE_ASSIGNMENT((#248));
#128=EDGE_CURVE('',#88,#100,#249,.T.);
#129=PRESENTATION_STYLE_ASSIGNMENT((#250));
#130=EDGE_CURVE('',#158,#112,#251,.T.);
#131=PRESENTATION_STYLE_ASSIGNMENT((#252));
#132=MANIFOLD_SOLID_BREP('1',#253);
#133=PRESENTATION_STYLE_ASSIGNMENT((#254));
#134=EDGE_CURVE('',#152,#100,#255,.T.);
#135=PRESENTATION_STYLE_ASSIGNMENT((#256));
#136=VERTEX_POINT('',#257);
#137=PRESENTATION_STYLE_ASSIGNMENT((#258));
#138=ADVANCED_FACE('',(#259),#260,.T.);
#139=PRESENTATION_STYLE_ASSIGNMENT((#261));
#140=VERTEX_POINT('',#262);
#141=PRESENTATION_STYLE_ASSIGNMENT((#263));
#142=EDGE_CURVE('',#140,#116,#264,.T.);
#143=PRESENTATION_STYLE_ASSIGNMENT((#265));
#144=ADVANCED_FACE('',(#266),#267,.T.);
#145=PRESENTATION_STYLE_ASSIGNMENT((#268));
#146=EDGE_CURVE('',#140,#88,#269,.T.);
#147=PRESENTATION_STYLE_ASSIGNMENT((#270));
#148=EDGE_CURVE('',#112,#158,#271,.T.);
#149=PRESENTATION_STYLE_ASSIGNMENT((#272));
#150=VERTEX_POINT('',#273);
#151=PRESENTATION_STYLE_ASSIGNMENT((#274));
#152=VERTEX_POINT('',#275);
#153=PRESENTATION_STYLE_ASSIGNMENT((#276));
#154=ADVANCED_FACE('',(#277),#278,.F.);
#155=PRESENTATION_STYLE_ASSIGNMENT((#279));
#156=VERTEX_POINT('',#280);
#157=PRESENTATION_STYLE_ASSIGNMENT((#281));
#158=VERTEX_POINT('',#282);
#159=PRESENTATION_STYLE_ASSIGNMENT((#283));
#160=ADVANCED_FACE('',(#284),#285,.T.);
#161=PRESENTATION_STYLE_ASSIGNMENT((#286));
#162=EDGE_CURVE('',#136,#112,#287,.T.);
#163=PRESENTATION_STYLE_ASSIGNMENT((#288));
#164=VERTEX_POINT('',#289);
#165=PRESENTATION_STYLE_ASSIGNMENT((#290));
#166=EDGE_CURVE('',#86,#150,#291,.T.);
#167=PRESENTATION_STYLE_ASSIGNMENT((#292));
#168=MANIFOLD_SOLID_BREP('2',#293);
#169=PRESENTATION_STYLE_ASSIGNMENT((#294));
#170=EDGE_CURVE('',#158,#164,#295,.T.);
#171=PRESENTATION_STYLE_ASSIGNMENT((#296));
#172=ADVANCED_FACE('',(#297),#298,.T.);
#173=PRODUCT('1','1','PART-1-DESC',(#299));
#174=PRODUCT_DEFINITION('NONE','NONE',#300,#2);
#175=AXIS2_PLACEMENT_3D('',#301,#302,#303);
#176=PRODUCT('2','2','PART-2-DESC',(#304));
#177=PRODUCT_DEFINITION('NONE','NONE',#305,#6);
#178=AXIS2_PLACEMENT_3D('',#306,#307,#308);
#181=LENGTH_MEASURE_WITH_UNIT(LENGTH_MEASURE(1.0),#309);
#184=DIMENSIONAL_EXPONENTS(1.0,0.0,0.0,0.0,0.0,0.0,0.0);
#186=DIMENSIONAL_EXPONENTS(0.0,0.0,0.0,0.0,0.0,0.0,0.0);
#192=SURFACE_STYLE_USAGE(.BOTH.,#310);
#193=FACE_OUTER_BOUND('',#311,.T.);
#194=CYLINDRICAL_SURFACE('',#312,6.35);
#195=CURVE_STYLE('',#313,POSITIVE_LENGTH_MEASURE(1.0E-006),#314);
#196=CIRCLE('',#315,6.75986801492798);
#197=CURVE_STYLE('',#316,POSITIVE_LENGTH_MEASURE(1.0E-006),#317);
#198=LINE('',#318,#319);
#199=POINT_STYLE(' ',#320,POSITIVE_LENGTH_MEASURE(1.0E-006),#321);
#200=CARTESIAN_POINT('',(0.0,6.75486801492798,-50.79));
#201=POINT_STYLE(' ',#322,POSITIVE_LENGTH_MEASURE(1.0E-006),#323);
#202=CARTESIAN_POINT('',(7.7762503467721E-016,-6.35,-0.784000000000006));
#203=SURFACE_STYLE_USAGE(.BOTH.,#324);
#204=FACE_OUTER_BOUND('',#325,.T.);
#205=CYLINDRICAL_SURFACE('',#326,6.35);
#206=CURVE_STYLE('',#327,POSITIVE_LENGTH_MEASURE(1.0E-006),#328);
#207=CIRCLE('',#329,6.75986801492798);
#208=CURVE_STYLE('',#330,POSITIVE_LENGTH_MEASURE(1.0E-006),#331);
#209=LINE('',#332,#333);
#210=CURVE_STYLE('',#334,POSITIVE_LENGTH_MEASURE(1.0E-006),#335);
#211=CIRCLE('',#336,6.75486801492798);
#212=POINT_STYLE(' ',#337,POSITIVE_LENGTH_MEASURE(1.0E-006),#338);
#213=CARTESIAN_POINT('',(0.0,0.0,-50.8));
#214=POINT_STYLE(' ',#339,POSITIVE_LENGTH_MEASURE(1.0E-006),#340);
#215=CARTESIAN_POINT('',(0.0,6.35,-0.784000000000006));
#216=CURVE_STYLE('',#341,POSITIVE_LENGTH_MEASURE(1.0E-006),#342);
#217=LINE('',#343,#344);
#218=CURVE_STYLE('',#345,POSITIVE_LENGTH_MEASURE(1.0E-006),#346);
#219=CIRCLE('',#347,6.35);
#220=SURFACE_STYLE_USAGE(.BOTH.,#348);
#221=FACE_OUTER_BOUND('',#349,.T.);
#222=CONICAL_SURFACE('',#350,3.37743400746399,1.56931591405071);
#223=CURVE_STYLE('',#351,POSITIVE_LENGTH_MEASURE(1.0E-006),#352);
#224=CIRCLE('',#353,5.89158388626344);
#225=SURFACE_STYLE_USAGE(.BOTH.,#354);
#226=FACE_OUTER_BOUND('',#355,.T.);
#227=PLANE('',#356);
#228=POINT_STYLE(' ',#357,POSITIVE_LENGTH_MEASURE(1.0E-006),#358);
#229=CARTESIAN_POINT('',(0.0,4.7625,-107.99));
#230=SURFACE_STYLE_USAGE(.BOTH.,#359);
#231=FACE_OUTER_BOUND('',#360,.T.);
#232=CONICAL_SURFACE('',#361,5.76118400746399,0.0349048389173587);
#233=POINT_STYLE(' ',#362,POSITIVE_LENGTH_MEASURE(1.0E-006),#363);
#234=CARTESIAN_POINT('',(-7.7762503467721E-016,6.35,-50.79));
#235=CURVE_STYLE('',#364,POSITIVE_LENGTH_MEASURE(1.0E-006),#365);
#236=LINE('',#366,#367);
#237=SURFACE_STYLE_USAGE(.BOTH.,#368);
#238=FACE_OUTER_BOUND('',#369,.T.);
#239=FACE_BOUND('',#370,.T.);
#240=PLANE('',#371);
#241=SURFACE_STYLE_USAGE(.BOTH.,#372);
#242=FACE_OUTER_BOUND('',#373,.T.);
#243=CONICAL_SURFACE('',#374,5.76118400746399,0.0349048389173587);
#244=CURVE_STYLE('',#375,POSITIVE_LENGTH_MEASURE(1.0E-006),#376);
#245=CIRCLE('',#377,6.35);
#246=CURVE_STYLE('',#378,POSITIVE_LENGTH_MEASURE(1.0E-006),#379);
#247=CIRCLE('',#380,5.89158388626344);
#248=CURVE_STYLE('',#381,POSITIVE_LENGTH_MEASURE(1.0E-006),#382);
#249=CIRCLE('',#383,6.35);
#250=CURVE_STYLE('',#384,POSITIVE_LENGTH_MEASURE(1.0E-006),#385);
#251=CIRCLE('',#386,4.7625);
#252=SURFACE_STYLE_USAGE(.BOTH.,#387);
#253=CLOSED_SHELL('',(#122,#154,#106,#120,#114,#110));
#254=CURVE_STYLE('',#388,POSITIVE_LENGTH_MEASURE(1.0E-006),#389);
#255=LINE('',#390,#391);
#256=POINT_STYLE(' ',#392,POSITIVE_LENGTH_MEASURE(1.0E-006),#393);
#257=CARTESIAN_POINT('',(0.0,6.75986801492798,-50.79));
#258=SURFACE_STYLE_USAGE(.BOTH.,#394);
#259=FACE_OUTER_BOUND('',#395,.T.);
#260=PLANE('',#396);
#261=POINT_STYLE(' ',#397,POSITIVE_LENGTH_MEASURE(1.0E-006),#398);
#262=CARTESIAN_POINT('',(0.0,-6.35,-50.79));
#263=CURVE_STYLE('',#399,POSITIVE_LENGTH_MEASURE(1.0E-006),#400);
#264=CIRCLE('',#401,6.35);
#265=SURFACE_STYLE_USAGE(.BOTH.,#402);
#266=FACE_OUTER_BOUND('',#403,.T.);
#267=CONICAL_SURFACE('',#404,6.12079194313172,0.523598775598301);
#268=CURVE_STYLE('',#405,POSITIVE_LENGTH_MEASURE(1.0E-006),#406);
#269=LINE('',#407,#408);
#270=CURVE_STYLE('',#409,POSITIVE_LENGTH_MEASURE(1.0E-006),#410);
#271=CIRCLE('',#411,4.7625);
#272=POINT_STYLE(' ',#412,POSITIVE_LENGTH_MEASURE(1.0E-006),#413);
#273=CARTESIAN_POINT('',(8.27205429031235E-016,-6.75486801492798,-50.79));
#274=POINT_STYLE(' ',#414,POSITIVE_LENGTH_MEASURE(1.0E-006),#415);
#275=CARTESIAN_POINT('',(0.0,5.89158388626344,0.00999999999999091));
#276=SURFACE_STYLE_USAGE(.BOTH.,#416);
#277=FACE_OUTER_BOUND('',#417,.T.);
#278=CONICAL_SURFACE('',#418,3.37743400746399,1.56931591405071);
#279=POINT_STYLE(' ',#419,POSITIVE_LENGTH_MEASURE(1.0E-006),#420);
#280=CARTESIAN_POINT('',(7.21487106119574E-016,-5.89158388626344,0.00999999999999091));
#281=POINT_STYLE(' ',#421,POSITIVE_LENGTH_MEASURE(1.0E-006),#422);
#282=CARTESIAN_POINT('',(5.83218776007907E-016,-4.7625,-107.99));
#283=SURFACE_STYLE_USAGE(.BOTH.,#423);
#284=FACE_OUTER_BOUND('',#424,.T.);
#285=CONICAL_SURFACE('',#425,6.12079194313172,0.523598775598301);
#286=CURVE_STYLE('',#426,POSITIVE_LENGTH_MEASURE(1.0E-006),#427);
#287=LINE('',#428,#429);
#288=POINT_STYLE(' ',#430,POSITIVE_LENGTH_MEASURE(1.0E-006),#431);
#289=CARTESIAN_POINT('',(8.27817732208146E-016,-6.75986801492798,-50.79));
#290=CURVE_STYLE('',#432,POSITIVE_LENGTH_MEASURE(1.0E-006),#433);
#291=CIRCLE('',#434,6.75486801492798);
#292=SURFACE_STYLE_USAGE(.BOTH.,#435);
#293=CLOSED_SHELL('',(#80,#144,#172,#138,#160,#90));
#294=CURVE_STYLE('',#436,POSITIVE_LENGTH_MEASURE(1.0E-006),#437);
#295=LINE('',#438,#439);
#296=SURFACE_STYLE_USAGE(.BOTH.,#440);
#297=FACE_OUTER_BOUND('',#441,.T.);
#298=PLANE('',#442);
#299=PRODUCT_CONTEXT('',#61,'mechanical');
#300=PRODUCT_DEFINITION_FORMATION_WITH_SPECIFIED_SOURCE(' ','NONE',#173,.NOT_KNOWN.);
#301=CARTESIAN_POINT('',(0.0,0.0,0.0));
#302=DIRECTION('',(0.0,0.0,1.0));
#303=DIRECTION('',(1.0,0.0,0.0));
#304=PRODUCT_CONTEXT('',#66,'mechanical');
#305=PRODUCT_DEFINITION_FORMATION_WITH_SPECIFIED_SOURCE(' ','NONE',#176,.NOT_KNOWN.);
#306=CARTESIAN_POINT('',(0.0,0.0,0.0));
#307=DIRECTION('',(0.0,0.0,1.0));
#308=DIRECTION('',(1.0,0.0,0.0));
#309= (NAMED_UNIT(#184)LENGTH_UNIT()SI_UNIT(.MILLI.,.METRE.));
#310=SURFACE_SIDE_STYLE('',(#444));
#311=EDGE_LOOP('',(#445,#446,#447,#448));
#312=AXIS2_PLACEMENT_3D('',#449,#450,#451);
#313=DRAUGHTING_PRE_DEFINED_CURVE_FONT('continuous');
#314=COLOUR_RGB('',0.800000011920929,0.800000011920929,0.800000011920929);
#315=AXIS2_PLACEMENT_3D('',#452,#453,#454);
#316=DRAUGHTING_PRE_DEFINED_CURVE_FONT('continuous');
#317=COLOUR_RGB('',0.498039215803146,0.498039215803146,0.498039215803146);
#318=CARTESIAN_POINT('',(7.49556070398392E-016,-6.12079194313172,-0.387000000000008));
#319=VECTOR('',#455,1.0);
#320=PRE_DEFINED_MARKER('');
#321=COLOUR_RGB('',0.800000011920929,0.800000011920929,0.800000011920929);
#322=PRE_DEFINED_MARKER('');
#323=COLOUR_RGB('',0.498039215803146,0.498039215803146,0.498039215803146);
#324=SURFACE_SIDE_STYLE('',(#456));
#325=EDGE_LOOP('',(#457,#458,#459,#460));
#326=AXIS2_PLACEMENT_3D('',#461,#462,#463);
#327=DRAUGHTING_PRE_DEFINED_CURVE_FONT('continuous');
#328=COLOUR_RGB('',0.800000011920929,0.800000011920929,0.800000011920929);
#329=AXIS2_PLACEMENT_3D('',#464,#465,#466);
#330=DRAUGHTING_PRE_DEFINED_CURVE_FONT('continuous');
#331=COLOUR_RGB('',0.800000011920929,0.800000011920929,0.800000011920929);
#332=CARTESIAN_POINT('',(-4.13602714515618E-016,3.37743400746399,-50.795));
#333=VECTOR('',#467,1.0);
#334=DRAUGHTING_PRE_DEFINED_CURVE_FONT('continuous');
#335=COLOUR_RGB('',0.800000011920929,0.800000011920929,0.800000011920929);
#336=AXIS2_PLACEMENT_3D('',#468,#469,#470);
#337=PRE_DEFINED_MARKER('');
#338=COLOUR_RGB('',0.800000011920929,0.800000011920929,0.800000011920929);
#339=PRE_DEFINED_MARKER('');
#340=COLOUR_RGB('',0.498039215803146,0.498039215803146,0.498039215803146);
#341=DRAUGHTING_PRE_DEFINED_CURVE_FONT('continuous');
#342=COLOUR_RGB('',0.498039215803146,0.498039215803146,0.498039215803146);
#343=CARTESIAN_POINT('',(-7.7762503467721E-016,6.35,-21.0245));
#344=VECTOR('',#471,1.0);
#345=DRAUGHTING_PRE_DEFINED_CURVE_FONT('continuous');
#346=COLOUR_RGB('',0.498039215803146,0.498039215803146,0.498039215803146);
#347=AXIS2_PLACEMENT_3D('',#472,#473,#474);
#348=SURFACE_SIDE_STYLE('',(#475));
#349=EDGE_LOOP('',(#476,#477,#478));
#350=AXIS2_PLACEMENT_3D('',#479,#480,#481);
#351=DRAUGHTING_PRE_DEFINED_CURVE_FONT('continuous');
#352=COLOUR_RGB('',0.498039215803146,0.498039215803146,0.498039215803146);
#353=AXIS2_PLACEMENT_3D('',#482,#483,#484);
#354=SURFACE_SIDE_STYLE('',(#485));
#355=EDGE_LOOP('',(#486,#487));
#356=AXIS2_PLACEMENT_3D('',#488,#489,#490);
#357=PRE_DEFINED_MARKER('');
#358=COLOUR_RGB('',0.800000011920929,0.800000011920929,0.800000011920929);
#359=SURFACE_SIDE_STYLE('',(#491));
#360=EDGE_LOOP('',(#492,#493,#494,#495));
#361=AXIS2_PLACEMENT_3D('',#496,#497,#498);
#362=PRE_DEFINED_MARKER('');
#363=COLOUR_RGB('',0.498039215803146,0.498039215803146,0.498039215803146);
#364=DRAUGHTING_PRE_DEFINED_CURVE_FONT('continuous');
#365=COLOUR_RGB('',0.800000011920929,0.800000011920929,0.800000011920929);
#366=CARTESIAN_POINT('',(4.13602714515617E-016,-3.37743400746399,-50.795));
#367=VECTOR('',#499,1.0);
#368=SURFACE_SIDE_STYLE('',(#500));
#369=EDGE_LOOP('',(#501,#502));
#370=EDGE_LOOP('',(#503,#504));
#371=AXIS2_PLACEMENT_3D('',#505,#506,#507);
#372=SURFACE_SIDE_STYLE('',(#508));
#373=EDGE_LOOP('',(#509,#510,#511,#512));
#374=AXIS2_PLACEMENT_3D('',#513,#514,#515);
#375=DRAUGHTING_PRE_DEFINED_CURVE_FONT('continuous');
#376=COLOUR_RGB('',0.498039215803146,0.498039215803146,0.498039215803146);
#377=AXIS2_PLACEMENT_3D('',#516,#517,#518);
#378=DRAUGHTING_PRE_DEFINED_CURVE_FONT('continuous');
#379=COLOUR_RGB('',0.498039215803146,0.498039215803146,0.498039215803146);
#380=AXIS2_PLACEMENT_3D('',#519,#520,#521);
#381=DRAUGHTING_PRE_DEFINED_CURVE_FONT('continuous');
#382=COLOUR_RGB('',0.498039215803146,0.498039215803146,0.498039215803146);
#383=AXIS2_PLACEMENT_3D('',#522,#523,#524);
#384=DRAUGHTING_PRE_DEFINED_CURVE_FONT('continuous');
#385=COLOUR_RGB('',0.800000011920929,0.800000011920929,0.800000011920929);
#386=AXIS2_PLACEMENT_3D('',#525,#526,#527);
#387=SURFACE_SIDE_STYLE('',(#528));
#388=DRAUGHTING_PRE_DEFINED_CURVE_FONT('continuous');
#389=COLOUR_RGB('',0.498039215803146,0.498039215803146,0.498039215803146);
#390=CARTESIAN_POINT('',(-7.49556070398392E-016,6.12079194313172,-0.387000000000008));
#391=VECTOR('',#529,1.0);
#392=PRE_DEFINED_MARKER('');
#393=COLOUR_RGB('',0.800000011920929,0.800000011920929,0.800000011920929);
#394=SURFACE_SIDE_STYLE('',(#530));
#395=EDGE_LOOP('',(#531,#532));
#396=AXIS2_PLACEMENT_3D('',#533,#534,#535);
#397=PRE_DEFINED_MARKER('');
#398=COLOUR_RGB('',0.498039215803146,0.498039215803146,0.498039215803146);
#399=DRAUGHTING_PRE_DEFINED_CURVE_FONT('continuous');
#400=COLOUR_RGB('',0.498039215803146,0.498039215803146,0.498039215803146);
#401=AXIS2_PLACEMENT_3D('',#536,#537,#538);
#402=SURFACE_SIDE_STYLE('',(#539));
#403=EDGE_LOOP('',(#540,#541,#542,#543));
#404=AXIS2_PLACEMENT_3D('',#544,#545,#546);
#405=DRAUGHTING_PRE_DEFINED_CURVE_FONT('continuous');
#406=COLOUR_RGB('',0.498039215803146,0.498039215803146,0.498039215803146);
#407=CARTESIAN_POINT('',(7.7762503467721E-016,-6.35,-21.0245));
#408=VECTOR('',#547,1.0);
#409=DRAUGHTING_PRE_DEFINED_CURVE_FONT('continuous');
#410=COLOUR_RGB('',0.800000011920929,0.800000011920929,0.800000011920929);
#411=AXIS2_PLACEMENT_3D('',#548,#549,#550);
#412=PRE_DEFINED_MARKER('');
#413=COLOUR_RGB('',0.800000011920929,0.800000011920929,0.800000011920929);
#414=PRE_DEFINED_MARKER('');
#415=COLOUR_RGB('',0.498039215803146,0.498039215803146,0.498039215803146);
#416=SURFACE_SIDE_STYLE('',(#551));
#417=EDGE_LOOP('',(#552,#553,#554));
#418=AXIS2_PLACEMENT_3D('',#555,#556,#557);
#419=PRE_DEFINED_MARKER('');
#420=COLOUR_RGB('',0.498039215803146,0.498039215803146,0.498039215803146);
#421=PRE_DEFINED_MARKER('');
#422=COLOUR_RGB('',0.800000011920929,0.800000011920929,0.800000011920929);
#423=SURFACE_SIDE_STYLE('',(#558));
#424=EDGE_LOOP('',(#559,#560,#561,#562));
#425=AXIS2_PLACEMENT_3D('',#563,#564,#565);
#426=DRAUGHTING_PRE_DEFINED_CURVE_FONT('continuous');
#427=COLOUR_RGB('',0.800000011920929,0.800000011920929,0.800000011920929);
#428=CARTESIAN_POINT('',(-7.05518254108026E-016,5.76118400746399,-79.39));
#429=VECTOR('',#566,1.0);
#430=PRE_DEFINED_MARKER('');
#431=COLOUR_RGB('',0.800000011920929,0.800000011920929,0.800000011920929);
#432=DRAUGHTING_PRE_DEFINED_CURVE_FONT('continuous');
#433=COLOUR_RGB('',0.800000011920929,0.800000011920929,0.800000011920929);
#434=AXIS2_PLACEMENT_3D('',#567,#568,#569);
#435=SURFACE_SIDE_STYLE('',(#570));
#436=DRAUGHTING_PRE_DEFINED_CURVE_FONT('continuous');
#437=COLOUR_RGB('',0.800000011920929,0.800000011920929,0.800000011920929);
#438=CARTESIAN_POINT('',(7.05518254108027E-016,-5.76118400746399,-79.39));
#439=VECTOR('',#571,1.0);
#440=SURFACE_SIDE_STYLE('',(#572));
#441=EDGE_LOOP('',(#573,#574));
#442=AXIS2_PLACEMENT_3D('',#575,#576,#577);
#444=SURFACE_STYLE_FILL_AREA(#578);
#445=ORIENTED_EDGE('',*,*,#102,.F.);
#446=ORIENTED_EDGE('',*,*,#104,.T.);
#447=ORIENTED_EDGE('',*,*,#146,.F.);
#448=ORIENTED_EDGE('',*,*,#124,.F.);
#449=CARTESIAN_POINT('',(0.0,0.0,-21.0245));
#450=DIRECTION('',(-0.0,-0.0,1.0));
#451=DIRECTION('',(0.0,1.0,0.0));
#452=CARTESIAN_POINT('',(0.0,0.0,-50.79));
#453=DIRECTION('',(0.0,0.0,-1.0));
#454=DIRECTION('',(0.0,1.0,0.0));
#455=DIRECTION('',(-6.12303176911191E-017,0.500000000000002,0.866025403784438));
#456=SURFACE_STYLE_FILL_AREA(#579);
#457=ORIENTED_EDGE('',*,*,#102,.T.);
#458=ORIENTED_EDGE('',*,*,#142,.F.);
#459=ORIENTED_EDGE('',*,*,#146,.T.);
#460=ORIENTED_EDGE('',*,*,#128,.T.);
#461=CARTESIAN_POINT('',(0.0,0.0,-21.0245));
#462=DIRECTION('',(-0.0,-0.0,1.0));
#463=DIRECTION('',(0.0,1.0,0.0));
#464=CARTESIAN_POINT('',(0.0,0.0,-50.79));
#465=DIRECTION('',(0.0,0.0,-1.0));
#466=DIRECTION('',(0.0,1.0,0.0));
#467=DIRECTION('',(1.22460501188558E-016,-0.999998904189254,-0.00148041220343427));
#468=CARTESIAN_POINT('',(0.0,0.0,-50.79));
#469=DIRECTION('',(0.0,0.0,-1.0));
#470=DIRECTION('',(0.0,1.0,0.0));
#471=DIRECTION('',(0.0,0.0,-1.0));
#472=CARTESIAN_POINT('',(0.0,0.0,-0.784000000000006));
#473=DIRECTION('',(0.0,0.0,-1.0));
#474=DIRECTION('',(0.0,1.0,0.0));
#475=SURFACE_STYLE_FILL_AREA(#580);
#476=ORIENTED_EDGE('',*,*,#118,.T.);
#477=ORIENTED_EDGE('',*,*,#166,.F.);
#478=ORIENTED_EDGE('',*,*,#94,.T.);
#479=CARTESIAN_POINT('',(0.0,0.0,-50.795));
#480=DIRECTION('',(-0.0,-0.0,1.0));
#481=DIRECTION('',(0.0,1.0,0.0));
#482=CARTESIAN_POINT('',(0.0,0.0,0.00999999999999091));
#483=DIRECTION('',(0.0,0.0,-1.0));
#484=DIRECTION('',(0.0,1.0,0.0));
#485=SURFACE_STYLE_FILL_AREA(#581);
#486=ORIENTED_EDGE('',*,*,#148,.T.);
#487=ORIENTED_EDGE('',*,*,#130,.T.);
#488=CARTESIAN_POINT('',(0.0,2.37875,-107.99));
#489=DIRECTION('',(0.0,0.0,-1.0));
#490=DIRECTION('',(0.0,1.0,0.0));
#491=SURFACE_STYLE_FILL_AREA(#582);
#492=ORIENTED_EDGE('',*,*,#162,.T.);
#493=ORIENTED_EDGE('',*,*,#130,.F.);
#494=ORIENTED_EDGE('',*,*,#170,.T.);
#495=ORIENTED_EDGE('',*,*,#82,.T.);
#496=CARTESIAN_POINT('',(0.0,0.0,-79.39));
#497=DIRECTION('',(-0.0,-0.0,1.0));
#498=DIRECTION('',(0.0,1.0,0.0));
#499=DIRECTION('',(1.22460501188558E-016,-0.999998904189254,0.00148041220343427));
#500=SURFACE_STYLE_FILL_AREA(#583);
#501=ORIENTED_EDGE('',*,*,#92,.F.);
#502=ORIENTED_EDGE('',*,*,#82,.F.);
#503=ORIENTED_EDGE('',*,*,#166,.T.);
#504=ORIENTED_EDGE('',*,*,#96,.T.);
#505=CARTESIAN_POINT('',(0.0,6.75736801492798,-50.79));
#506=DIRECTION('',(-0.0,0.0,1.0));
#507=DIRECTION('',(0.0,-1.0,0.0));
#508=SURFACE_STYLE_FILL_AREA(#584);
#509=ORIENTED_EDGE('',*,*,#162,.F.);
#510=ORIENTED_EDGE('',*,*,#92,.T.);
#511=ORIENTED_EDGE('',*,*,#170,.F.);
#512=ORIENTED_EDGE('',*,*,#148,.F.);
#513=CARTESIAN_POINT('',(0.0,0.0,-79.39));
#514=DIRECTION('',(-0.0,-0.0,1.0));
#515=DIRECTION('',(0.0,1.0,0.0));
#516=CARTESIAN_POINT('',(0.0,0.0,-50.79));
#517=DIRECTION('',(0.0,0.0,-1.0));
#518=DIRECTION('',(0.0,-1.0,0.0));
#519=CARTESIAN_POINT('',(0.0,0.0,0.00999999999999091));
#520=DIRECTION('',(0.0,0.0,-1.0));
#521=DIRECTION('',(0.0,1.0,0.0));
#522=CARTESIAN_POINT('',(0.0,0.0,-0.784000000000006));
#523=DIRECTION('',(0.0,0.0,-1.0));
#524=DIRECTION('',(0.0,1.0,0.0));
#525=CARTESIAN_POINT('',(0.0,0.0,-107.99));
#526=DIRECTION('',(0.0,0.0,-1.0));
#527=DIRECTION('',(0.0,1.0,0.0));
#528=SURFACE_STYLE_FILL_AREA(#585);
#529=DIRECTION('',(-6.12303176911191E-017,0.500000000000002,-0.866025403784438));
#530=SURFACE_STYLE_FILL_AREA(#586);
#531=ORIENTED_EDGE('',*,*,#108,.F.);
#532=ORIENTED_EDGE('',*,*,#126,.F.);
#533=CARTESIAN_POINT('',(0.0,2.94579194313172,0.00999999999999091));
#534=DIRECTION('',(-0.0,0.0,1.0));
#535=DIRECTION('',(0.0,-1.0,0.0));
#536=CARTESIAN_POINT('',(0.0,0.0,-50.79));
#537=DIRECTION('',(0.0,0.0,-1.0));
#538=DIRECTION('',(0.0,-1.0,0.0));
#539=SURFACE_STYLE_FILL_AREA(#587);
#540=ORIENTED_EDGE('',*,*,#134,.F.);
#541=ORIENTED_EDGE('',*,*,#108,.T.);
#542=ORIENTED_EDGE('',*,*,#84,.F.);
#543=ORIENTED_EDGE('',*,*,#104,.F.);
#544=CARTESIAN_POINT('',(0.0,0.0,-0.387000000000008));
#545=DIRECTION('',(0.0,-0.0,-1.0));
#546=DIRECTION('',(0.0,1.0,0.0));
#547=DIRECTION('',(-0.0,-0.0,1.0));
#548=CARTESIAN_POINT('',(0.0,0.0,-107.99));
#549=DIRECTION('',(0.0,0.0,-1.0));
#550=DIRECTION('',(0.0,1.0,0.0));
#551=SURFACE_STYLE_FILL_AREA(#588);
#552=ORIENTED_EDGE('',*,*,#118,.F.);
#553=ORIENTED_EDGE('',*,*,#94,.F.);
#554=ORIENTED_EDGE('',*,*,#96,.F.);
#555=CARTESIAN_POINT('',(0.0,0.0,-50.795));
#556=DIRECTION('',(-0.0,-0.0,1.0));
#557=DIRECTION('',(0.0,1.0,0.0));
#558=SURFACE_STYLE_FILL_AREA(#589);
#559=ORIENTED_EDGE('',*,*,#134,.T.);
#560=ORIENTED_EDGE('',*,*,#128,.F.);
#561=ORIENTED_EDGE('',*,*,#84,.T.);
#562=ORIENTED_EDGE('',*,*,#126,.T.);
#563=CARTESIAN_POINT('',(0.0,0.0,-0.387000000000008));
#564=DIRECTION('',(0.0,-0.0,-1.0));
#565=DIRECTION('',(0.0,1.0,0.0));
#566=DIRECTION('',(4.27360083968807E-018,-0.0348977516436105,-0.99939088795637));
#567=CARTESIAN_POINT('',(0.0,0.0,-50.79));
#568=DIRECTION('',(0.0,0.0,-1.0));
#569=DIRECTION('',(0.0,1.0,0.0));
#570=SURFACE_STYLE_FILL_AREA(#590);
#571=DIRECTION('',(4.27360083968807E-018,-0.0348977516436105,0.99939088795637));
#572=SURFACE_STYLE_FILL_AREA(#591);
#573=ORIENTED_EDGE('',*,*,#142,.T.);
#574=ORIENTED_EDGE('',*,*,#124,.T.);
#575=CARTESIAN_POINT('',(0.0,0.0,-50.79));
#576=DIRECTION('',(0.0,0.0,-1.0));
#577=DIRECTION('',(0.0,-1.0,0.0));
#578=FILL_AREA_STYLE('',(#592));
#579=FILL_AREA_STYLE('',(#593));
#580=FILL_AREA_STYLE('',(#594));
#581=FILL_AREA_STYLE('',(#595));
#582=FILL_AREA_STYLE('',(#596));
#583=FILL_AREA_STYLE('',(#597));
#584=FILL_AREA_STYLE('',(#598));
#585=FILL_AREA_STYLE('',(#599));
#586=FILL_AREA_STYLE('',(#600));
#587=FILL_AREA_STYLE('',(#601));
#588=FILL_AREA_STYLE('',(#602));
#589=FILL_AREA_STYLE('',(#603));
#590=FILL_AREA_STYLE('',(#604));
#591=FILL_AREA_STYLE('',(#605));
#592=FILL_AREA_STYLE_COLOUR('',#606);
#593=FILL_AREA_STYLE_COLOUR('',#607);
#594=FILL_AREA_STYLE_COLOUR('',#608);
#595=FILL_AREA_STYLE_COLOUR('',#609);
#596=FILL_AREA_STYLE_COLOUR('',#610);
#597=FILL_AREA_STYLE_COLOUR('',#611);
#598=FILL_AREA_STYLE_COLOUR('',#612);
#599=FILL_AREA_STYLE_COLOUR('',#613);
#600=FILL_AREA_STYLE_COLOUR('',#614);
#601=FILL_AREA_STYLE_COLOUR('',#615);
#602=FILL_AREA_STYLE_COLOUR('',#616);
#603=FILL_AREA_STYLE_COLOUR('',#617);
#604=FILL_AREA_STYLE_COLOUR('',#618);
#605=FILL_AREA_STYLE_COLOUR('',#619);
#606=COLOUR_RGB('',0.498039215803146,0.498039215803146,0.498039215803146);
#607=COLOUR_RGB('',0.498039215803146,0.498039215803146,0.498039215803146);
#608=COLOUR_RGB('',0.800000011920929,0.800000011920929,0.800000011920929);
#609=COLOUR_RGB('',0.800000011920929,0.800000011920929,0.800000011920929);
#610=COLOUR_RGB('',0.800000011920929,0.800000011920929,0.800000011920929);
#611=COLOUR_RGB('',0.800000011920929,0.800000011920929,0.800000011920929);
#612=COLOUR_RGB('',0.800000011920929,0.800000011920929,0.800000011920929);
#613=COLOUR_RGB('',0.800000011920929,0.800000011920929,0.800000011920929);
#614=COLOUR_RGB('',0.498039215803146,0.498039215803146,0.498039215803146);
#615=COLOUR_RGB('',0.498039215803146,0.498039215803146,0.498039215803146);
#616=COLOUR_RGB('',0.800000011920929,0.800000011920929,0.800000011920929);
#617=COLOUR_RGB('',0.498039215803146,0.498039215803146,0.498039215803146);
#618=COLOUR_RGB('',0.800000011920929,0.800000011920929,0.800000011920929);
#619=COLOUR_RGB('',0.498039215803146,0.498039215803146,0.498039215803146);
#620=AXIS2_PLACEMENT_3D('PCS',#621,#622,#623);
#621=CARTESIAN_POINT('',(0.0,0.0,0.0));
#622=DIRECTION('',(0.0,0.0,1.0));
#623=DIRECTION('',(1.0,0.0,0.0));
#624=AXIS2_PLACEMENT_3D('CIP',#625,#626,#627);
#625=CARTESIAN_POINT('',(0.0,0.0,-108.0));
#626=DIRECTION('',(0.0,0.0,1.0));
#627=DIRECTION('',(1.0,0.0,0.0));
#628=AXIS2_PLACEMENT_3D('CRP',#629,#630,#631);
#629=CARTESIAN_POINT('',(-4.7625,0.0,-108.0));
#630=DIRECTION('',(0.0,0.0,1.0));
#631=DIRECTION('',(1.0,0.0,0.0));
#632=AXIS2_PLACEMENT_3D('MCS',#633,#634,#635);
#633=CARTESIAN_POINT('',(0.0,0.0,-41.275));
#634=DIRECTION('',(0.0,0.0,1.0));
#635=DIRECTION('',(1.0,0.0,0.0));
#636=CONSTRUCTIVE_GEOMETRY_REPRESENTATION_RELATIONSHIP('coordinate systems',$,#65,#637);
#637=CONSTRUCTIVE_GEOMETRY_REPRESENTATION('coordinate systems',(#620,#624,#628,#632),#10);
ENDSEC;
END-ISO-10303-21;
