ISO-10303-21;
HEADER;
FILE_DESCRIPTION(('no description'),'unknown implementation level');
FILE_NAME('solidPm5bAhQa3S5o9fiWNBKfjYysct8_1.STP','  ',('CIMSOURCE GmbH'),('CADClick - KiM GmbH - www.kimweb.de'),'unknown preprocess','ACIS','unknown authorization');
FILE_SCHEMA(('automotive_design'));
ENDSEC;
DATA;
#1=MECHANICAL_DESIGN_GEOMETRIC_PRESENTATION_REPRESENTATION(' ',(#14,#15,#16,#17,#18,#19,#20,#21,#22,#23,#24,#25,#26,#27,#28,#29,#30,#31,#32,#33,#34,#35,#36,#37,#38,#39,#40,#41,#42,#43,#44,#45,#46,#47,#48,#49,#50,#51,#52,#53,#54,#55,#56,#57,#58,#59,#60),#10);
#2=PRODUCT_DEFINITION_CONTEXT('',#61,'design');
#3=APPLICATION_PROTOCOL_DEFINITION('INTERNATIONAL STANDARD','automotive_design',1994,#61);
#4=PRODUCT_CATEGORY_RELATIONSHIP('NONE','NONE',#62,#63);
#5=SHAPE_DEFINITION_REPRESENTATION(#64,#65);
#6=PRODUCT_DEFINITION_CONTEXT('',#66,'design');
#7=APPLICATION_PROTOCOL_DEFINITION('INTERNATIONAL STANDARD','automotive_design',1994,#66);
#8=PRODUCT_CATEGORY_RELATIONSHIP('NONE','NONE',#67,#68);
#9=SHAPE_DEFINITION_REPRESENTATION(#69,#70);
#10= (GEOMETRIC_REPRESENTATION_CONTEXT(3)GLOBAL_UNCERTAINTY_ASSIGNED_CONTEXT((#73))GLOBAL_UNIT_ASSIGNED_CONTEXT((#75,#76,#77))REPRESENTATION_CONTEXT('NONE','WORKSPACE'));
#14=STYLED_ITEM('',(#79),#80);
#15=STYLED_ITEM('',(#81),#82);
#16=STYLED_ITEM('',(#83),#84);
#17=STYLED_ITEM('',(#85),#86);
#18=STYLED_ITEM('',(#87),#88);
#19=STYLED_ITEM('',(#89),#90);
#20=STYLED_ITEM('',(#91),#92);
#21=STYLED_ITEM('',(#93),#94);
#22=STYLED_ITEM('',(#95),#96);
#23=STYLED_ITEM('',(#97),#98);
#24=STYLED_ITEM('',(#99),#100);
#25=STYLED_ITEM('',(#101),#102);
#26=STYLED_ITEM('',(#103),#104);
#27=STYLED_ITEM('',(#105),#106);
#28=STYLED_ITEM('',(#107),#108);
#29=STYLED_ITEM('',(#109),#110);
#30=STYLED_ITEM('',(#111),#112);
#31=STYLED_ITEM('',(#113),#114);
#32=STYLED_ITEM('',(#115),#116);
#33=STYLED_ITEM('',(#117),#118);
#34=STYLED_ITEM('',(#119),#120);
#35=STYLED_ITEM('',(#121),#122);
#36=STYLED_ITEM('',(#123),#124);
#37=STYLED_ITEM('',(#125),#126);
#38=STYLED_ITEM('',(#127),#128);
#39=STYLED_ITEM('',(#129),#130);
#40=STYLED_ITEM('',(#131),#132);
#41=STYLED_ITEM('',(#133),#134);
#42=STYLED_ITEM('',(#135),#136);
#43=STYLED_ITEM('',(#137),#138);
#44=STYLED_ITEM('',(#139),#140);
#45=STYLED_ITEM('',(#141),#142);
#46=STYLED_ITEM('',(#143),#144);
#47=STYLED_ITEM('',(#145),#146);
#48=STYLED_ITEM('',(#147),#148);
#49=STYLED_ITEM('',(#149),#150);
#50=STYLED_ITEM('',(#151),#152);
#51=STYLED_ITEM('',(#153),#154);
#52=STYLED_ITEM('',(#155),#156);
#53=STYLED_ITEM('',(#157),#158);
#54=STYLED_ITEM('',(#159),#160);
#55=STYLED_ITEM('',(#161),#162);
#56=STYLED_ITEM('',(#163),#164);
#57=STYLED_ITEM('',(#165),#166);
#58=STYLED_ITEM('',(#167),#168);
#59=STYLED_ITEM('',(#169),#170);
#60=STYLED_ITEM('',(#171),#172);
#61=APPLICATION_CONTEXT(' ');
#62=PRODUCT_CATEGORY('part','NONE');
#63=PRODUCT_RELATED_PRODUCT_CATEGORY('detail',' ',(#173));
#64=PRODUCT_DEFINITION_SHAPE('NONE','NONE',#174);
#65=ADVANCED_BREP_SHAPE_REPRESENTATION('1',(#124,#175),#10);
#66=APPLICATION_CONTEXT(' ');
#67=PRODUCT_CATEGORY('part','NONE');
#68=PRODUCT_RELATED_PRODUCT_CATEGORY('detail',' ',(#176));
#69=PRODUCT_DEFINITION_SHAPE('NONE','NONE',#177);
#70=ADVANCED_BREP_SHAPE_REPRESENTATION('2',(#162,#178),#10);
#73=UNCERTAINTY_MEASURE_WITH_UNIT(LENGTH_MEASURE(1.0E-006),#75,'','');
#75= (CONVERSION_BASED_UNIT('MILLIMETRE',#181)LENGTH_UNIT()NAMED_UNIT(#184));
#76= (NAMED_UNIT(#186)PLANE_ANGLE_UNIT()SI_UNIT($,.RADIAN.));
#77= (NAMED_UNIT(#186)SOLID_ANGLE_UNIT()SI_UNIT($,.STERADIAN.));
#79=PRESENTATION_STYLE_ASSIGNMENT((#192));
#80=ADVANCED_FACE('',(#193),#194,.T.);
#81=PRESENTATION_STYLE_ASSIGNMENT((#195));
#82=EDGE_CURVE('',#158,#94,#196,.T.);
#83=PRESENTATION_STYLE_ASSIGNMENT((#197));
#84=EDGE_CURVE('',#172,#158,#198,.T.);
#85=PRESENTATION_STYLE_ASSIGNMENT((#199));
#86=EDGE_CURVE('',#106,#94,#200,.T.);
#87=PRESENTATION_STYLE_ASSIGNMENT((#201));
#88=VERTEX_POINT('',#202);
#89=PRESENTATION_STYLE_ASSIGNMENT((#203));
#90=EDGE_CURVE('',#148,#88,#204,.T.);
#91=PRESENTATION_STYLE_ASSIGNMENT((#205));
#92=EDGE_CURVE('',#160,#142,#206,.T.);
#93=PRESENTATION_STYLE_ASSIGNMENT((#207));
#94=VERTEX_POINT('',#208);
#95=PRESENTATION_STYLE_ASSIGNMENT((#209));
#96=VERTEX_POINT('',#210);
#97=PRESENTATION_STYLE_ASSIGNMENT((#211));
#98=EDGE_CURVE('',#88,#148,#212,.T.);
#99=PRESENTATION_STYLE_ASSIGNMENT((#213));
#100=ADVANCED_FACE('',(#214),#215,.T.);
#101=PRESENTATION_STYLE_ASSIGNMENT((#216));
#102=EDGE_CURVE('',#88,#96,#217,.T.);
#103=PRESENTATION_STYLE_ASSIGNMENT((#218));
#104=EDGE_CURVE('',#142,#158,#219,.T.);
#105=PRESENTATION_STYLE_ASSIGNMENT((#220));
#106=VERTEX_POINT('',#221);
#107=PRESENTATION_STYLE_ASSIGNMENT((#222));
#108=ADVANCED_FACE('',(#223),#224,.T.);
#109=PRESENTATION_STYLE_ASSIGNMENT((#225));
#110=EDGE_CURVE('',#152,#170,#226,.T.);
#111=PRESENTATION_STYLE_ASSIGNMENT((#227));
#112=EDGE_CURVE('',#106,#172,#228,.T.);
#113=PRESENTATION_STYLE_ASSIGNMENT((#229));
#114=EDGE_CURVE('',#142,#160,#230,.T.);
#115=PRESENTATION_STYLE_ASSIGNMENT((#231));
#116=EDGE_CURVE('',#170,#152,#232,.T.);
#117=PRESENTATION_STYLE_ASSIGNMENT((#233));
#118=EDGE_CURVE('',#138,#152,#234,.T.);
#119=PRESENTATION_STYLE_ASSIGNMENT((#235));
#120=EDGE_CURVE('',#172,#160,#236,.T.);
#121=PRESENTATION_STYLE_ASSIGNMENT((#237));
#122=ADVANCED_FACE('',(#238),#239,.T.);
#123=PRESENTATION_STYLE_ASSIGNMENT((#240));
#124=MANIFOLD_SOLID_BREP('1',#241);
#125=PRESENTATION_STYLE_ASSIGNMENT((#242));
#126=EDGE_CURVE('',#158,#172,#243,.T.);
#127=PRESENTATION_STYLE_ASSIGNMENT((#244));
#128=ADVANCED_FACE('',(#245),#246,.T.);
#129=PRESENTATION_STYLE_ASSIGNMENT((#247));
#130=EDGE_CURVE('',#94,#106,#248,.T.);
#131=PRESENTATION_STYLE_ASSIGNMENT((#249));
#132=ADVANCED_FACE('',(#250,#251),#252,.T.);
#133=PRESENTATION_STYLE_ASSIGNMENT((#253));
#134=ADVANCED_FACE('',(#254),#255,.T.);
#135=PRESENTATION_STYLE_ASSIGNMENT((#256));
#136=ADVANCED_FACE('',(#257),#258,.T.);
#137=PRESENTATION_STYLE_ASSIGNMENT((#259));
#138=VERTEX_POINT('',#260);
#139=PRESENTATION_STYLE_ASSIGNMENT((#261));
#140=EDGE_CURVE('',#144,#96,#262,.T.);
#141=PRESENTATION_STYLE_ASSIGNMENT((#263));
#142=VERTEX_POINT('',#264);
#143=PRESENTATION_STYLE_ASSIGNMENT((#265));
#144=VERTEX_POINT('',#266);
#145=PRESENTATION_STYLE_ASSIGNMENT((#267));
#146=ADVANCED_FACE('',(#268),#269,.T.);
#147=PRESENTATION_STYLE_ASSIGNMENT((#270));
#148=VERTEX_POINT('',#271);
#149=PRESENTATION_STYLE_ASSIGNMENT((#272));
#150=EDGE_CURVE('',#144,#148,#273,.T.);
#151=PRESENTATION_STYLE_ASSIGNMENT((#274));
#152=VERTEX_POINT('',#275);
#153=PRESENTATION_STYLE_ASSIGNMENT((#276));
#154=EDGE_CURVE('',#170,#138,#277,.T.);
#155=PRESENTATION_STYLE_ASSIGNMENT((#278));
#156=ADVANCED_FACE('',(#279),#280,.F.);
#157=PRESENTATION_STYLE_ASSIGNMENT((#281));
#158=VERTEX_POINT('',#282);
#159=PRESENTATION_STYLE_ASSIGNMENT((#283));
#160=VERTEX_POINT('',#284);
#161=PRESENTATION_STYLE_ASSIGNMENT((#285));
#162=MANIFOLD_SOLID_BREP('2',#286);
#163=PRESENTATION_STYLE_ASSIGNMENT((#287));
#164=ADVANCED_FACE('',(#288),#289,.F.);
#165=PRESENTATION_STYLE_ASSIGNMENT((#290));
#166=ADVANCED_FACE('',(#291),#292,.T.);
#167=PRESENTATION_STYLE_ASSIGNMENT((#293));
#168=EDGE_CURVE('',#96,#144,#294,.T.);
#169=PRESENTATION_STYLE_ASSIGNMENT((#295));
#170=VERTEX_POINT('',#296);
#171=PRESENTATION_STYLE_ASSIGNMENT((#297));
#172=VERTEX_POINT('',#298);
#173=PRODUCT('1','1','PART-1-DESC',(#299));
#174=PRODUCT_DEFINITION('NONE','NONE',#300,#2);
#175=AXIS2_PLACEMENT_3D('',#301,#302,#303);
#176=PRODUCT('2','2','PART-2-DESC',(#304));
#177=PRODUCT_DEFINITION('NONE','NONE',#305,#6);
#178=AXIS2_PLACEMENT_3D('',#306,#307,#308);
#181=LENGTH_MEASURE_WITH_UNIT(LENGTH_MEASURE(1.0),#309);
#184=DIMENSIONAL_EXPONENTS(1.0,0.0,0.0,0.0,0.0,0.0,0.0);
#186=DIMENSIONAL_EXPONENTS(0.0,0.0,0.0,0.0,0.0,0.0,0.0);
#192=SURFACE_STYLE_USAGE(.BOTH.,#310);
#193=FACE_OUTER_BOUND('',#311,.T.);
#194=CYLINDRICAL_SURFACE('',#312,7.9375);
#195=CURVE_STYLE('',#313,POSITIVE_LENGTH_MEASURE(1.0E-006),#314);
#196=LINE('',#315,#316);
#197=CURVE_STYLE('',#317,POSITIVE_LENGTH_MEASURE(1.0E-006),#318);
#198=CIRCLE('',#319,7.9375);
#199=CURVE_STYLE('',#320,POSITIVE_LENGTH_MEASURE(1.0E-006),#321);
#200=CIRCLE('',#322,7.9375);
#201=POINT_STYLE(' ',#323,POSITIVE_LENGTH_MEASURE(1.0E-006),#324);
#202=CARTESIAN_POINT('',(0.0,8.34736801492798,-53.89));
#203=CURVE_STYLE('',#325,POSITIVE_LENGTH_MEASURE(1.0E-006),#326);
#204=CIRCLE('',#327,8.34736801492798);
#205=CURVE_STYLE('',#328,POSITIVE_LENGTH_MEASURE(1.0E-006),#329);
#206=CIRCLE('',#330,7.47908388626344);
#207=POINT_STYLE(' ',#331,POSITIVE_LENGTH_MEASURE(1.0E-006),#332);
#208=CARTESIAN_POINT('',(-9.72031293346512E-016,7.9375,-53.89));
#209=POINT_STYLE(' ',#333,POSITIVE_LENGTH_MEASURE(1.0E-006),#334);
#210=CARTESIAN_POINT('',(0.0,6.35,-111.09));
#211=CURVE_STYLE('',#335,POSITIVE_LENGTH_MEASURE(1.0E-006),#336);
#212=CIRCLE('',#337,8.34736801492798);
#213=SURFACE_STYLE_USAGE(.BOTH.,#338);
#214=FACE_OUTER_BOUND('',#339,.T.);
#215=CONICAL_SURFACE('',#340,7.34868400746399,0.0349048389173587);
#216=CURVE_STYLE('',#341,POSITIVE_LENGTH_MEASURE(1.0E-006),#342);
#217=LINE('',#343,#344);
#218=CURVE_STYLE('',#345,POSITIVE_LENGTH_MEASURE(1.0E-006),#346);
#219=LINE('',#347,#348);
#220=POINT_STYLE(' ',#349,POSITIVE_LENGTH_MEASURE(1.0E-006),#350);
#221=CARTESIAN_POINT('',(0.0,-7.9375,-53.89));
#222=SURFACE_STYLE_USAGE(.BOTH.,#351);
#223=FACE_OUTER_BOUND('',#352,.T.);
#224=PLANE('',#353);
#225=CURVE_STYLE('',#354,POSITIVE_LENGTH_MEASURE(1.0E-006),#355);
#226=CIRCLE('',#356,8.34236801492798);
#227=CURVE_STYLE('',#357,POSITIVE_LENGTH_MEASURE(1.0E-006),#358);
#228=LINE('',#359,#360);
#229=CURVE_STYLE('',#361,POSITIVE_LENGTH_MEASURE(1.0E-006),#362);
#230=CIRCLE('',#363,7.47908388626344);
#231=CURVE_STYLE('',#364,POSITIVE_LENGTH_MEASURE(1.0E-006),#365);
#232=CIRCLE('',#366,8.34236801492798);
#233=CURVE_STYLE('',#367,POSITIVE_LENGTH_MEASURE(1.0E-006),#368);
#234=LINE('',#369,#370);
#235=CURVE_STYLE('',#371,POSITIVE_LENGTH_MEASURE(1.0E-006),#372);
#236=LINE('',#373,#374);
#237=SURFACE_STYLE_USAGE(.BOTH.,#375);
#238=FACE_OUTER_BOUND('',#376,.T.);
#239=PLANE('',#377);
#240=SURFACE_STYLE_USAGE(.BOTH.,#378);
#241=CLOSED_SHELL('',(#100,#164,#156,#132,#146,#108));
#242=CURVE_STYLE('',#379,POSITIVE_LENGTH_MEASURE(1.0E-006),#380);
#243=CIRCLE('',#381,7.9375);
#244=SURFACE_STYLE_USAGE(.BOTH.,#382);
#245=FACE_OUTER_BOUND('',#383,.T.);
#246=CONICAL_SURFACE('',#384,7.70829194313172,0.523598775598301);
#247=CURVE_STYLE('',#385,POSITIVE_LENGTH_MEASURE(1.0E-006),#386);
#248=CIRCLE('',#387,7.9375);
#249=SURFACE_STYLE_USAGE(.BOTH.,#388);
#250=FACE_OUTER_BOUND('',#389,.T.);
#251=FACE_BOUND('',#390,.T.);
#252=PLANE('',#391);
#253=SURFACE_STYLE_USAGE(.BOTH.,#392);
#254=FACE_OUTER_BOUND('',#393,.T.);
#255=CONICAL_SURFACE('',#394,7.70829194313172,0.523598775598301);
#256=SURFACE_STYLE_USAGE(.BOTH.,#395);
#257=FACE_OUTER_BOUND('',#396,.T.);
#258=CYLINDRICAL_SURFACE('',#397,7.9375);
#259=POINT_STYLE(' ',#398,POSITIVE_LENGTH_MEASURE(1.0E-006),#399);
#260=CARTESIAN_POINT('',(0.0,0.0,-53.9));
#261=CURVE_STYLE('',#400,POSITIVE_LENGTH_MEASURE(1.0E-006),#401);
#262=CIRCLE('',#402,6.35);
#263=POINT_STYLE(' ',#403,POSITIVE_LENGTH_MEASURE(1.0E-006),#404);
#264=CARTESIAN_POINT('',(0.0,7.47908388626344,0.0100000000000122));
#265=POINT_STYLE(' ',#405,POSITIVE_LENGTH_MEASURE(1.0E-006),#406);
#266=CARTESIAN_POINT('',(7.7762503467721E-016,-6.35,-111.09));
#267=SURFACE_STYLE_USAGE(.BOTH.,#407);
#268=FACE_OUTER_BOUND('',#408,.T.);
#269=CONICAL_SURFACE('',#409,7.34868400746399,0.0349048389173587);
#270=POINT_STYLE(' ',#410,POSITIVE_LENGTH_MEASURE(1.0E-006),#411);
#271=CARTESIAN_POINT('',(1.02222399087745E-015,-8.34736801492798,-53.89));
#272=CURVE_STYLE('',#412,POSITIVE_LENGTH_MEASURE(1.0E-006),#413);
#273=LINE('',#414,#415);
#274=POINT_STYLE(' ',#416,POSITIVE_LENGTH_MEASURE(1.0E-006),#417);
#275=CARTESIAN_POINT('',(1.02161168770054E-015,-8.34236801492797,-53.89));
#276=CURVE_STYLE('',#418,POSITIVE_LENGTH_MEASURE(1.0E-006),#419);
#277=LINE('',#420,#421);
#278=SURFACE_STYLE_USAGE(.BOTH.,#422);
#279=FACE_OUTER_BOUND('',#423,.T.);
#280=CONICAL_SURFACE('',#424,4.17118400746399,1.56959762695422);
#281=POINT_STYLE(' ',#425,POSITIVE_LENGTH_MEASURE(1.0E-006),#426);
#282=CARTESIAN_POINT('',(0.0,7.9375,-0.783999999999985));
#283=POINT_STYLE(' ',#427,POSITIVE_LENGTH_MEASURE(1.0E-006),#428);
#284=CARTESIAN_POINT('',(9.15893364788876E-016,-7.47908388626344,0.0100000000000122));
#285=SURFACE_STYLE_USAGE(.BOTH.,#429);
#286=CLOSED_SHELL('',(#80,#134,#122,#166,#128,#136));
#287=SURFACE_STYLE_USAGE(.BOTH.,#430);
#288=FACE_OUTER_BOUND('',#431,.T.);
#289=CONICAL_SURFACE('',#432,4.17118400746399,1.56959762695422);
#290=SURFACE_STYLE_USAGE(.BOTH.,#433);
#291=FACE_OUTER_BOUND('',#434,.T.);
#292=PLANE('',#435);
#293=CURVE_STYLE('',#436,POSITIVE_LENGTH_MEASURE(1.0E-006),#437);
#294=CIRCLE('',#438,6.35);
#295=POINT_STYLE(' ',#439,POSITIVE_LENGTH_MEASURE(1.0E-006),#440);
#296=CARTESIAN_POINT('',(0.0,8.34236801492798,-53.89));
#297=POINT_STYLE(' ',#441,POSITIVE_LENGTH_MEASURE(1.0E-006),#442);
#298=CARTESIAN_POINT('',(9.72031293346512E-016,-7.9375,-0.783999999999985));
#299=PRODUCT_CONTEXT('',#61,'mechanical');
#300=PRODUCT_DEFINITION_FORMATION_WITH_SPECIFIED_SOURCE(' ','NONE',#173,.NOT_KNOWN.);
#301=CARTESIAN_POINT('',(0.0,0.0,0.0));
#302=DIRECTION('',(0.0,0.0,1.0));
#303=DIRECTION('',(1.0,0.0,0.0));
#304=PRODUCT_CONTEXT('',#66,'mechanical');
#305=PRODUCT_DEFINITION_FORMATION_WITH_SPECIFIED_SOURCE(' ','NONE',#176,.NOT_KNOWN.);
#306=CARTESIAN_POINT('',(0.0,0.0,0.0));
#307=DIRECTION('',(0.0,0.0,1.0));
#308=DIRECTION('',(1.0,0.0,0.0));
#309= (NAMED_UNIT(#184)LENGTH_UNIT()SI_UNIT(.MILLI.,.METRE.));
#310=SURFACE_SIDE_STYLE('',(#444));
#311=EDGE_LOOP('',(#445,#446,#447,#448));
#312=AXIS2_PLACEMENT_3D('',#449,#450,#451);
#313=DRAUGHTING_PRE_DEFINED_CURVE_FONT('continuous');
#314=COLOUR_RGB('',0.498039215803146,0.498039215803146,0.498039215803146);
#315=CARTESIAN_POINT('',(-9.72031293346512E-016,7.9375,-20.987));
#316=VECTOR('',#452,1.0);
#317=DRAUGHTING_PRE_DEFINED_CURVE_FONT('continuous');
#318=COLOUR_RGB('',0.498039215803146,0.498039215803146,0.498039215803146);
#319=AXIS2_PLACEMENT_3D('',#453,#454,#455);
#320=DRAUGHTING_PRE_DEFINED_CURVE_FONT('continuous');
#321=COLOUR_RGB('',0.498039215803146,0.498039215803146,0.498039215803146);
#322=AXIS2_PLACEMENT_3D('',#456,#457,#458);
#323=PRE_DEFINED_MARKER('');
#324=COLOUR_RGB('',0.800000011920929,0.800000011920929,0.800000011920929);
#325=DRAUGHTING_PRE_DEFINED_CURVE_FONT('continuous');
#326=COLOUR_RGB('',0.800000011920929,0.800000011920929,0.800000011920929);
#327=AXIS2_PLACEMENT_3D('',#459,#460,#461);
#328=DRAUGHTING_PRE_DEFINED_CURVE_FONT('continuous');
#329=COLOUR_RGB('',0.498039215803146,0.498039215803146,0.498039215803146);
#330=AXIS2_PLACEMENT_3D('',#462,#463,#464);
#331=PRE_DEFINED_MARKER('');
#332=COLOUR_RGB('',0.498039215803146,0.498039215803146,0.498039215803146);
#333=PRE_DEFINED_MARKER('');
#334=COLOUR_RGB('',0.800000011920929,0.800000011920929,0.800000011920929);
#335=DRAUGHTING_PRE_DEFINED_CURVE_FONT('continuous');
#336=COLOUR_RGB('',0.800000011920929,0.800000011920929,0.800000011920929);
#337=AXIS2_PLACEMENT_3D('',#465,#466,#467);
#338=SURFACE_SIDE_STYLE('',(#468));
#339=EDGE_LOOP('',(#469,#470,#471,#472));
#340=AXIS2_PLACEMENT_3D('',#473,#474,#475);
#341=DRAUGHTING_PRE_DEFINED_CURVE_FONT('continuous');
#342=COLOUR_RGB('',0.800000011920929,0.800000011920929,0.800000011920929);
#343=CARTESIAN_POINT('',(-8.99924512777329E-016,7.34868400746399,-82.49));
#344=VECTOR('',#476,1.0);
#345=DRAUGHTING_PRE_DEFINED_CURVE_FONT('continuous');
#346=COLOUR_RGB('',0.498039215803146,0.498039215803146,0.498039215803146);
#347=CARTESIAN_POINT('',(-9.43962329067694E-016,7.70829194313172,-0.386999999999986));
#348=VECTOR('',#477,1.0);
#349=PRE_DEFINED_MARKER('');
#350=COLOUR_RGB('',0.498039215803146,0.498039215803146,0.498039215803146);
#351=SURFACE_SIDE_STYLE('',(#478));
#352=EDGE_LOOP('',(#479,#480));
#353=AXIS2_PLACEMENT_3D('',#481,#482,#483);
#354=DRAUGHTING_PRE_DEFINED_CURVE_FONT('continuous');
#355=COLOUR_RGB('',0.800000011920929,0.800000011920929,0.800000011920929);
#356=AXIS2_PLACEMENT_3D('',#484,#485,#486);
#357=DRAUGHTING_PRE_DEFINED_CURVE_FONT('continuous');
#358=COLOUR_RGB('',0.498039215803146,0.498039215803146,0.498039215803146);
#359=CARTESIAN_POINT('',(9.72031293346512E-016,-7.9375,-20.987));
#360=VECTOR('',#487,1.0);
#361=DRAUGHTING_PRE_DEFINED_CURVE_FONT('continuous');
#362=COLOUR_RGB('',0.498039215803146,0.498039215803146,0.498039215803146);
#363=AXIS2_PLACEMENT_3D('',#488,#489,#490);
#364=DRAUGHTING_PRE_DEFINED_CURVE_FONT('continuous');
#365=COLOUR_RGB('',0.800000011920929,0.800000011920929,0.800000011920929);
#366=AXIS2_PLACEMENT_3D('',#491,#492,#493);
#367=DRAUGHTING_PRE_DEFINED_CURVE_FONT('continuous');
#368=COLOUR_RGB('',0.800000011920929,0.800000011920929,0.800000011920929);
#369=CARTESIAN_POINT('',(5.10805843850269E-016,-4.17118400746399,-53.895));
#370=VECTOR('',#494,1.0);
#371=DRAUGHTING_PRE_DEFINED_CURVE_FONT('continuous');
#372=COLOUR_RGB('',0.498039215803146,0.498039215803146,0.498039215803146);
#373=CARTESIAN_POINT('',(9.43962329067694E-016,-7.70829194313172,-0.386999999999986));
#374=VECTOR('',#495,1.0);
#375=SURFACE_SIDE_STYLE('',(#496));
#376=EDGE_LOOP('',(#497,#498));
#377=AXIS2_PLACEMENT_3D('',#499,#500,#501);
#378=SURFACE_SIDE_STYLE('',(#502));
#379=DRAUGHTING_PRE_DEFINED_CURVE_FONT('continuous');
#380=COLOUR_RGB('',0.498039215803146,0.498039215803146,0.498039215803146);
#381=AXIS2_PLACEMENT_3D('',#503,#504,#505);
#382=SURFACE_SIDE_STYLE('',(#506));
#383=EDGE_LOOP('',(#507,#508,#509,#510));
#384=AXIS2_PLACEMENT_3D('',#511,#512,#513);
#385=DRAUGHTING_PRE_DEFINED_CURVE_FONT('continuous');
#386=COLOUR_RGB('',0.498039215803146,0.498039215803146,0.498039215803146);
#387=AXIS2_PLACEMENT_3D('',#514,#515,#516);
#388=SURFACE_SIDE_STYLE('',(#517));
#389=EDGE_LOOP('',(#518,#519));
#390=EDGE_LOOP('',(#520,#521));
#391=AXIS2_PLACEMENT_3D('',#522,#523,#524);
#392=SURFACE_SIDE_STYLE('',(#525));
#393=EDGE_LOOP('',(#526,#527,#528,#529));
#394=AXIS2_PLACEMENT_3D('',#530,#531,#532);
#395=SURFACE_SIDE_STYLE('',(#533));
#396=EDGE_LOOP('',(#534,#535,#536,#537));
#397=AXIS2_PLACEMENT_3D('',#538,#539,#540);
#398=PRE_DEFINED_MARKER('');
#399=COLOUR_RGB('',0.800000011920929,0.800000011920929,0.800000011920929);
#400=DRAUGHTING_PRE_DEFINED_CURVE_FONT('continuous');
#401=COLOUR_RGB('',0.800000011920929,0.800000011920929,0.800000011920929);
#402=AXIS2_PLACEMENT_3D('',#541,#542,#543);
#403=PRE_DEFINED_MARKER('');
#404=COLOUR_RGB('',0.498039215803146,0.498039215803146,0.498039215803146);
#405=PRE_DEFINED_MARKER('');
#406=COLOUR_RGB('',0.800000011920929,0.800000011920929,0.800000011920929);
#407=SURFACE_SIDE_STYLE('',(#544));
#408=EDGE_LOOP('',(#545,#546,#547,#548));
#409=AXIS2_PLACEMENT_3D('',#549,#550,#551);
#410=PRE_DEFINED_MARKER('');
#411=COLOUR_RGB('',0.800000011920929,0.800000011920929,0.800000011920929);
#412=DRAUGHTING_PRE_DEFINED_CURVE_FONT('continuous');
#413=COLOUR_RGB('',0.800000011920929,0.800000011920929,0.800000011920929);
#414=CARTESIAN_POINT('',(8.99924512777329E-016,-7.34868400746399,-82.49));
#415=VECTOR('',#552,1.0);
#416=PRE_DEFINED_MARKER('');
#417=COLOUR_RGB('',0.800000011920929,0.800000011920929,0.800000011920929);
#418=DRAUGHTING_PRE_DEFINED_CURVE_FONT('continuous');
#419=COLOUR_RGB('',0.800000011920929,0.800000011920929,0.800000011920929);
#420=CARTESIAN_POINT('',(-5.10805843850269E-016,4.17118400746399,-53.895));
#421=VECTOR('',#553,1.0);
#422=SURFACE_SIDE_STYLE('',(#554));
#423=EDGE_LOOP('',(#555,#556,#557));
#424=AXIS2_PLACEMENT_3D('',#558,#559,#560);
#425=PRE_DEFINED_MARKER('');
#426=COLOUR_RGB('',0.498039215803146,0.498039215803146,0.498039215803146);
#427=PRE_DEFINED_MARKER('');
#428=COLOUR_RGB('',0.498039215803146,0.498039215803146,0.498039215803146);
#429=SURFACE_SIDE_STYLE('',(#561));
#430=SURFACE_SIDE_STYLE('',(#562));
#431=EDGE_LOOP('',(#563,#564,#565));
#432=AXIS2_PLACEMENT_3D('',#566,#567,#568);
#433=SURFACE_SIDE_STYLE('',(#569));
#434=EDGE_LOOP('',(#570,#571));
#435=AXIS2_PLACEMENT_3D('',#572,#573,#574);
#436=DRAUGHTING_PRE_DEFINED_CURVE_FONT('continuous');
#437=COLOUR_RGB('',0.800000011920929,0.800000011920929,0.800000011920929);
#438=AXIS2_PLACEMENT_3D('',#575,#576,#577);
#439=PRE_DEFINED_MARKER('');
#440=COLOUR_RGB('',0.800000011920929,0.800000011920929,0.800000011920929);
#441=PRE_DEFINED_MARKER('');
#442=COLOUR_RGB('',0.498039215803146,0.498039215803146,0.498039215803146);
#444=SURFACE_STYLE_FILL_AREA(#578);
#445=ORIENTED_EDGE('',*,*,#82,.F.);
#446=ORIENTED_EDGE('',*,*,#126,.T.);
#447=ORIENTED_EDGE('',*,*,#112,.F.);
#448=ORIENTED_EDGE('',*,*,#130,.F.);
#449=CARTESIAN_POINT('',(0.0,0.0,-20.987));
#450=DIRECTION('',(-0.0,-0.0,1.0));
#451=DIRECTION('',(0.0,1.0,0.0));
#452=DIRECTION('',(0.0,0.0,-1.0));
#453=CARTESIAN_POINT('',(0.0,0.0,-0.783999999999985));
#454=DIRECTION('',(0.0,0.0,-1.0));
#455=DIRECTION('',(0.0,1.0,0.0));
#456=CARTESIAN_POINT('',(0.0,0.0,-53.89));
#457=DIRECTION('',(0.0,0.0,-1.0));
#458=DIRECTION('',(0.0,-1.0,0.0));
#459=CARTESIAN_POINT('',(0.0,0.0,-53.89));
#460=DIRECTION('',(0.0,0.0,-1.0));
#461=DIRECTION('',(0.0,1.0,0.0));
#462=CARTESIAN_POINT('',(0.0,0.0,0.0100000000000122));
#463=DIRECTION('',(0.0,0.0,-1.0));
#464=DIRECTION('',(0.0,1.0,0.0));
#465=CARTESIAN_POINT('',(0.0,0.0,-53.89));
#466=DIRECTION('',(0.0,0.0,-1.0));
#467=DIRECTION('',(0.0,1.0,0.0));
#468=SURFACE_STYLE_FILL_AREA(#579);
#469=ORIENTED_EDGE('',*,*,#102,.F.);
#470=ORIENTED_EDGE('',*,*,#98,.T.);
#471=ORIENTED_EDGE('',*,*,#150,.F.);
#472=ORIENTED_EDGE('',*,*,#168,.F.);
#473=CARTESIAN_POINT('',(0.0,0.0,-82.49));
#474=DIRECTION('',(-0.0,-0.0,1.0));
#475=DIRECTION('',(0.0,1.0,0.0));
#476=DIRECTION('',(4.27360083968807E-018,-0.0348977516436105,-0.99939088795637));
#477=DIRECTION('',(-6.12303176911191E-017,0.500000000000002,-0.866025403784438));
#478=SURFACE_STYLE_FILL_AREA(#580);
#479=ORIENTED_EDGE('',*,*,#168,.T.);
#480=ORIENTED_EDGE('',*,*,#140,.T.);
#481=CARTESIAN_POINT('',(0.0,3.1725,-111.09));
#482=DIRECTION('',(0.0,0.0,-1.0));
#483=DIRECTION('',(0.0,1.0,0.0));
#484=CARTESIAN_POINT('',(0.0,0.0,-53.89));
#485=DIRECTION('',(0.0,0.0,-1.0));
#486=DIRECTION('',(0.0,1.0,0.0));
#487=DIRECTION('',(-0.0,-0.0,1.0));
#488=CARTESIAN_POINT('',(0.0,0.0,0.0100000000000122));
#489=DIRECTION('',(0.0,0.0,-1.0));
#490=DIRECTION('',(0.0,1.0,0.0));
#491=CARTESIAN_POINT('',(0.0,0.0,-53.89));
#492=DIRECTION('',(0.0,0.0,-1.0));
#493=DIRECTION('',(0.0,1.0,0.0));
#494=DIRECTION('',(1.22460547401549E-016,-0.999999281559432,0.00119869955361529));
#495=DIRECTION('',(-6.12303176911191E-017,0.500000000000002,0.866025403784438));
#496=SURFACE_STYLE_FILL_AREA(#581);
#497=ORIENTED_EDGE('',*,*,#86,.T.);
#498=ORIENTED_EDGE('',*,*,#130,.T.);
#499=CARTESIAN_POINT('',(0.0,0.0,-53.89));
#500=DIRECTION('',(0.0,0.0,-1.0));
#501=DIRECTION('',(0.0,-1.0,0.0));
#502=SURFACE_STYLE_FILL_AREA(#582);
#503=CARTESIAN_POINT('',(0.0,0.0,-0.783999999999985));
#504=DIRECTION('',(0.0,0.0,-1.0));
#505=DIRECTION('',(0.0,1.0,0.0));
#506=SURFACE_STYLE_FILL_AREA(#583);
#507=ORIENTED_EDGE('',*,*,#104,.T.);
#508=ORIENTED_EDGE('',*,*,#84,.F.);
#509=ORIENTED_EDGE('',*,*,#120,.T.);
#510=ORIENTED_EDGE('',*,*,#92,.T.);
#511=CARTESIAN_POINT('',(0.0,0.0,-0.386999999999986));
#512=DIRECTION('',(0.0,-0.0,-1.0));
#513=DIRECTION('',(0.0,1.0,0.0));
#514=CARTESIAN_POINT('',(0.0,0.0,-53.89));
#515=DIRECTION('',(0.0,0.0,-1.0));
#516=DIRECTION('',(0.0,-1.0,0.0));
#517=SURFACE_STYLE_FILL_AREA(#584);
#518=ORIENTED_EDGE('',*,*,#98,.F.);
#519=ORIENTED_EDGE('',*,*,#90,.F.);
#520=ORIENTED_EDGE('',*,*,#116,.T.);
#521=ORIENTED_EDGE('',*,*,#110,.T.);
#522=CARTESIAN_POINT('',(0.0,8.34486801492798,-53.89));
#523=DIRECTION('',(-0.0,0.0,1.0));
#524=DIRECTION('',(0.0,-1.0,0.0));
#525=SURFACE_STYLE_FILL_AREA(#585);
#526=ORIENTED_EDGE('',*,*,#104,.F.);
#527=ORIENTED_EDGE('',*,*,#114,.T.);
#528=ORIENTED_EDGE('',*,*,#120,.F.);
#529=ORIENTED_EDGE('',*,*,#126,.F.);
#530=CARTESIAN_POINT('',(0.0,0.0,-0.386999999999986));
#531=DIRECTION('',(0.0,-0.0,-1.0));
#532=DIRECTION('',(0.0,1.0,0.0));
#533=SURFACE_STYLE_FILL_AREA(#586);
#534=ORIENTED_EDGE('',*,*,#82,.T.);
#535=ORIENTED_EDGE('',*,*,#86,.F.);
#536=ORIENTED_EDGE('',*,*,#112,.T.);
#537=ORIENTED_EDGE('',*,*,#84,.T.);
#538=CARTESIAN_POINT('',(0.0,0.0,-20.987));
#539=DIRECTION('',(-0.0,-0.0,1.0));
#540=DIRECTION('',(0.0,1.0,0.0));
#541=CARTESIAN_POINT('',(0.0,0.0,-111.09));
#542=DIRECTION('',(0.0,0.0,-1.0));
#543=DIRECTION('',(0.0,1.0,0.0));
#544=SURFACE_STYLE_FILL_AREA(#587);
#545=ORIENTED_EDGE('',*,*,#102,.T.);
#546=ORIENTED_EDGE('',*,*,#140,.F.);
#547=ORIENTED_EDGE('',*,*,#150,.T.);
#548=ORIENTED_EDGE('',*,*,#90,.T.);
#549=CARTESIAN_POINT('',(0.0,0.0,-82.49));
#550=DIRECTION('',(-0.0,-0.0,1.0));
#551=DIRECTION('',(0.0,1.0,0.0));
#552=DIRECTION('',(4.27360083968808E-018,-0.0348977516436105,0.99939088795637));
#553=DIRECTION('',(1.22460547401549E-016,-0.999999281559432,-0.00119869955361529));
#554=SURFACE_STYLE_FILL_AREA(#588);
#555=ORIENTED_EDGE('',*,*,#118,.T.);
#556=ORIENTED_EDGE('',*,*,#116,.F.);
#557=ORIENTED_EDGE('',*,*,#154,.T.);
#558=CARTESIAN_POINT('',(0.0,0.0,-53.895));
#559=DIRECTION('',(-0.0,-0.0,1.0));
#560=DIRECTION('',(0.0,1.0,0.0));
#561=SURFACE_STYLE_FILL_AREA(#589);
#562=SURFACE_STYLE_FILL_AREA(#590);
#563=ORIENTED_EDGE('',*,*,#118,.F.);
#564=ORIENTED_EDGE('',*,*,#154,.F.);
#565=ORIENTED_EDGE('',*,*,#110,.F.);
#566=CARTESIAN_POINT('',(0.0,0.0,-53.895));
#567=DIRECTION('',(-0.0,-0.0,1.0));
#568=DIRECTION('',(0.0,1.0,0.0));
#569=SURFACE_STYLE_FILL_AREA(#591);
#570=ORIENTED_EDGE('',*,*,#114,.F.);
#571=ORIENTED_EDGE('',*,*,#92,.F.);
#572=CARTESIAN_POINT('',(0.0,3.73954194313172,0.0100000000000122));
#573=DIRECTION('',(-0.0,0.0,1.0));
#574=DIRECTION('',(0.0,-1.0,0.0));
#575=CARTESIAN_POINT('',(0.0,0.0,-111.09));
#576=DIRECTION('',(0.0,0.0,-1.0));
#577=DIRECTION('',(0.0,1.0,0.0));
#578=FILL_AREA_STYLE('',(#592));
#579=FILL_AREA_STYLE('',(#593));
#580=FILL_AREA_STYLE('',(#594));
#581=FILL_AREA_STYLE('',(#595));
#582=FILL_AREA_STYLE('',(#596));
#583=FILL_AREA_STYLE('',(#597));
#584=FILL_AREA_STYLE('',(#598));
#585=FILL_AREA_STYLE('',(#599));
#586=FILL_AREA_STYLE('',(#600));
#587=FILL_AREA_STYLE('',(#601));
#588=FILL_AREA_STYLE('',(#602));
#589=FILL_AREA_STYLE('',(#603));
#590=FILL_AREA_STYLE('',(#604));
#591=FILL_AREA_STYLE('',(#605));
#592=FILL_AREA_STYLE_COLOUR('',#606);
#593=FILL_AREA_STYLE_COLOUR('',#607);
#594=FILL_AREA_STYLE_COLOUR('',#608);
#595=FILL_AREA_STYLE_COLOUR('',#609);
#596=FILL_AREA_STYLE_COLOUR('',#610);
#597=FILL_AREA_STYLE_COLOUR('',#611);
#598=FILL_AREA_STYLE_COLOUR('',#612);
#599=FILL_AREA_STYLE_COLOUR('',#613);
#600=FILL_AREA_STYLE_COLOUR('',#614);
#601=FILL_AREA_STYLE_COLOUR('',#615);
#602=FILL_AREA_STYLE_COLOUR('',#616);
#603=FILL_AREA_STYLE_COLOUR('',#617);
#604=FILL_AREA_STYLE_COLOUR('',#618);
#605=FILL_AREA_STYLE_COLOUR('',#619);
#606=COLOUR_RGB('',0.498039215803146,0.498039215803146,0.498039215803146);
#607=COLOUR_RGB('',0.800000011920929,0.800000011920929,0.800000011920929);
#608=COLOUR_RGB('',0.800000011920929,0.800000011920929,0.800000011920929);
#609=COLOUR_RGB('',0.498039215803146,0.498039215803146,0.498039215803146);
#610=COLOUR_RGB('',0.800000011920929,0.800000011920929,0.800000011920929);
#611=COLOUR_RGB('',0.498039215803146,0.498039215803146,0.498039215803146);
#612=COLOUR_RGB('',0.800000011920929,0.800000011920929,0.800000011920929);
#613=COLOUR_RGB('',0.498039215803146,0.498039215803146,0.498039215803146);
#614=COLOUR_RGB('',0.498039215803146,0.498039215803146,0.498039215803146);
#615=COLOUR_RGB('',0.800000011920929,0.800000011920929,0.800000011920929);
#616=COLOUR_RGB('',0.800000011920929,0.800000011920929,0.800000011920929);
#617=COLOUR_RGB('',0.800000011920929,0.800000011920929,0.800000011920929);
#618=COLOUR_RGB('',0.800000011920929,0.800000011920929,0.800000011920929);
#619=COLOUR_RGB('',0.498039215803146,0.498039215803146,0.498039215803146);
#620=AXIS2_PLACEMENT_3D('PCS',#621,#622,#623);
#621=CARTESIAN_POINT('',(0.0,0.0,0.0));
#622=DIRECTION('',(0.0,0.0,1.0));
#623=DIRECTION('',(1.0,0.0,0.0));
#624=AXIS2_PLACEMENT_3D('CIP',#625,#626,#627);
#625=CARTESIAN_POINT('',(0.0,0.0,-111.1));
#626=DIRECTION('',(0.0,0.0,1.0));
#627=DIRECTION('',(1.0,0.0,0.0));
#628=AXIS2_PLACEMENT_3D('CRP',#629,#630,#631);
#629=CARTESIAN_POINT('',(-6.35,0.0,-111.1));
#630=DIRECTION('',(0.0,0.0,1.0));
#631=DIRECTION('',(1.0,0.0,0.0));
#632=AXIS2_PLACEMENT_3D('MCS',#633,#634,#635);
#633=CARTESIAN_POINT('',(0.0,0.0,-41.2));
#634=DIRECTION('',(0.0,0.0,1.0));
#635=DIRECTION('',(1.0,0.0,0.0));
#636=CONSTRUCTIVE_GEOMETRY_REPRESENTATION_RELATIONSHIP('coordinate systems',$,#65,#637);
#637=CONSTRUCTIVE_GEOMETRY_REPRESENTATION('coordinate systems',(#620,#624,#628,#632),#10);
ENDSEC;
END-ISO-10303-21;
