ISO-10303-21;
HEADER;
FILE_DESCRIPTION(('no description'),'unknown implementation level');
FILE_NAME('solidbO42SteITschctvn22TPPowI_rg_1.STP','  ',('CIMSOURCE GmbH'),('CADClick - KiM GmbH - www.kimweb.de'),'unknown preprocess','ACIS','unknown authorization');
FILE_SCHEMA(('automotive_design'));
ENDSEC;
DATA;
#1=MECHANICAL_DESIGN_GEOMETRIC_PRESENTATION_REPRESENTATION(' ',(#14,#15,#16,#17,#18,#19,#20,#21,#22,#23,#24,#25,#26,#27,#28,#29,#30,#31,#32,#33,#34,#35,#36,#37,#38,#39,#40,#41,#42,#43,#44,#45,#46,#47,#48,#49,#50,#51,#52,#53,#54,#55,#56,#57,#58,#59,#60),#10);
#2=PRODUCT_DEFINITION_CONTEXT('',#61,'design');
#3=APPLICATION_PROTOCOL_DEFINITION('INTERNATIONAL STANDARD','automotive_design',1994,#61);
#4=PRODUCT_CATEGORY_RELATIONSHIP('NONE','NONE',#62,#63);
#5=SHAPE_DEFINITION_REPRESENTATION(#64,#65);
#6=PRODUCT_DEFINITION_CONTEXT('',#66,'design');
#7=APPLICATION_PROTOCOL_DEFINITION('INTERNATIONAL STANDARD','automotive_design',1994,#66);
#8=PRODUCT_CATEGORY_RELATIONSHIP('NONE','NONE',#67,#68);
#9=SHAPE_DEFINITION_REPRESENTATION(#69,#70);
#10= (GEOMETRIC_REPRESENTATION_CONTEXT(3)GLOBAL_UNCERTAINTY_ASSIGNED_CONTEXT((#73))GLOBAL_UNIT_ASSIGNED_CONTEXT((#75,#76,#77))REPRESENTATION_CONTEXT('NONE','WORKSPACE'));
#14=STYLED_ITEM('',(#79),#80);
#15=STYLED_ITEM('',(#81),#82);
#16=STYLED_ITEM('',(#83),#84);
#17=STYLED_ITEM('',(#85),#86);
#18=STYLED_ITEM('',(#87),#88);
#19=STYLED_ITEM('',(#89),#90);
#20=STYLED_ITEM('',(#91),#92);
#21=STYLED_ITEM('',(#93),#94);
#22=STYLED_ITEM('',(#95),#96);
#23=STYLED_ITEM('',(#97),#98);
#24=STYLED_ITEM('',(#99),#100);
#25=STYLED_ITEM('',(#101),#102);
#26=STYLED_ITEM('',(#103),#104);
#27=STYLED_ITEM('',(#105),#106);
#28=STYLED_ITEM('',(#107),#108);
#29=STYLED_ITEM('',(#109),#110);
#30=STYLED_ITEM('',(#111),#112);
#31=STYLED_ITEM('',(#113),#114);
#32=STYLED_ITEM('',(#115),#116);
#33=STYLED_ITEM('',(#117),#118);
#34=STYLED_ITEM('',(#119),#120);
#35=STYLED_ITEM('',(#121),#122);
#36=STYLED_ITEM('',(#123),#124);
#37=STYLED_ITEM('',(#125),#126);
#38=STYLED_ITEM('',(#127),#128);
#39=STYLED_ITEM('',(#129),#130);
#40=STYLED_ITEM('',(#131),#132);
#41=STYLED_ITEM('',(#133),#134);
#42=STYLED_ITEM('',(#135),#136);
#43=STYLED_ITEM('',(#137),#138);
#44=STYLED_ITEM('',(#139),#140);
#45=STYLED_ITEM('',(#141),#142);
#46=STYLED_ITEM('',(#143),#144);
#47=STYLED_ITEM('',(#145),#146);
#48=STYLED_ITEM('',(#147),#148);
#49=STYLED_ITEM('',(#149),#150);
#50=STYLED_ITEM('',(#151),#152);
#51=STYLED_ITEM('',(#153),#154);
#52=STYLED_ITEM('',(#155),#156);
#53=STYLED_ITEM('',(#157),#158);
#54=STYLED_ITEM('',(#159),#160);
#55=STYLED_ITEM('',(#161),#162);
#56=STYLED_ITEM('',(#163),#164);
#57=STYLED_ITEM('',(#165),#166);
#58=STYLED_ITEM('',(#167),#168);
#59=STYLED_ITEM('',(#169),#170);
#60=STYLED_ITEM('',(#171),#172);
#61=APPLICATION_CONTEXT(' ');
#62=PRODUCT_CATEGORY('part','NONE');
#63=PRODUCT_RELATED_PRODUCT_CATEGORY('detail',' ',(#173));
#64=PRODUCT_DEFINITION_SHAPE('NONE','NONE',#174);
#65=ADVANCED_BREP_SHAPE_REPRESENTATION('1',(#144,#175),#10);
#66=APPLICATION_CONTEXT(' ');
#67=PRODUCT_CATEGORY('part','NONE');
#68=PRODUCT_RELATED_PRODUCT_CATEGORY('detail',' ',(#176));
#69=PRODUCT_DEFINITION_SHAPE('NONE','NONE',#177);
#70=ADVANCED_BREP_SHAPE_REPRESENTATION('2',(#114,#178),#10);
#73=UNCERTAINTY_MEASURE_WITH_UNIT(LENGTH_MEASURE(1.0E-006),#75,'','');
#75= (CONVERSION_BASED_UNIT('MILLIMETRE',#181)LENGTH_UNIT()NAMED_UNIT(#184));
#76= (NAMED_UNIT(#186)PLANE_ANGLE_UNIT()SI_UNIT($,.RADIAN.));
#77= (NAMED_UNIT(#186)SOLID_ANGLE_UNIT()SI_UNIT($,.STERADIAN.));
#79=PRESENTATION_STYLE_ASSIGNMENT((#192));
#80=EDGE_CURVE('',#112,#160,#193,.T.);
#81=PRESENTATION_STYLE_ASSIGNMENT((#194));
#82=VERTEX_POINT('',#195);
#83=PRESENTATION_STYLE_ASSIGNMENT((#196));
#84=EDGE_CURVE('',#160,#112,#197,.T.);
#85=PRESENTATION_STYLE_ASSIGNMENT((#198));
#86=ADVANCED_FACE('',(#199),#200,.F.);
#87=PRESENTATION_STYLE_ASSIGNMENT((#201));
#88=EDGE_CURVE('',#104,#96,#202,.T.);
#89=PRESENTATION_STYLE_ASSIGNMENT((#203));
#90=ADVANCED_FACE('',(#204),#205,.T.);
#91=PRESENTATION_STYLE_ASSIGNMENT((#206));
#92=ADVANCED_FACE('',(#207),#208,.F.);
#93=PRESENTATION_STYLE_ASSIGNMENT((#209));
#94=EDGE_CURVE('',#166,#100,#210,.T.);
#95=PRESENTATION_STYLE_ASSIGNMENT((#211));
#96=VERTEX_POINT('',#212);
#97=PRESENTATION_STYLE_ASSIGNMENT((#213));
#98=EDGE_CURVE('',#116,#82,#214,.T.);
#99=PRESENTATION_STYLE_ASSIGNMENT((#215));
#100=VERTEX_POINT('',#216);
#101=PRESENTATION_STYLE_ASSIGNMENT((#217));
#102=EDGE_CURVE('',#82,#158,#218,.T.);
#103=PRESENTATION_STYLE_ASSIGNMENT((#219));
#104=VERTEX_POINT('',#220);
#105=PRESENTATION_STYLE_ASSIGNMENT((#221));
#106=ADVANCED_FACE('',(#222),#223,.T.);
#107=PRESENTATION_STYLE_ASSIGNMENT((#224));
#108=VERTEX_POINT('',#225);
#109=PRESENTATION_STYLE_ASSIGNMENT((#226));
#110=ADVANCED_FACE('',(#227),#228,.T.);
#111=PRESENTATION_STYLE_ASSIGNMENT((#229));
#112=VERTEX_POINT('',#230);
#113=PRESENTATION_STYLE_ASSIGNMENT((#231));
#114=MANIFOLD_SOLID_BREP('2',#232);
#115=PRESENTATION_STYLE_ASSIGNMENT((#233));
#116=VERTEX_POINT('',#234);
#117=PRESENTATION_STYLE_ASSIGNMENT((#235));
#118=ADVANCED_FACE('',(#236,#237),#238,.T.);
#119=PRESENTATION_STYLE_ASSIGNMENT((#239));
#120=EDGE_CURVE('',#108,#116,#240,.T.);
#121=PRESENTATION_STYLE_ASSIGNMENT((#241));
#122=EDGE_CURVE('',#96,#104,#242,.T.);
#123=PRESENTATION_STYLE_ASSIGNMENT((#243));
#124=EDGE_CURVE('',#126,#100,#244,.T.);
#125=PRESENTATION_STYLE_ASSIGNMENT((#245));
#126=VERTEX_POINT('',#246);
#127=PRESENTATION_STYLE_ASSIGNMENT((#247));
#128=ADVANCED_FACE('',(#248),#249,.T.);
#129=PRESENTATION_STYLE_ASSIGNMENT((#250));
#130=EDGE_CURVE('',#116,#112,#251,.T.);
#131=PRESENTATION_STYLE_ASSIGNMENT((#252));
#132=EDGE_CURVE('',#160,#82,#253,.T.);
#133=PRESENTATION_STYLE_ASSIGNMENT((#254));
#134=VERTEX_POINT('',#255);
#135=PRESENTATION_STYLE_ASSIGNMENT((#256));
#136=ADVANCED_FACE('',(#257),#258,.T.);
#137=PRESENTATION_STYLE_ASSIGNMENT((#259));
#138=EDGE_CURVE('',#134,#126,#260,.T.);
#139=PRESENTATION_STYLE_ASSIGNMENT((#261));
#140=EDGE_CURVE('',#168,#96,#262,.T.);
#141=PRESENTATION_STYLE_ASSIGNMENT((#263));
#142=EDGE_CURVE('',#158,#108,#264,.T.);
#143=PRESENTATION_STYLE_ASSIGNMENT((#265));
#144=MANIFOLD_SOLID_BREP('1',#266);
#145=PRESENTATION_STYLE_ASSIGNMENT((#267));
#146=ADVANCED_FACE('',(#268),#269,.T.);
#147=PRESENTATION_STYLE_ASSIGNMENT((#270));
#148=ADVANCED_FACE('',(#271),#272,.T.);
#149=PRESENTATION_STYLE_ASSIGNMENT((#273));
#150=EDGE_CURVE('',#82,#116,#274,.T.);
#151=PRESENTATION_STYLE_ASSIGNMENT((#275));
#152=EDGE_CURVE('',#108,#158,#276,.T.);
#153=PRESENTATION_STYLE_ASSIGNMENT((#277));
#154=EDGE_CURVE('',#166,#134,#278,.T.);
#155=PRESENTATION_STYLE_ASSIGNMENT((#279));
#156=EDGE_CURVE('',#104,#168,#280,.T.);
#157=PRESENTATION_STYLE_ASSIGNMENT((#281));
#158=VERTEX_POINT('',#282);
#159=PRESENTATION_STYLE_ASSIGNMENT((#283));
#160=VERTEX_POINT('',#284);
#161=PRESENTATION_STYLE_ASSIGNMENT((#285));
#162=EDGE_CURVE('',#100,#166,#286,.T.);
#163=PRESENTATION_STYLE_ASSIGNMENT((#287));
#164=ADVANCED_FACE('',(#288),#289,.T.);
#165=PRESENTATION_STYLE_ASSIGNMENT((#290));
#166=VERTEX_POINT('',#291);
#167=PRESENTATION_STYLE_ASSIGNMENT((#292));
#168=VERTEX_POINT('',#293);
#169=PRESENTATION_STYLE_ASSIGNMENT((#294));
#170=ADVANCED_FACE('',(#295),#296,.T.);
#171=PRESENTATION_STYLE_ASSIGNMENT((#297));
#172=EDGE_CURVE('',#126,#134,#298,.T.);
#173=PRODUCT('1','1','PART-1-DESC',(#299));
#174=PRODUCT_DEFINITION('NONE','NONE',#300,#2);
#175=AXIS2_PLACEMENT_3D('',#301,#302,#303);
#176=PRODUCT('2','2','PART-2-DESC',(#304));
#177=PRODUCT_DEFINITION('NONE','NONE',#305,#6);
#178=AXIS2_PLACEMENT_3D('',#306,#307,#308);
#181=LENGTH_MEASURE_WITH_UNIT(LENGTH_MEASURE(1.0),#309);
#184=DIMENSIONAL_EXPONENTS(1.0,0.0,0.0,0.0,0.0,0.0,0.0);
#186=DIMENSIONAL_EXPONENTS(0.0,0.0,0.0,0.0,0.0,0.0,0.0);
#192=CURVE_STYLE('',#310,POSITIVE_LENGTH_MEASURE(1.0E-006),#311);
#193=CIRCLE('',#312,6.35);
#194=POINT_STYLE(' ',#313,POSITIVE_LENGTH_MEASURE(1.0E-006),#314);
#195=CARTESIAN_POINT('',(7.7762503467721E-016,-6.35,-0.783999999999999));
#196=CURVE_STYLE('',#315,POSITIVE_LENGTH_MEASURE(1.0E-006),#316);
#197=CIRCLE('',#317,6.35);
#198=SURFACE_STYLE_USAGE(.BOTH.,#318);
#199=FACE_OUTER_BOUND('',#319,.T.);
#200=CONICAL_SURFACE('',#320,3.74939128438961,1.56946277778471);
#201=CURVE_STYLE('',#321,POSITIVE_LENGTH_MEASURE(1.0E-006),#322);
#202=CIRCLE('',#323,7.49878256877921);
#203=SURFACE_STYLE_USAGE(.BOTH.,#324);
#204=FACE_OUTER_BOUND('',#325,.T.);
#205=CYLINDRICAL_SURFACE('',#326,6.35);
#206=SURFACE_STYLE_USAGE(.BOTH.,#327);
#207=FACE_OUTER_BOUND('',#328,.T.);
#208=CONICAL_SURFACE('',#329,3.74939128438961,1.56946277778471);
#209=CURVE_STYLE('',#330,POSITIVE_LENGTH_MEASURE(1.0E-006),#331);
#210=CIRCLE('',#332,7.50378256877921);
#211=POINT_STYLE(' ',#333,POSITIVE_LENGTH_MEASURE(1.0E-006),#334);
#212=CARTESIAN_POINT('',(9.18305677965951E-016,-7.49878256877921,-50.79));
#213=CURVE_STYLE('',#335,POSITIVE_LENGTH_MEASURE(1.0E-006),#336);
#214=CIRCLE('',#337,6.35);
#215=POINT_STYLE(' ',#338,POSITIVE_LENGTH_MEASURE(1.0E-006),#339);
#216=CARTESIAN_POINT('',(9.18917981142862E-016,-7.50378256877921,-50.79));
#217=CURVE_STYLE('',#340,POSITIVE_LENGTH_MEASURE(1.0E-006),#341);
#218=LINE('',#342,#343);
#219=POINT_STYLE(' ',#344,POSITIVE_LENGTH_MEASURE(1.0E-006),#345);
#220=CARTESIAN_POINT('',(0.0,7.49878256877921,-50.79));
#221=SURFACE_STYLE_USAGE(.BOTH.,#346);
#222=FACE_OUTER_BOUND('',#347,.T.);
#223=CYLINDRICAL_SURFACE('',#348,6.35);
#224=POINT_STYLE(' ',#349,POSITIVE_LENGTH_MEASURE(1.0E-006),#350);
#225=CARTESIAN_POINT('',(0.0,5.89158388626344,0.00999999999999801));
#226=SURFACE_STYLE_USAGE(.BOTH.,#351);
#227=FACE_OUTER_BOUND('',#352,.T.);
#228=CONICAL_SURFACE('',#353,5.33939128438961,0.0523586702220446);
#229=POINT_STYLE(' ',#354,POSITIVE_LENGTH_MEASURE(1.0E-006),#355);
#230=CARTESIAN_POINT('',(-7.7762503467721E-016,6.35,-50.79));
#231=SURFACE_STYLE_USAGE(.BOTH.,#356);
#232=CLOSED_SHELL('',(#106,#164,#136,#128,#146,#90));
#233=POINT_STYLE(' ',#357,POSITIVE_LENGTH_MEASURE(1.0E-006),#358);
#234=CARTESIAN_POINT('',(0.0,6.35,-0.783999999999999));
#235=SURFACE_STYLE_USAGE(.BOTH.,#359);
#236=FACE_OUTER_BOUND('',#360,.T.);
#237=FACE_BOUND('',#361,.T.);
#238=PLANE('',#362);
#239=CURVE_STYLE('',#363,POSITIVE_LENGTH_MEASURE(1.0E-006),#364);
#240=LINE('',#365,#366);
#241=CURVE_STYLE('',#367,POSITIVE_LENGTH_MEASURE(1.0E-006),#368);
#242=CIRCLE('',#369,7.49878256877921);
#243=CURVE_STYLE('',#370,POSITIVE_LENGTH_MEASURE(1.0E-006),#371);
#244=LINE('',#372,#373);
#245=POINT_STYLE(' ',#374,POSITIVE_LENGTH_MEASURE(1.0E-006),#375);
#246=CARTESIAN_POINT('',(3.88812517338605E-016,-3.175,-133.39));
#247=SURFACE_STYLE_USAGE(.BOTH.,#376);
#248=FACE_OUTER_BOUND('',#377,.T.);
#249=PLANE('',#378);
#250=CURVE_STYLE('',#379,POSITIVE_LENGTH_MEASURE(1.0E-006),#380);
#251=LINE('',#381,#382);
#252=CURVE_STYLE('',#383,POSITIVE_LENGTH_MEASURE(1.0E-006),#384);
#253=LINE('',#385,#386);
#254=POINT_STYLE(' ',#387,POSITIVE_LENGTH_MEASURE(1.0E-006),#388);
#255=CARTESIAN_POINT('',(0.0,3.175,-133.39));
#256=SURFACE_STYLE_USAGE(.BOTH.,#389);
#257=FACE_OUTER_BOUND('',#390,.T.);
#258=PLANE('',#391);
#259=CURVE_STYLE('',#392,POSITIVE_LENGTH_MEASURE(1.0E-006),#393);
#260=CIRCLE('',#394,3.175);
#261=CURVE_STYLE('',#395,POSITIVE_LENGTH_MEASURE(1.0E-006),#396);
#262=LINE('',#397,#398);
#263=CURVE_STYLE('',#399,POSITIVE_LENGTH_MEASURE(1.0E-006),#400);
#264=CIRCLE('',#401,5.89158388626344);
#265=SURFACE_STYLE_USAGE(.BOTH.,#402);
#266=CLOSED_SHELL('',(#148,#86,#92,#118,#110,#170));
#267=SURFACE_STYLE_USAGE(.BOTH.,#403);
#268=FACE_OUTER_BOUND('',#404,.T.);
#269=CONICAL_SURFACE('',#405,6.12079194313172,0.523598775598301);
#270=SURFACE_STYLE_USAGE(.BOTH.,#406);
#271=FACE_OUTER_BOUND('',#407,.T.);
#272=CONICAL_SURFACE('',#408,5.33939128438961,0.0523586702220446);
#273=CURVE_STYLE('',#409,POSITIVE_LENGTH_MEASURE(1.0E-006),#410);
#274=CIRCLE('',#411,6.35);
#275=CURVE_STYLE('',#412,POSITIVE_LENGTH_MEASURE(1.0E-006),#413);
#276=CIRCLE('',#414,5.89158388626344);
#277=CURVE_STYLE('',#415,POSITIVE_LENGTH_MEASURE(1.0E-006),#416);
#278=LINE('',#417,#418);
#279=CURVE_STYLE('',#419,POSITIVE_LENGTH_MEASURE(1.0E-006),#420);
#280=LINE('',#421,#422);
#281=POINT_STYLE(' ',#423,POSITIVE_LENGTH_MEASURE(1.0E-006),#424);
#282=CARTESIAN_POINT('',(7.21487106119574E-016,-5.89158388626344,0.00999999999999801));
#283=POINT_STYLE(' ',#425,POSITIVE_LENGTH_MEASURE(1.0E-006),#426);
#284=CARTESIAN_POINT('',(0.0,-6.35,-50.79));
#285=CURVE_STYLE('',#427,POSITIVE_LENGTH_MEASURE(1.0E-006),#428);
#286=CIRCLE('',#429,7.50378256877921);
#287=SURFACE_STYLE_USAGE(.BOTH.,#430);
#288=FACE_OUTER_BOUND('',#431,.T.);
#289=CONICAL_SURFACE('',#432,6.12079194313172,0.523598775598301);
#290=POINT_STYLE(' ',#433,POSITIVE_LENGTH_MEASURE(1.0E-006),#434);
#291=CARTESIAN_POINT('',(0.0,7.50378256877921,-50.79));
#292=POINT_STYLE(' ',#435,POSITIVE_LENGTH_MEASURE(1.0E-006),#436);
#293=CARTESIAN_POINT('',(0.0,0.0,-50.8));
#294=SURFACE_STYLE_USAGE(.BOTH.,#437);
#295=FACE_OUTER_BOUND('',#438,.T.);
#296=PLANE('',#439);
#297=CURVE_STYLE('',#440,POSITIVE_LENGTH_MEASURE(1.0E-006),#441);
#298=CIRCLE('',#442,3.175);
#299=PRODUCT_CONTEXT('',#61,'mechanical');
#300=PRODUCT_DEFINITION_FORMATION_WITH_SPECIFIED_SOURCE(' ','NONE',#173,.NOT_KNOWN.);
#301=CARTESIAN_POINT('',(0.0,0.0,0.0));
#302=DIRECTION('',(0.0,0.0,1.0));
#303=DIRECTION('',(1.0,0.0,0.0));
#304=PRODUCT_CONTEXT('',#66,'mechanical');
#305=PRODUCT_DEFINITION_FORMATION_WITH_SPECIFIED_SOURCE(' ','NONE',#176,.NOT_KNOWN.);
#306=CARTESIAN_POINT('',(0.0,0.0,0.0));
#307=DIRECTION('',(0.0,0.0,1.0));
#308=DIRECTION('',(1.0,0.0,0.0));
#309= (NAMED_UNIT(#184)LENGTH_UNIT()SI_UNIT(.MILLI.,.METRE.));
#310=DRAUGHTING_PRE_DEFINED_CURVE_FONT('continuous');
#311=COLOUR_RGB('',0.498039215803146,0.498039215803146,0.498039215803146);
#312=AXIS2_PLACEMENT_3D('',#444,#445,#446);
#313=PRE_DEFINED_MARKER('');
#314=COLOUR_RGB('',0.498039215803146,0.498039215803146,0.498039215803146);
#315=DRAUGHTING_PRE_DEFINED_CURVE_FONT('continuous');
#316=COLOUR_RGB('',0.498039215803146,0.498039215803146,0.498039215803146);
#317=AXIS2_PLACEMENT_3D('',#447,#448,#449);
#318=SURFACE_SIDE_STYLE('',(#450));
#319=EDGE_LOOP('',(#451,#452,#453));
#320=AXIS2_PLACEMENT_3D('',#454,#455,#456);
#321=DRAUGHTING_PRE_DEFINED_CURVE_FONT('continuous');
#322=COLOUR_RGB('',0.800000011920929,0.800000011920929,0.800000011920929);
#323=AXIS2_PLACEMENT_3D('',#457,#458,#459);
#324=SURFACE_SIDE_STYLE('',(#460));
#325=EDGE_LOOP('',(#461,#462,#463,#464));
#326=AXIS2_PLACEMENT_3D('',#465,#466,#467);
#327=SURFACE_SIDE_STYLE('',(#468));
#328=EDGE_LOOP('',(#469,#470,#471));
#329=AXIS2_PLACEMENT_3D('',#472,#473,#474);
#330=DRAUGHTING_PRE_DEFINED_CURVE_FONT('continuous');
#331=COLOUR_RGB('',0.800000011920929,0.800000011920929,0.800000011920929);
#332=AXIS2_PLACEMENT_3D('',#475,#476,#477);
#333=PRE_DEFINED_MARKER('');
#334=COLOUR_RGB('',0.800000011920929,0.800000011920929,0.800000011920929);
#335=DRAUGHTING_PRE_DEFINED_CURVE_FONT('continuous');
#336=COLOUR_RGB('',0.498039215803146,0.498039215803146,0.498039215803146);
#337=AXIS2_PLACEMENT_3D('',#478,#479,#480);
#338=PRE_DEFINED_MARKER('');
#339=COLOUR_RGB('',0.800000011920929,0.800000011920929,0.800000011920929);
#340=DRAUGHTING_PRE_DEFINED_CURVE_FONT('continuous');
#341=COLOUR_RGB('',0.498039215803146,0.498039215803146,0.498039215803146);
#342=CARTESIAN_POINT('',(7.49556070398392E-016,-6.12079194313172,-0.387));
#343=VECTOR('',#481,1.0);
#344=PRE_DEFINED_MARKER('');
#345=COLOUR_RGB('',0.800000011920929,0.800000011920929,0.800000011920929);
#346=SURFACE_SIDE_STYLE('',(#482));
#347=EDGE_LOOP('',(#483,#484,#485,#486));
#348=AXIS2_PLACEMENT_3D('',#487,#488,#489);
#349=PRE_DEFINED_MARKER('');
#350=COLOUR_RGB('',0.498039215803146,0.498039215803146,0.498039215803146);
#351=SURFACE_SIDE_STYLE('',(#490));
#352=EDGE_LOOP('',(#491,#492,#493,#494));
#353=AXIS2_PLACEMENT_3D('',#495,#496,#497);
#354=PRE_DEFINED_MARKER('');
#355=COLOUR_RGB('',0.498039215803146,0.498039215803146,0.498039215803146);
#356=SURFACE_SIDE_STYLE('',(#498));
#357=PRE_DEFINED_MARKER('');
#358=COLOUR_RGB('',0.498039215803146,0.498039215803146,0.498039215803146);
#359=SURFACE_SIDE_STYLE('',(#499));
#360=EDGE_LOOP('',(#500,#501));
#361=EDGE_LOOP('',(#502,#503));
#362=AXIS2_PLACEMENT_3D('',#504,#505,#506);
#363=DRAUGHTING_PRE_DEFINED_CURVE_FONT('continuous');
#364=COLOUR_RGB('',0.498039215803146,0.498039215803146,0.498039215803146);
#365=CARTESIAN_POINT('',(-7.49556070398392E-016,6.12079194313172,-0.387));
#366=VECTOR('',#507,1.0);
#367=DRAUGHTING_PRE_DEFINED_CURVE_FONT('continuous');
#368=COLOUR_RGB('',0.800000011920929,0.800000011920929,0.800000011920929);
#369=AXIS2_PLACEMENT_3D('',#508,#509,#510);
#370=DRAUGHTING_PRE_DEFINED_CURVE_FONT('continuous');
#371=COLOUR_RGB('',0.800000011920929,0.800000011920929,0.800000011920929);
#372=CARTESIAN_POINT('',(6.53865249240733E-016,-5.33939128438961,-92.09));
#373=VECTOR('',#511,1.0);
#374=PRE_DEFINED_MARKER('');
#375=COLOUR_RGB('',0.800000011920929,0.800000011920929,0.800000011920929);
#376=SURFACE_SIDE_STYLE('',(#512));
#377=EDGE_LOOP('',(#513,#514));
#378=AXIS2_PLACEMENT_3D('',#515,#516,#517);
#379=DRAUGHTING_PRE_DEFINED_CURVE_FONT('continuous');
#380=COLOUR_RGB('',0.498039215803146,0.498039215803146,0.498039215803146);
#381=CARTESIAN_POINT('',(-7.7762503467721E-016,6.35,-22.612));
#382=VECTOR('',#518,1.0);
#383=DRAUGHTING_PRE_DEFINED_CURVE_FONT('continuous');
#384=COLOUR_RGB('',0.498039215803146,0.498039215803146,0.498039215803146);
#385=CARTESIAN_POINT('',(7.7762503467721E-016,-6.35,-22.612));
#386=VECTOR('',#519,1.0);
#387=PRE_DEFINED_MARKER('');
#388=COLOUR_RGB('',0.800000011920929,0.800000011920929,0.800000011920929);
#389=SURFACE_SIDE_STYLE('',(#520));
#390=EDGE_LOOP('',(#521,#522));
#391=AXIS2_PLACEMENT_3D('',#523,#524,#525);
#392=DRAUGHTING_PRE_DEFINED_CURVE_FONT('continuous');
#393=COLOUR_RGB('',0.800000011920929,0.800000011920929,0.800000011920929);
#394=AXIS2_PLACEMENT_3D('',#526,#527,#528);
#395=DRAUGHTING_PRE_DEFINED_CURVE_FONT('continuous');
#396=COLOUR_RGB('',0.800000011920929,0.800000011920929,0.800000011920929);
#397=CARTESIAN_POINT('',(4.59152838982976E-016,-3.74939128438961,-50.795));
#398=VECTOR('',#529,1.0);
#399=DRAUGHTING_PRE_DEFINED_CURVE_FONT('continuous');
#400=COLOUR_RGB('',0.498039215803146,0.498039215803146,0.498039215803146);
#401=AXIS2_PLACEMENT_3D('',#530,#531,#532);
#402=SURFACE_SIDE_STYLE('',(#533));
#403=SURFACE_SIDE_STYLE('',(#534));
#404=EDGE_LOOP('',(#535,#536,#537,#538));
#405=AXIS2_PLACEMENT_3D('',#539,#540,#541);
#406=SURFACE_SIDE_STYLE('',(#542));
#407=EDGE_LOOP('',(#543,#544,#545,#546));
#408=AXIS2_PLACEMENT_3D('',#547,#548,#549);
#409=DRAUGHTING_PRE_DEFINED_CURVE_FONT('continuous');
#410=COLOUR_RGB('',0.498039215803146,0.498039215803146,0.498039215803146);
#411=AXIS2_PLACEMENT_3D('',#550,#551,#552);
#412=DRAUGHTING_PRE_DEFINED_CURVE_FONT('continuous');
#413=COLOUR_RGB('',0.498039215803146,0.498039215803146,0.498039215803146);
#414=AXIS2_PLACEMENT_3D('',#553,#554,#555);
#415=DRAUGHTING_PRE_DEFINED_CURVE_FONT('continuous');
#416=COLOUR_RGB('',0.800000011920929,0.800000011920929,0.800000011920929);
#417=CARTESIAN_POINT('',(-6.53865249240733E-016,5.33939128438961,-92.09));
#418=VECTOR('',#556,1.0);
#419=DRAUGHTING_PRE_DEFINED_CURVE_FONT('continuous');
#420=COLOUR_RGB('',0.800000011920929,0.800000011920929,0.800000011920929);
#421=CARTESIAN_POINT('',(-4.59152838982976E-016,3.74939128438961,-50.795));
#422=VECTOR('',#557,1.0);
#423=PRE_DEFINED_MARKER('');
#424=COLOUR_RGB('',0.498039215803146,0.498039215803146,0.498039215803146);
#425=PRE_DEFINED_MARKER('');
#426=COLOUR_RGB('',0.498039215803146,0.498039215803146,0.498039215803146);
#427=DRAUGHTING_PRE_DEFINED_CURVE_FONT('continuous');
#428=COLOUR_RGB('',0.800000011920929,0.800000011920929,0.800000011920929);
#429=AXIS2_PLACEMENT_3D('',#558,#559,#560);
#430=SURFACE_SIDE_STYLE('',(#561));
#431=EDGE_LOOP('',(#562,#563,#564,#565));
#432=AXIS2_PLACEMENT_3D('',#566,#567,#568);
#433=PRE_DEFINED_MARKER('');
#434=COLOUR_RGB('',0.800000011920929,0.800000011920929,0.800000011920929);
#435=PRE_DEFINED_MARKER('');
#436=COLOUR_RGB('',0.800000011920929,0.800000011920929,0.800000011920929);
#437=SURFACE_SIDE_STYLE('',(#569));
#438=EDGE_LOOP('',(#570,#571));
#439=AXIS2_PLACEMENT_3D('',#572,#573,#574);
#440=DRAUGHTING_PRE_DEFINED_CURVE_FONT('continuous');
#441=COLOUR_RGB('',0.800000011920929,0.800000011920929,0.800000011920929);
#442=AXIS2_PLACEMENT_3D('',#575,#576,#577);
#444=CARTESIAN_POINT('',(0.0,0.0,-50.79));
#445=DIRECTION('',(0.0,0.0,-1.0));
#446=DIRECTION('',(0.0,-1.0,0.0));
#447=CARTESIAN_POINT('',(0.0,0.0,-50.79));
#448=DIRECTION('',(0.0,0.0,-1.0));
#449=DIRECTION('',(0.0,-1.0,0.0));
#450=SURFACE_STYLE_FILL_AREA(#578);
#451=ORIENTED_EDGE('',*,*,#140,.F.);
#452=ORIENTED_EDGE('',*,*,#156,.F.);
#453=ORIENTED_EDGE('',*,*,#122,.F.);
#454=CARTESIAN_POINT('',(0.0,0.0,-50.795));
#455=DIRECTION('',(-0.0,-0.0,1.0));
#456=DIRECTION('',(0.0,1.0,0.0));
#457=CARTESIAN_POINT('',(0.0,0.0,-50.79));
#458=DIRECTION('',(0.0,0.0,-1.0));
#459=DIRECTION('',(0.0,1.0,0.0));
#460=SURFACE_STYLE_FILL_AREA(#579);
#461=ORIENTED_EDGE('',*,*,#130,.T.);
#462=ORIENTED_EDGE('',*,*,#84,.F.);
#463=ORIENTED_EDGE('',*,*,#132,.T.);
#464=ORIENTED_EDGE('',*,*,#150,.T.);
#465=CARTESIAN_POINT('',(0.0,0.0,-22.612));
#466=DIRECTION('',(-0.0,-0.0,1.0));
#467=DIRECTION('',(0.0,1.0,0.0));
#468=SURFACE_STYLE_FILL_AREA(#580);
#469=ORIENTED_EDGE('',*,*,#140,.T.);
#470=ORIENTED_EDGE('',*,*,#88,.F.);
#471=ORIENTED_EDGE('',*,*,#156,.T.);
#472=CARTESIAN_POINT('',(0.0,0.0,-50.795));
#473=DIRECTION('',(-0.0,-0.0,1.0));
#474=DIRECTION('',(0.0,1.0,0.0));
#475=CARTESIAN_POINT('',(0.0,0.0,-50.79));
#476=DIRECTION('',(0.0,0.0,-1.0));
#477=DIRECTION('',(0.0,1.0,0.0));
#478=CARTESIAN_POINT('',(0.0,0.0,-0.783999999999999));
#479=DIRECTION('',(0.0,0.0,-1.0));
#480=DIRECTION('',(0.0,1.0,0.0));
#481=DIRECTION('',(-6.12303176911191E-017,0.500000000000002,0.866025403784438));
#482=SURFACE_STYLE_FILL_AREA(#581);
#483=ORIENTED_EDGE('',*,*,#130,.F.);
#484=ORIENTED_EDGE('',*,*,#98,.T.);
#485=ORIENTED_EDGE('',*,*,#132,.F.);
#486=ORIENTED_EDGE('',*,*,#80,.F.);
#487=CARTESIAN_POINT('',(0.0,0.0,-22.612));
#488=DIRECTION('',(-0.0,-0.0,1.0));
#489=DIRECTION('',(0.0,1.0,0.0));
#490=SURFACE_STYLE_FILL_AREA(#582);
#491=ORIENTED_EDGE('',*,*,#154,.T.);
#492=ORIENTED_EDGE('',*,*,#172,.F.);
#493=ORIENTED_EDGE('',*,*,#124,.T.);
#494=ORIENTED_EDGE('',*,*,#162,.T.);
#495=CARTESIAN_POINT('',(0.0,0.0,-92.09));
#496=DIRECTION('',(-0.0,-0.0,1.0));
#497=DIRECTION('',(0.0,1.0,0.0));
#498=SURFACE_STYLE_FILL_AREA(#583);
#499=SURFACE_STYLE_FILL_AREA(#584);
#500=ORIENTED_EDGE('',*,*,#94,.F.);
#501=ORIENTED_EDGE('',*,*,#162,.F.);
#502=ORIENTED_EDGE('',*,*,#88,.T.);
#503=ORIENTED_EDGE('',*,*,#122,.T.);
#504=CARTESIAN_POINT('',(0.0,7.50128256877921,-50.79));
#505=DIRECTION('',(-0.0,0.0,1.0));
#506=DIRECTION('',(0.0,-1.0,0.0));
#507=DIRECTION('',(-6.12303176911191E-017,0.500000000000002,-0.866025403784438));
#508=CARTESIAN_POINT('',(0.0,0.0,-50.79));
#509=DIRECTION('',(0.0,0.0,-1.0));
#510=DIRECTION('',(0.0,1.0,0.0));
#511=DIRECTION('',(6.40894680611605E-018,-0.0523347505597348,0.998629597941024));
#512=SURFACE_STYLE_FILL_AREA(#585);
#513=ORIENTED_EDGE('',*,*,#152,.F.);
#514=ORIENTED_EDGE('',*,*,#142,.F.);
#515=CARTESIAN_POINT('',(0.0,2.94579194313172,0.00999999999999801));
#516=DIRECTION('',(-0.0,0.0,1.0));
#517=DIRECTION('',(0.0,-1.0,0.0));
#518=DIRECTION('',(0.0,0.0,-1.0));
#519=DIRECTION('',(-0.0,-0.0,1.0));
#520=SURFACE_STYLE_FILL_AREA(#586);
#521=ORIENTED_EDGE('',*,*,#84,.T.);
#522=ORIENTED_EDGE('',*,*,#80,.T.);
#523=CARTESIAN_POINT('',(0.0,0.0,-50.79));
#524=DIRECTION('',(0.0,0.0,-1.0));
#525=DIRECTION('',(0.0,-1.0,0.0));
#526=CARTESIAN_POINT('',(0.0,0.0,-133.39));
#527=DIRECTION('',(0.0,0.0,-1.0));
#528=DIRECTION('',(0.0,1.0,0.0));
#529=DIRECTION('',(1.22460526493137E-016,-0.999999110823651,0.00133354861492674));
#530=CARTESIAN_POINT('',(0.0,0.0,0.00999999999999801));
#531=DIRECTION('',(0.0,0.0,-1.0));
#532=DIRECTION('',(0.0,1.0,0.0));
#533=SURFACE_STYLE_FILL_AREA(#587);
#534=SURFACE_STYLE_FILL_AREA(#588);
#535=ORIENTED_EDGE('',*,*,#120,.T.);
#536=ORIENTED_EDGE('',*,*,#150,.F.);
#537=ORIENTED_EDGE('',*,*,#102,.T.);
#538=ORIENTED_EDGE('',*,*,#142,.T.);
#539=CARTESIAN_POINT('',(0.0,0.0,-0.387));
#540=DIRECTION('',(0.0,-0.0,-1.0));
#541=DIRECTION('',(0.0,1.0,0.0));
#542=SURFACE_STYLE_FILL_AREA(#589);
#543=ORIENTED_EDGE('',*,*,#154,.F.);
#544=ORIENTED_EDGE('',*,*,#94,.T.);
#545=ORIENTED_EDGE('',*,*,#124,.F.);
#546=ORIENTED_EDGE('',*,*,#138,.F.);
#547=CARTESIAN_POINT('',(0.0,0.0,-92.09));
#548=DIRECTION('',(-0.0,-0.0,1.0));
#549=DIRECTION('',(0.0,1.0,0.0));
#550=CARTESIAN_POINT('',(0.0,0.0,-0.783999999999999));
#551=DIRECTION('',(0.0,0.0,-1.0));
#552=DIRECTION('',(0.0,1.0,0.0));
#553=CARTESIAN_POINT('',(0.0,0.0,0.00999999999999801));
#554=DIRECTION('',(0.0,0.0,-1.0));
#555=DIRECTION('',(0.0,1.0,0.0));
#556=DIRECTION('',(6.40894680611605E-018,-0.0523347505597348,-0.998629597941024));
#557=DIRECTION('',(1.22460526493137E-016,-0.999999110823651,-0.00133354861492674));
#558=CARTESIAN_POINT('',(0.0,0.0,-50.79));
#559=DIRECTION('',(0.0,0.0,-1.0));
#560=DIRECTION('',(0.0,1.0,0.0));
#561=SURFACE_STYLE_FILL_AREA(#590);
#562=ORIENTED_EDGE('',*,*,#120,.F.);
#563=ORIENTED_EDGE('',*,*,#152,.T.);
#564=ORIENTED_EDGE('',*,*,#102,.F.);
#565=ORIENTED_EDGE('',*,*,#98,.F.);
#566=CARTESIAN_POINT('',(0.0,0.0,-0.387));
#567=DIRECTION('',(0.0,-0.0,-1.0));
#568=DIRECTION('',(0.0,1.0,0.0));
#569=SURFACE_STYLE_FILL_AREA(#591);
#570=ORIENTED_EDGE('',*,*,#138,.T.);
#571=ORIENTED_EDGE('',*,*,#172,.T.);
#572=CARTESIAN_POINT('',(0.0,1.585,-133.39));
#573=DIRECTION('',(0.0,0.0,-1.0));
#574=DIRECTION('',(0.0,1.0,0.0));
#575=CARTESIAN_POINT('',(0.0,0.0,-133.39));
#576=DIRECTION('',(0.0,0.0,-1.0));
#577=DIRECTION('',(0.0,1.0,0.0));
#578=FILL_AREA_STYLE('',(#592));
#579=FILL_AREA_STYLE('',(#593));
#580=FILL_AREA_STYLE('',(#594));
#581=FILL_AREA_STYLE('',(#595));
#582=FILL_AREA_STYLE('',(#596));
#583=FILL_AREA_STYLE('',(#597));
#584=FILL_AREA_STYLE('',(#598));
#585=FILL_AREA_STYLE('',(#599));
#586=FILL_AREA_STYLE('',(#600));
#587=FILL_AREA_STYLE('',(#601));
#588=FILL_AREA_STYLE('',(#602));
#589=FILL_AREA_STYLE('',(#603));
#590=FILL_AREA_STYLE('',(#604));
#591=FILL_AREA_STYLE('',(#605));
#592=FILL_AREA_STYLE_COLOUR('',#606);
#593=FILL_AREA_STYLE_COLOUR('',#607);
#594=FILL_AREA_STYLE_COLOUR('',#608);
#595=FILL_AREA_STYLE_COLOUR('',#609);
#596=FILL_AREA_STYLE_COLOUR('',#610);
#597=FILL_AREA_STYLE_COLOUR('',#611);
#598=FILL_AREA_STYLE_COLOUR('',#612);
#599=FILL_AREA_STYLE_COLOUR('',#613);
#600=FILL_AREA_STYLE_COLOUR('',#614);
#601=FILL_AREA_STYLE_COLOUR('',#615);
#602=FILL_AREA_STYLE_COLOUR('',#616);
#603=FILL_AREA_STYLE_COLOUR('',#617);
#604=FILL_AREA_STYLE_COLOUR('',#618);
#605=FILL_AREA_STYLE_COLOUR('',#619);
#606=COLOUR_RGB('',0.800000011920929,0.800000011920929,0.800000011920929);
#607=COLOUR_RGB('',0.498039215803146,0.498039215803146,0.498039215803146);
#608=COLOUR_RGB('',0.800000011920929,0.800000011920929,0.800000011920929);
#609=COLOUR_RGB('',0.498039215803146,0.498039215803146,0.498039215803146);
#610=COLOUR_RGB('',0.800000011920929,0.800000011920929,0.800000011920929);
#611=COLOUR_RGB('',0.800000011920929,0.800000011920929,0.800000011920929);
#612=COLOUR_RGB('',0.800000011920929,0.800000011920929,0.800000011920929);
#613=COLOUR_RGB('',0.498039215803146,0.498039215803146,0.498039215803146);
#614=COLOUR_RGB('',0.498039215803146,0.498039215803146,0.498039215803146);
#615=COLOUR_RGB('',0.800000011920929,0.800000011920929,0.800000011920929);
#616=COLOUR_RGB('',0.498039215803146,0.498039215803146,0.498039215803146);
#617=COLOUR_RGB('',0.800000011920929,0.800000011920929,0.800000011920929);
#618=COLOUR_RGB('',0.498039215803146,0.498039215803146,0.498039215803146);
#619=COLOUR_RGB('',0.800000011920929,0.800000011920929,0.800000011920929);
#620=AXIS2_PLACEMENT_3D('PCS',#621,#622,#623);
#621=CARTESIAN_POINT('',(0.0,0.0,0.0));
#622=DIRECTION('',(0.0,0.0,1.0));
#623=DIRECTION('',(1.0,0.0,0.0));
#624=AXIS2_PLACEMENT_3D('CIP',#625,#626,#627);
#625=CARTESIAN_POINT('',(0.0,0.0,-133.4));
#626=DIRECTION('',(0.0,0.0,1.0));
#627=DIRECTION('',(1.0,0.0,0.0));
#628=AXIS2_PLACEMENT_3D('CRP',#629,#630,#631);
#629=CARTESIAN_POINT('',(-3.175,0.0,-133.4));
#630=DIRECTION('',(0.0,0.0,1.0));
#631=DIRECTION('',(1.0,0.0,0.0));
#632=AXIS2_PLACEMENT_3D('MCS',#633,#634,#635);
#633=CARTESIAN_POINT('',(0.0,0.0,-44.45));
#634=DIRECTION('',(0.0,0.0,1.0));
#635=DIRECTION('',(1.0,0.0,0.0));
#636=CONSTRUCTIVE_GEOMETRY_REPRESENTATION_RELATIONSHIP('coordinate systems',$,#65,#637);
#637=CONSTRUCTIVE_GEOMETRY_REPRESENTATION('coordinate systems',(#620,#624,#628,#632),#10);
ENDSEC;
END-ISO-10303-21;
