ISO-10303-21;
HEADER;
FILE_DESCRIPTION(('no description'),'unknown implementation level');
FILE_NAME('solidMBisPSB47ZNRq1udJOpQ58Xa4ss_1.STP','  ',('CIMSOURCE GmbH'),('CADClick - KiM GmbH - www.kimweb.de'),'unknown preprocess','ACIS','unknown authorization');
FILE_SCHEMA(('automotive_design'));
ENDSEC;
DATA;
#1=MECHANICAL_DESIGN_GEOMETRIC_PRESENTATION_REPRESENTATION(' ',(#14,#15,#16,#17,#18,#19,#20,#21,#22,#23,#24,#25,#26,#27,#28,#29,#30,#31,#32,#33,#34,#35,#36,#37,#38,#39,#40,#41,#42,#43,#44,#45,#46,#47,#48,#49,#50,#51,#52,#53,#54,#55,#56,#57,#58,#59,#60),#10);
#2=PRODUCT_DEFINITION_CONTEXT('',#61,'design');
#3=APPLICATION_PROTOCOL_DEFINITION('INTERNATIONAL STANDARD','automotive_design',1994,#61);
#4=PRODUCT_CATEGORY_RELATIONSHIP('NONE','NONE',#62,#63);
#5=SHAPE_DEFINITION_REPRESENTATION(#64,#65);
#6=PRODUCT_DEFINITION_CONTEXT('',#66,'design');
#7=APPLICATION_PROTOCOL_DEFINITION('INTERNATIONAL STANDARD','automotive_design',1994,#66);
#8=PRODUCT_CATEGORY_RELATIONSHIP('NONE','NONE',#67,#68);
#9=SHAPE_DEFINITION_REPRESENTATION(#69,#70);
#10= (GEOMETRIC_REPRESENTATION_CONTEXT(3)GLOBAL_UNCERTAINTY_ASSIGNED_CONTEXT((#73))GLOBAL_UNIT_ASSIGNED_CONTEXT((#75,#76,#77))REPRESENTATION_CONTEXT('NONE','WORKSPACE'));
#14=STYLED_ITEM('',(#79),#80);
#15=STYLED_ITEM('',(#81),#82);
#16=STYLED_ITEM('',(#83),#84);
#17=STYLED_ITEM('',(#85),#86);
#18=STYLED_ITEM('',(#87),#88);
#19=STYLED_ITEM('',(#89),#90);
#20=STYLED_ITEM('',(#91),#92);
#21=STYLED_ITEM('',(#93),#94);
#22=STYLED_ITEM('',(#95),#96);
#23=STYLED_ITEM('',(#97),#98);
#24=STYLED_ITEM('',(#99),#100);
#25=STYLED_ITEM('',(#101),#102);
#26=STYLED_ITEM('',(#103),#104);
#27=STYLED_ITEM('',(#105),#106);
#28=STYLED_ITEM('',(#107),#108);
#29=STYLED_ITEM('',(#109),#110);
#30=STYLED_ITEM('',(#111),#112);
#31=STYLED_ITEM('',(#113),#114);
#32=STYLED_ITEM('',(#115),#116);
#33=STYLED_ITEM('',(#117),#118);
#34=STYLED_ITEM('',(#119),#120);
#35=STYLED_ITEM('',(#121),#122);
#36=STYLED_ITEM('',(#123),#124);
#37=STYLED_ITEM('',(#125),#126);
#38=STYLED_ITEM('',(#127),#128);
#39=STYLED_ITEM('',(#129),#130);
#40=STYLED_ITEM('',(#131),#132);
#41=STYLED_ITEM('',(#133),#134);
#42=STYLED_ITEM('',(#135),#136);
#43=STYLED_ITEM('',(#137),#138);
#44=STYLED_ITEM('',(#139),#140);
#45=STYLED_ITEM('',(#141),#142);
#46=STYLED_ITEM('',(#143),#144);
#47=STYLED_ITEM('',(#145),#146);
#48=STYLED_ITEM('',(#147),#148);
#49=STYLED_ITEM('',(#149),#150);
#50=STYLED_ITEM('',(#151),#152);
#51=STYLED_ITEM('',(#153),#154);
#52=STYLED_ITEM('',(#155),#156);
#53=STYLED_ITEM('',(#157),#158);
#54=STYLED_ITEM('',(#159),#160);
#55=STYLED_ITEM('',(#161),#162);
#56=STYLED_ITEM('',(#163),#164);
#57=STYLED_ITEM('',(#165),#166);
#58=STYLED_ITEM('',(#167),#168);
#59=STYLED_ITEM('',(#169),#170);
#60=STYLED_ITEM('',(#171),#172);
#61=APPLICATION_CONTEXT(' ');
#62=PRODUCT_CATEGORY('part','NONE');
#63=PRODUCT_RELATED_PRODUCT_CATEGORY('detail',' ',(#173));
#64=PRODUCT_DEFINITION_SHAPE('NONE','NONE',#174);
#65=ADVANCED_BREP_SHAPE_REPRESENTATION('1',(#116,#175),#10);
#66=APPLICATION_CONTEXT(' ');
#67=PRODUCT_CATEGORY('part','NONE');
#68=PRODUCT_RELATED_PRODUCT_CATEGORY('detail',' ',(#176));
#69=PRODUCT_DEFINITION_SHAPE('NONE','NONE',#177);
#70=ADVANCED_BREP_SHAPE_REPRESENTATION('2',(#138,#178),#10);
#73=UNCERTAINTY_MEASURE_WITH_UNIT(LENGTH_MEASURE(1.0E-006),#75,'','');
#75= (CONVERSION_BASED_UNIT('MILLIMETRE',#181)LENGTH_UNIT()NAMED_UNIT(#184));
#76= (NAMED_UNIT(#186)PLANE_ANGLE_UNIT()SI_UNIT($,.RADIAN.));
#77= (NAMED_UNIT(#186)SOLID_ANGLE_UNIT()SI_UNIT($,.STERADIAN.));
#79=PRESENTATION_STYLE_ASSIGNMENT((#192));
#80=VERTEX_POINT('',#193);
#81=PRESENTATION_STYLE_ASSIGNMENT((#194));
#82=ADVANCED_FACE('',(#195,#196),#197,.T.);
#83=PRESENTATION_STYLE_ASSIGNMENT((#198));
#84=VERTEX_POINT('',#199);
#85=PRESENTATION_STYLE_ASSIGNMENT((#200));
#86=ADVANCED_FACE('',(#201),#202,.T.);
#87=PRESENTATION_STYLE_ASSIGNMENT((#203));
#88=VERTEX_POINT('',#204);
#89=PRESENTATION_STYLE_ASSIGNMENT((#205));
#90=EDGE_CURVE('',#84,#122,#206,.T.);
#91=PRESENTATION_STYLE_ASSIGNMENT((#207));
#92=EDGE_CURVE('',#166,#80,#208,.T.);
#93=PRESENTATION_STYLE_ASSIGNMENT((#209));
#94=VERTEX_POINT('',#210);
#95=PRESENTATION_STYLE_ASSIGNMENT((#211));
#96=ADVANCED_FACE('',(#212),#213,.T.);
#97=PRESENTATION_STYLE_ASSIGNMENT((#214));
#98=VERTEX_POINT('',#215);
#99=PRESENTATION_STYLE_ASSIGNMENT((#216));
#100=EDGE_CURVE('',#166,#156,#217,.T.);
#101=PRESENTATION_STYLE_ASSIGNMENT((#218));
#102=EDGE_CURVE('',#94,#150,#219,.T.);
#103=PRESENTATION_STYLE_ASSIGNMENT((#220));
#104=EDGE_CURVE('',#136,#84,#221,.T.);
#105=PRESENTATION_STYLE_ASSIGNMENT((#222));
#106=EDGE_CURVE('',#144,#156,#223,.T.);
#107=PRESENTATION_STYLE_ASSIGNMENT((#224));
#108=EDGE_CURVE('',#156,#144,#225,.T.);
#109=PRESENTATION_STYLE_ASSIGNMENT((#226));
#110=ADVANCED_FACE('',(#227),#228,.T.);
#111=PRESENTATION_STYLE_ASSIGNMENT((#229));
#112=ADVANCED_FACE('',(#230),#231,.F.);
#113=PRESENTATION_STYLE_ASSIGNMENT((#232));
#114=EDGE_CURVE('',#168,#150,#233,.T.);
#115=PRESENTATION_STYLE_ASSIGNMENT((#234));
#116=MANIFOLD_SOLID_BREP('1',#235);
#117=PRESENTATION_STYLE_ASSIGNMENT((#236));
#118=ADVANCED_FACE('',(#237),#238,.F.);
#119=PRESENTATION_STYLE_ASSIGNMENT((#239));
#120=ADVANCED_FACE('',(#240),#241,.T.);
#121=PRESENTATION_STYLE_ASSIGNMENT((#242));
#122=VERTEX_POINT('',#243);
#123=PRESENTATION_STYLE_ASSIGNMENT((#244));
#124=EDGE_CURVE('',#132,#98,#245,.T.);
#125=PRESENTATION_STYLE_ASSIGNMENT((#246));
#126=EDGE_CURVE('',#136,#168,#247,.T.);
#127=PRESENTATION_STYLE_ASSIGNMENT((#248));
#128=EDGE_CURVE('',#94,#136,#249,.T.);
#129=PRESENTATION_STYLE_ASSIGNMENT((#250));
#130=EDGE_CURVE('',#122,#168,#251,.T.);
#131=PRESENTATION_STYLE_ASSIGNMENT((#252));
#132=VERTEX_POINT('',#253);
#133=PRESENTATION_STYLE_ASSIGNMENT((#254));
#134=EDGE_CURVE('',#168,#136,#255,.T.);
#135=PRESENTATION_STYLE_ASSIGNMENT((#256));
#136=VERTEX_POINT('',#257);
#137=PRESENTATION_STYLE_ASSIGNMENT((#258));
#138=MANIFOLD_SOLID_BREP('2',#259);
#139=PRESENTATION_STYLE_ASSIGNMENT((#260));
#140=ADVANCED_FACE('',(#261),#262,.T.);
#141=PRESENTATION_STYLE_ASSIGNMENT((#263));
#142=ADVANCED_FACE('',(#264),#265,.T.);
#143=PRESENTATION_STYLE_ASSIGNMENT((#266));
#144=VERTEX_POINT('',#267);
#145=PRESENTATION_STYLE_ASSIGNMENT((#268));
#146=ADVANCED_FACE('',(#269),#270,.T.);
#147=PRESENTATION_STYLE_ASSIGNMENT((#271));
#148=EDGE_CURVE('',#150,#94,#272,.T.);
#149=PRESENTATION_STYLE_ASSIGNMENT((#273));
#150=VERTEX_POINT('',#274);
#151=PRESENTATION_STYLE_ASSIGNMENT((#275));
#152=EDGE_CURVE('',#122,#84,#276,.T.);
#153=PRESENTATION_STYLE_ASSIGNMENT((#277));
#154=EDGE_CURVE('',#98,#132,#278,.T.);
#155=PRESENTATION_STYLE_ASSIGNMENT((#279));
#156=VERTEX_POINT('',#280);
#157=PRESENTATION_STYLE_ASSIGNMENT((#281));
#158=ADVANCED_FACE('',(#282),#283,.T.);
#159=PRESENTATION_STYLE_ASSIGNMENT((#284));
#160=EDGE_CURVE('',#80,#166,#285,.T.);
#161=PRESENTATION_STYLE_ASSIGNMENT((#286));
#162=EDGE_CURVE('',#88,#98,#287,.T.);
#163=PRESENTATION_STYLE_ASSIGNMENT((#288));
#164=ADVANCED_FACE('',(#289),#290,.T.);
#165=PRESENTATION_STYLE_ASSIGNMENT((#291));
#166=VERTEX_POINT('',#292);
#167=PRESENTATION_STYLE_ASSIGNMENT((#293));
#168=VERTEX_POINT('',#294);
#169=PRESENTATION_STYLE_ASSIGNMENT((#295));
#170=EDGE_CURVE('',#144,#80,#296,.T.);
#171=PRESENTATION_STYLE_ASSIGNMENT((#297));
#172=EDGE_CURVE('',#132,#88,#298,.T.);
#173=PRODUCT('1','1','PART-1-DESC',(#299));
#174=PRODUCT_DEFINITION('NONE','NONE',#300,#2);
#175=AXIS2_PLACEMENT_3D('',#301,#302,#303);
#176=PRODUCT('2','2','PART-2-DESC',(#304));
#177=PRODUCT_DEFINITION('NONE','NONE',#305,#6);
#178=AXIS2_PLACEMENT_3D('',#306,#307,#308);
#181=LENGTH_MEASURE_WITH_UNIT(LENGTH_MEASURE(1.0),#309);
#184=DIMENSIONAL_EXPONENTS(1.0,0.0,0.0,0.0,0.0,0.0,0.0);
#186=DIMENSIONAL_EXPONENTS(0.0,0.0,0.0,0.0,0.0,0.0,0.0);
#192=POINT_STYLE(' ',#310,POSITIVE_LENGTH_MEASURE(1.0E-006),#311);
#193=CARTESIAN_POINT('',(0.0,4.7625,-82.59));
#194=SURFACE_STYLE_USAGE(.BOTH.,#312);
#195=FACE_OUTER_BOUND('',#313,.T.);
#196=FACE_BOUND('',#314,.T.);
#197=PLANE('',#315);
#198=POINT_STYLE(' ',#316,POSITIVE_LENGTH_MEASURE(1.0E-006),#317);
#199=CARTESIAN_POINT('',(-7.7762503467721E-016,6.35,-50.79));
#200=SURFACE_STYLE_USAGE(.BOTH.,#318);
#201=FACE_OUTER_BOUND('',#319,.T.);
#202=PLANE('',#320);
#203=POINT_STYLE(' ',#321,POSITIVE_LENGTH_MEASURE(1.0E-006),#322);
#204=CARTESIAN_POINT('',(0.0,0.0,-50.8));
#205=CURVE_STYLE('',#323,POSITIVE_LENGTH_MEASURE(1.0E-006),#324);
#206=CIRCLE('',#325,6.35);
#207=CURVE_STYLE('',#326,POSITIVE_LENGTH_MEASURE(1.0E-006),#327);
#208=CIRCLE('',#328,4.7625);
#209=POINT_STYLE(' ',#329,POSITIVE_LENGTH_MEASURE(1.0E-006),#330);
#210=CARTESIAN_POINT('',(0.0,5.89158388626344,0.0100000000000051));
#211=SURFACE_STYLE_USAGE(.BOTH.,#331);
#212=FACE_OUTER_BOUND('',#332,.T.);
#213=PLANE('',#333);
#214=POINT_STYLE(' ',#334,POSITIVE_LENGTH_MEASURE(1.0E-006),#335);
#215=CARTESIAN_POINT('',(7.86683127176609E-016,-6.42396738120071,-50.79));
#216=CURVE_STYLE('',#336,POSITIVE_LENGTH_MEASURE(1.0E-006),#337);
#217=LINE('',#338,#339);
#218=CURVE_STYLE('',#340,POSITIVE_LENGTH_MEASURE(1.0E-006),#341);
#219=CIRCLE('',#342,5.89158388626344);
#220=CURVE_STYLE('',#343,POSITIVE_LENGTH_MEASURE(1.0E-006),#344);
#221=LINE('',#345,#346);
#222=CURVE_STYLE('',#347,POSITIVE_LENGTH_MEASURE(1.0E-006),#348);
#223=CIRCLE('',#349,6.42896738120072);
#224=CURVE_STYLE('',#350,POSITIVE_LENGTH_MEASURE(1.0E-006),#351);
#225=CIRCLE('',#352,6.42896738120072);
#226=SURFACE_STYLE_USAGE(.BOTH.,#353);
#227=FACE_OUTER_BOUND('',#354,.T.);
#228=CONICAL_SURFACE('',#355,6.12079194313172,0.523598775598301);
#229=SURFACE_STYLE_USAGE(.BOTH.,#356);
#230=FACE_OUTER_BOUND('',#357,.T.);
#231=CONICAL_SURFACE('',#358,3.21198369060036,1.56923965763249);
#232=CURVE_STYLE('',#359,POSITIVE_LENGTH_MEASURE(1.0E-006),#360);
#233=LINE('',#361,#362);
#234=SURFACE_STYLE_USAGE(.BOTH.,#363);
#235=CLOSED_SHELL('',(#164,#118,#112,#82,#142,#86));
#236=SURFACE_STYLE_USAGE(.BOTH.,#364);
#237=FACE_OUTER_BOUND('',#365,.T.);
#238=CONICAL_SURFACE('',#366,3.21198369060036,1.56923965763249);
#239=SURFACE_STYLE_USAGE(.BOTH.,#367);
#240=FACE_OUTER_BOUND('',#368,.T.);
#241=CYLINDRICAL_SURFACE('',#369,6.35);
#242=POINT_STYLE(' ',#370,POSITIVE_LENGTH_MEASURE(1.0E-006),#371);
#243=CARTESIAN_POINT('',(0.0,-6.35,-50.79));
#244=CURVE_STYLE('',#372,POSITIVE_LENGTH_MEASURE(1.0E-006),#373);
#245=CIRCLE('',#374,6.42396738120072);
#246=CURVE_STYLE('',#375,POSITIVE_LENGTH_MEASURE(1.0E-006),#376);
#247=CIRCLE('',#377,6.35);
#248=CURVE_STYLE('',#378,POSITIVE_LENGTH_MEASURE(1.0E-006),#379);
#249=LINE('',#380,#381);
#250=CURVE_STYLE('',#382,POSITIVE_LENGTH_MEASURE(1.0E-006),#383);
#251=LINE('',#384,#385);
#252=POINT_STYLE(' ',#386,POSITIVE_LENGTH_MEASURE(1.0E-006),#387);
#253=CARTESIAN_POINT('',(0.0,6.42396738120072,-50.79));
#254=CURVE_STYLE('',#388,POSITIVE_LENGTH_MEASURE(1.0E-006),#389);
#255=CIRCLE('',#390,6.35);
#256=POINT_STYLE(' ',#391,POSITIVE_LENGTH_MEASURE(1.0E-006),#392);
#257=CARTESIAN_POINT('',(0.0,6.35,-0.783999999999992));
#258=SURFACE_STYLE_USAGE(.BOTH.,#393);
#259=CLOSED_SHELL('',(#140,#146,#96,#158,#110,#120));
#260=SURFACE_STYLE_USAGE(.BOTH.,#394);
#261=FACE_OUTER_BOUND('',#395,.T.);
#262=CYLINDRICAL_SURFACE('',#396,6.35);
#263=SURFACE_STYLE_USAGE(.BOTH.,#397);
#264=FACE_OUTER_BOUND('',#398,.T.);
#265=CONICAL_SURFACE('',#399,5.59573369060036,0.0523567415185987);
#266=POINT_STYLE(' ',#400,POSITIVE_LENGTH_MEASURE(1.0E-006),#401);
#267=CARTESIAN_POINT('',(0.0,6.42896738120072,-50.79));
#268=SURFACE_STYLE_USAGE(.BOTH.,#402);
#269=FACE_OUTER_BOUND('',#403,.T.);
#270=CONICAL_SURFACE('',#404,6.12079194313172,0.523598775598301);
#271=CURVE_STYLE('',#405,POSITIVE_LENGTH_MEASURE(1.0E-006),#406);
#272=CIRCLE('',#407,5.89158388626344);
#273=POINT_STYLE(' ',#408,POSITIVE_LENGTH_MEASURE(1.0E-006),#409);
#274=CARTESIAN_POINT('',(7.21487106119574E-016,-5.89158388626344,0.0100000000000051));
#275=CURVE_STYLE('',#410,POSITIVE_LENGTH_MEASURE(1.0E-006),#411);
#276=CIRCLE('',#412,6.35);
#277=CURVE_STYLE('',#413,POSITIVE_LENGTH_MEASURE(1.0E-006),#414);
#278=CIRCLE('',#415,6.42396738120072);
#279=POINT_STYLE(' ',#416,POSITIVE_LENGTH_MEASURE(1.0E-006),#417);
#280=CARTESIAN_POINT('',(7.8729543035352E-016,-6.42896738120072,-50.79));
#281=SURFACE_STYLE_USAGE(.BOTH.,#418);
#282=FACE_OUTER_BOUND('',#419,.T.);
#283=PLANE('',#420);
#284=CURVE_STYLE('',#421,POSITIVE_LENGTH_MEASURE(1.0E-006),#422);
#285=CIRCLE('',#423,4.7625);
#286=CURVE_STYLE('',#424,POSITIVE_LENGTH_MEASURE(1.0E-006),#425);
#287=LINE('',#426,#427);
#288=SURFACE_STYLE_USAGE(.BOTH.,#428);
#289=FACE_OUTER_BOUND('',#429,.T.);
#290=CONICAL_SURFACE('',#430,5.59573369060036,0.0523567415185987);
#291=POINT_STYLE(' ',#431,POSITIVE_LENGTH_MEASURE(1.0E-006),#432);
#292=CARTESIAN_POINT('',(5.83218776007907E-016,-4.7625,-82.59));
#293=POINT_STYLE(' ',#433,POSITIVE_LENGTH_MEASURE(1.0E-006),#434);
#294=CARTESIAN_POINT('',(7.7762503467721E-016,-6.35,-0.783999999999992));
#295=CURVE_STYLE('',#435,POSITIVE_LENGTH_MEASURE(1.0E-006),#436);
#296=LINE('',#437,#438);
#297=CURVE_STYLE('',#439,POSITIVE_LENGTH_MEASURE(1.0E-006),#440);
#298=LINE('',#441,#442);
#299=PRODUCT_CONTEXT('',#61,'mechanical');
#300=PRODUCT_DEFINITION_FORMATION_WITH_SPECIFIED_SOURCE(' ','NONE',#173,.NOT_KNOWN.);
#301=CARTESIAN_POINT('',(0.0,0.0,0.0));
#302=DIRECTION('',(0.0,0.0,1.0));
#303=DIRECTION('',(1.0,0.0,0.0));
#304=PRODUCT_CONTEXT('',#66,'mechanical');
#305=PRODUCT_DEFINITION_FORMATION_WITH_SPECIFIED_SOURCE(' ','NONE',#176,.NOT_KNOWN.);
#306=CARTESIAN_POINT('',(0.0,0.0,0.0));
#307=DIRECTION('',(0.0,0.0,1.0));
#308=DIRECTION('',(1.0,0.0,0.0));
#309= (NAMED_UNIT(#184)LENGTH_UNIT()SI_UNIT(.MILLI.,.METRE.));
#310=PRE_DEFINED_MARKER('');
#311=COLOUR_RGB('',0.800000011920929,0.800000011920929,0.800000011920929);
#312=SURFACE_SIDE_STYLE('',(#444));
#313=EDGE_LOOP('',(#445,#446));
#314=EDGE_LOOP('',(#447,#448));
#315=AXIS2_PLACEMENT_3D('',#449,#450,#451);
#316=PRE_DEFINED_MARKER('');
#317=COLOUR_RGB('',0.498039215803146,0.498039215803146,0.498039215803146);
#318=SURFACE_SIDE_STYLE('',(#452));
#319=EDGE_LOOP('',(#453,#454));
#320=AXIS2_PLACEMENT_3D('',#455,#456,#457);
#321=PRE_DEFINED_MARKER('');
#322=COLOUR_RGB('',0.800000011920929,0.800000011920929,0.800000011920929);
#323=DRAUGHTING_PRE_DEFINED_CURVE_FONT('continuous');
#324=COLOUR_RGB('',0.498039215803146,0.498039215803146,0.498039215803146);
#325=AXIS2_PLACEMENT_3D('',#458,#459,#460);
#326=DRAUGHTING_PRE_DEFINED_CURVE_FONT('continuous');
#327=COLOUR_RGB('',0.800000011920929,0.800000011920929,0.800000011920929);
#328=AXIS2_PLACEMENT_3D('',#461,#462,#463);
#329=PRE_DEFINED_MARKER('');
#330=COLOUR_RGB('',0.498039215803146,0.498039215803146,0.498039215803146);
#331=SURFACE_SIDE_STYLE('',(#464));
#332=EDGE_LOOP('',(#465,#466));
#333=AXIS2_PLACEMENT_3D('',#467,#468,#469);
#334=PRE_DEFINED_MARKER('');
#335=COLOUR_RGB('',0.800000011920929,0.800000011920929,0.800000011920929);
#336=DRAUGHTING_PRE_DEFINED_CURVE_FONT('continuous');
#337=COLOUR_RGB('',0.800000011920929,0.800000011920929,0.800000011920929);
#338=CARTESIAN_POINT('',(6.85257103180714E-016,-5.59573369060036,-66.69));
#339=VECTOR('',#470,1.0);
#340=DRAUGHTING_PRE_DEFINED_CURVE_FONT('continuous');
#341=COLOUR_RGB('',0.498039215803146,0.498039215803146,0.498039215803146);
#342=AXIS2_PLACEMENT_3D('',#471,#472,#473);
#343=DRAUGHTING_PRE_DEFINED_CURVE_FONT('continuous');
#344=COLOUR_RGB('',0.498039215803146,0.498039215803146,0.498039215803146);
#345=CARTESIAN_POINT('',(-7.7762503467721E-016,6.35,-21.0245));
#346=VECTOR('',#474,1.0);
#347=DRAUGHTING_PRE_DEFINED_CURVE_FONT('continuous');
#348=COLOUR_RGB('',0.800000011920929,0.800000011920929,0.800000011920929);
#349=AXIS2_PLACEMENT_3D('',#475,#476,#477);
#350=DRAUGHTING_PRE_DEFINED_CURVE_FONT('continuous');
#351=COLOUR_RGB('',0.800000011920929,0.800000011920929,0.800000011920929);
#352=AXIS2_PLACEMENT_3D('',#478,#479,#480);
#353=SURFACE_SIDE_STYLE('',(#481));
#354=EDGE_LOOP('',(#482,#483,#484,#485));
#355=AXIS2_PLACEMENT_3D('',#486,#487,#488);
#356=SURFACE_SIDE_STYLE('',(#489));
#357=EDGE_LOOP('',(#490,#491,#492));
#358=AXIS2_PLACEMENT_3D('',#493,#494,#495);
#359=DRAUGHTING_PRE_DEFINED_CURVE_FONT('continuous');
#360=COLOUR_RGB('',0.498039215803146,0.498039215803146,0.498039215803146);
#361=CARTESIAN_POINT('',(7.49556070398392E-016,-6.12079194313172,-0.386999999999993));
#362=VECTOR('',#496,1.0);
#363=SURFACE_SIDE_STYLE('',(#497));
#364=SURFACE_SIDE_STYLE('',(#498));
#365=EDGE_LOOP('',(#499,#500,#501));
#366=AXIS2_PLACEMENT_3D('',#502,#503,#504);
#367=SURFACE_SIDE_STYLE('',(#505));
#368=EDGE_LOOP('',(#506,#507,#508,#509));
#369=AXIS2_PLACEMENT_3D('',#510,#511,#512);
#370=PRE_DEFINED_MARKER('');
#371=COLOUR_RGB('',0.498039215803146,0.498039215803146,0.498039215803146);
#372=DRAUGHTING_PRE_DEFINED_CURVE_FONT('continuous');
#373=COLOUR_RGB('',0.800000011920929,0.800000011920929,0.800000011920929);
#374=AXIS2_PLACEMENT_3D('',#513,#514,#515);
#375=DRAUGHTING_PRE_DEFINED_CURVE_FONT('continuous');
#376=COLOUR_RGB('',0.498039215803146,0.498039215803146,0.498039215803146);
#377=AXIS2_PLACEMENT_3D('',#516,#517,#518);
#378=DRAUGHTING_PRE_DEFINED_CURVE_FONT('continuous');
#379=COLOUR_RGB('',0.498039215803146,0.498039215803146,0.498039215803146);
#380=CARTESIAN_POINT('',(-7.49556070398392E-016,6.12079194313172,-0.386999999999993));
#381=VECTOR('',#519,1.0);
#382=DRAUGHTING_PRE_DEFINED_CURVE_FONT('continuous');
#383=COLOUR_RGB('',0.498039215803146,0.498039215803146,0.498039215803146);
#384=CARTESIAN_POINT('',(7.7762503467721E-016,-6.35,-21.0245));
#385=VECTOR('',#520,1.0);
#386=PRE_DEFINED_MARKER('');
#387=COLOUR_RGB('',0.800000011920929,0.800000011920929,0.800000011920929);
#388=DRAUGHTING_PRE_DEFINED_CURVE_FONT('continuous');
#389=COLOUR_RGB('',0.498039215803146,0.498039215803146,0.498039215803146);
#390=AXIS2_PLACEMENT_3D('',#521,#522,#523);
#391=PRE_DEFINED_MARKER('');
#392=COLOUR_RGB('',0.498039215803146,0.498039215803146,0.498039215803146);
#393=SURFACE_SIDE_STYLE('',(#524));
#394=SURFACE_SIDE_STYLE('',(#525));
#395=EDGE_LOOP('',(#526,#527,#528,#529));
#396=AXIS2_PLACEMENT_3D('',#530,#531,#532);
#397=SURFACE_SIDE_STYLE('',(#533));
#398=EDGE_LOOP('',(#534,#535,#536,#537));
#399=AXIS2_PLACEMENT_3D('',#538,#539,#540);
#400=PRE_DEFINED_MARKER('');
#401=COLOUR_RGB('',0.800000011920929,0.800000011920929,0.800000011920929);
#402=SURFACE_SIDE_STYLE('',(#541));
#403=EDGE_LOOP('',(#542,#543,#544,#545));
#404=AXIS2_PLACEMENT_3D('',#546,#547,#548);
#405=DRAUGHTING_PRE_DEFINED_CURVE_FONT('continuous');
#406=COLOUR_RGB('',0.498039215803146,0.498039215803146,0.498039215803146);
#407=AXIS2_PLACEMENT_3D('',#549,#550,#551);
#408=PRE_DEFINED_MARKER('');
#409=COLOUR_RGB('',0.498039215803146,0.498039215803146,0.498039215803146);
#410=DRAUGHTING_PRE_DEFINED_CURVE_FONT('continuous');
#411=COLOUR_RGB('',0.498039215803146,0.498039215803146,0.498039215803146);
#412=AXIS2_PLACEMENT_3D('',#552,#553,#554);
#413=DRAUGHTING_PRE_DEFINED_CURVE_FONT('continuous');
#414=COLOUR_RGB('',0.800000011920929,0.800000011920929,0.800000011920929);
#415=AXIS2_PLACEMENT_3D('',#555,#556,#557);
#416=PRE_DEFINED_MARKER('');
#417=COLOUR_RGB('',0.800000011920929,0.800000011920929,0.800000011920929);
#418=SURFACE_SIDE_STYLE('',(#558));
#419=EDGE_LOOP('',(#559,#560));
#420=AXIS2_PLACEMENT_3D('',#561,#562,#563);
#421=DRAUGHTING_PRE_DEFINED_CURVE_FONT('continuous');
#422=COLOUR_RGB('',0.800000011920929,0.800000011920929,0.800000011920929);
#423=AXIS2_PLACEMENT_3D('',#564,#565,#566);
#424=DRAUGHTING_PRE_DEFINED_CURVE_FONT('continuous');
#425=COLOUR_RGB('',0.800000011920929,0.800000011920929,0.800000011920929);
#426=CARTESIAN_POINT('',(3.93341563588305E-016,-3.21198369060036,-50.795));
#427=VECTOR('',#567,1.0);
#428=SURFACE_SIDE_STYLE('',(#568));
#429=EDGE_LOOP('',(#569,#570,#571,#572));
#430=AXIS2_PLACEMENT_3D('',#573,#574,#575);
#431=PRE_DEFINED_MARKER('');
#432=COLOUR_RGB('',0.800000011920929,0.800000011920929,0.800000011920929);
#433=PRE_DEFINED_MARKER('');
#434=COLOUR_RGB('',0.498039215803146,0.498039215803146,0.498039215803146);
#435=DRAUGHTING_PRE_DEFINED_CURVE_FONT('continuous');
#436=COLOUR_RGB('',0.800000011920929,0.800000011920929,0.800000011920929);
#437=CARTESIAN_POINT('',(-6.85257103180714E-016,5.59573369060036,-66.69));
#438=VECTOR('',#576,1.0);
#439=DRAUGHTING_PRE_DEFINED_CURVE_FONT('continuous');
#440=COLOUR_RGB('',0.800000011920929,0.800000011920929,0.800000011920929);
#441=CARTESIAN_POINT('',(-3.93341563588305E-016,3.21198369060036,-50.795));
#442=VECTOR('',#577,1.0);
#444=SURFACE_STYLE_FILL_AREA(#578);
#445=ORIENTED_EDGE('',*,*,#106,.F.);
#446=ORIENTED_EDGE('',*,*,#108,.F.);
#447=ORIENTED_EDGE('',*,*,#124,.T.);
#448=ORIENTED_EDGE('',*,*,#154,.T.);
#449=CARTESIAN_POINT('',(0.0,6.42646738120072,-50.79));
#450=DIRECTION('',(-0.0,0.0,1.0));
#451=DIRECTION('',(0.0,-1.0,0.0));
#452=SURFACE_STYLE_FILL_AREA(#579);
#453=ORIENTED_EDGE('',*,*,#160,.T.);
#454=ORIENTED_EDGE('',*,*,#92,.T.);
#455=CARTESIAN_POINT('',(0.0,2.37875,-82.59));
#456=DIRECTION('',(0.0,0.0,-1.0));
#457=DIRECTION('',(0.0,1.0,0.0));
#458=CARTESIAN_POINT('',(0.0,0.0,-50.79));
#459=DIRECTION('',(0.0,0.0,-1.0));
#460=DIRECTION('',(0.0,-1.0,0.0));
#461=CARTESIAN_POINT('',(0.0,0.0,-82.59));
#462=DIRECTION('',(0.0,0.0,-1.0));
#463=DIRECTION('',(0.0,1.0,0.0));
#464=SURFACE_STYLE_FILL_AREA(#580);
#465=ORIENTED_EDGE('',*,*,#152,.T.);
#466=ORIENTED_EDGE('',*,*,#90,.T.);
#467=CARTESIAN_POINT('',(0.0,0.0,-50.79));
#468=DIRECTION('',(0.0,0.0,-1.0));
#469=DIRECTION('',(0.0,-1.0,0.0));
#470=DIRECTION('',(6.40871093953028E-018,-0.0523328244992908,0.99862969887738));
#471=CARTESIAN_POINT('',(0.0,0.0,0.0100000000000051));
#472=DIRECTION('',(0.0,0.0,-1.0));
#473=DIRECTION('',(0.0,1.0,0.0));
#474=DIRECTION('',(0.0,0.0,-1.0));
#475=CARTESIAN_POINT('',(0.0,0.0,-50.79));
#476=DIRECTION('',(0.0,0.0,-1.0));
#477=DIRECTION('',(0.0,1.0,0.0));
#478=CARTESIAN_POINT('',(0.0,0.0,-50.79));
#479=DIRECTION('',(0.0,0.0,-1.0));
#480=DIRECTION('',(0.0,1.0,0.0));
#481=SURFACE_STYLE_FILL_AREA(#581);
#482=ORIENTED_EDGE('',*,*,#128,.T.);
#483=ORIENTED_EDGE('',*,*,#134,.F.);
#484=ORIENTED_EDGE('',*,*,#114,.T.);
#485=ORIENTED_EDGE('',*,*,#148,.T.);
#486=CARTESIAN_POINT('',(0.0,0.0,-0.386999999999993));
#487=DIRECTION('',(0.0,-0.0,-1.0));
#488=DIRECTION('',(0.0,1.0,0.0));
#489=SURFACE_STYLE_FILL_AREA(#582);
#490=ORIENTED_EDGE('',*,*,#162,.T.);
#491=ORIENTED_EDGE('',*,*,#124,.F.);
#492=ORIENTED_EDGE('',*,*,#172,.T.);
#493=CARTESIAN_POINT('',(0.0,0.0,-50.795));
#494=DIRECTION('',(-0.0,-0.0,1.0));
#495=DIRECTION('',(0.0,1.0,0.0));
#496=DIRECTION('',(-6.12303176911191E-017,0.500000000000002,0.866025403784438));
#497=SURFACE_STYLE_FILL_AREA(#583);
#498=SURFACE_STYLE_FILL_AREA(#584);
#499=ORIENTED_EDGE('',*,*,#162,.F.);
#500=ORIENTED_EDGE('',*,*,#172,.F.);
#501=ORIENTED_EDGE('',*,*,#154,.F.);
#502=CARTESIAN_POINT('',(0.0,0.0,-50.795));
#503=DIRECTION('',(-0.0,-0.0,1.0));
#504=DIRECTION('',(0.0,1.0,0.0));
#505=SURFACE_STYLE_FILL_AREA(#585);
#506=ORIENTED_EDGE('',*,*,#104,.T.);
#507=ORIENTED_EDGE('',*,*,#152,.F.);
#508=ORIENTED_EDGE('',*,*,#130,.T.);
#509=ORIENTED_EDGE('',*,*,#134,.T.);
#510=CARTESIAN_POINT('',(0.0,0.0,-21.0245));
#511=DIRECTION('',(-0.0,-0.0,1.0));
#512=DIRECTION('',(0.0,1.0,0.0));
#513=CARTESIAN_POINT('',(0.0,0.0,-50.79));
#514=DIRECTION('',(0.0,0.0,-1.0));
#515=DIRECTION('',(0.0,1.0,0.0));
#516=CARTESIAN_POINT('',(0.0,0.0,-0.783999999999992));
#517=DIRECTION('',(0.0,0.0,-1.0));
#518=DIRECTION('',(0.0,1.0,0.0));
#519=DIRECTION('',(-6.12303176911191E-017,0.500000000000002,-0.866025403784438));
#520=DIRECTION('',(-0.0,-0.0,1.0));
#521=CARTESIAN_POINT('',(0.0,0.0,-0.783999999999992));
#522=DIRECTION('',(0.0,0.0,-1.0));
#523=DIRECTION('',(0.0,1.0,0.0));
#524=SURFACE_STYLE_FILL_AREA(#586);
#525=SURFACE_STYLE_FILL_AREA(#587);
#526=ORIENTED_EDGE('',*,*,#104,.F.);
#527=ORIENTED_EDGE('',*,*,#126,.T.);
#528=ORIENTED_EDGE('',*,*,#130,.F.);
#529=ORIENTED_EDGE('',*,*,#90,.F.);
#530=CARTESIAN_POINT('',(0.0,0.0,-21.0245));
#531=DIRECTION('',(-0.0,-0.0,1.0));
#532=DIRECTION('',(0.0,1.0,0.0));
#533=SURFACE_STYLE_FILL_AREA(#588);
#534=ORIENTED_EDGE('',*,*,#170,.T.);
#535=ORIENTED_EDGE('',*,*,#92,.F.);
#536=ORIENTED_EDGE('',*,*,#100,.T.);
#537=ORIENTED_EDGE('',*,*,#108,.T.);
#538=CARTESIAN_POINT('',(0.0,0.0,-66.69));
#539=DIRECTION('',(-0.0,-0.0,1.0));
#540=DIRECTION('',(0.0,1.0,0.0));
#541=SURFACE_STYLE_FILL_AREA(#589);
#542=ORIENTED_EDGE('',*,*,#128,.F.);
#543=ORIENTED_EDGE('',*,*,#102,.T.);
#544=ORIENTED_EDGE('',*,*,#114,.F.);
#545=ORIENTED_EDGE('',*,*,#126,.F.);
#546=CARTESIAN_POINT('',(0.0,0.0,-0.386999999999993));
#547=DIRECTION('',(0.0,-0.0,-1.0));
#548=DIRECTION('',(0.0,1.0,0.0));
#549=CARTESIAN_POINT('',(0.0,0.0,0.0100000000000051));
#550=DIRECTION('',(0.0,0.0,-1.0));
#551=DIRECTION('',(0.0,1.0,0.0));
#552=CARTESIAN_POINT('',(0.0,0.0,-50.79));
#553=DIRECTION('',(0.0,0.0,-1.0));
#554=DIRECTION('',(0.0,-1.0,0.0));
#555=CARTESIAN_POINT('',(0.0,0.0,-50.79));
#556=DIRECTION('',(0.0,0.0,-1.0));
#557=DIRECTION('',(0.0,1.0,0.0));
#558=SURFACE_STYLE_FILL_AREA(#590);
#559=ORIENTED_EDGE('',*,*,#102,.F.);
#560=ORIENTED_EDGE('',*,*,#148,.F.);
#561=CARTESIAN_POINT('',(0.0,2.94579194313172,0.0100000000000051));
#562=DIRECTION('',(-0.0,0.0,1.0));
#563=DIRECTION('',(0.0,-1.0,0.0));
#564=CARTESIAN_POINT('',(0.0,0.0,-82.59));
#565=DIRECTION('',(0.0,0.0,-1.0));
#566=DIRECTION('',(0.0,1.0,0.0));
#567=DIRECTION('',(1.22460487007806E-016,-0.999998788390804,0.0015566685337125));
#568=SURFACE_STYLE_FILL_AREA(#591);
#569=ORIENTED_EDGE('',*,*,#170,.F.);
#570=ORIENTED_EDGE('',*,*,#106,.T.);
#571=ORIENTED_EDGE('',*,*,#100,.F.);
#572=ORIENTED_EDGE('',*,*,#160,.F.);
#573=CARTESIAN_POINT('',(0.0,0.0,-66.69));
#574=DIRECTION('',(-0.0,-0.0,1.0));
#575=DIRECTION('',(0.0,1.0,0.0));
#576=DIRECTION('',(6.40871093953028E-018,-0.0523328244992908,-0.99862969887738));
#577=DIRECTION('',(1.22460487007806E-016,-0.999998788390804,-0.0015566685337125));
#578=FILL_AREA_STYLE('',(#592));
#579=FILL_AREA_STYLE('',(#593));
#580=FILL_AREA_STYLE('',(#594));
#581=FILL_AREA_STYLE('',(#595));
#582=FILL_AREA_STYLE('',(#596));
#583=FILL_AREA_STYLE('',(#597));
#584=FILL_AREA_STYLE('',(#598));
#585=FILL_AREA_STYLE('',(#599));
#586=FILL_AREA_STYLE('',(#600));
#587=FILL_AREA_STYLE('',(#601));
#588=FILL_AREA_STYLE('',(#602));
#589=FILL_AREA_STYLE('',(#603));
#590=FILL_AREA_STYLE('',(#604));
#591=FILL_AREA_STYLE('',(#605));
#592=FILL_AREA_STYLE_COLOUR('',#606);
#593=FILL_AREA_STYLE_COLOUR('',#607);
#594=FILL_AREA_STYLE_COLOUR('',#608);
#595=FILL_AREA_STYLE_COLOUR('',#609);
#596=FILL_AREA_STYLE_COLOUR('',#610);
#597=FILL_AREA_STYLE_COLOUR('',#611);
#598=FILL_AREA_STYLE_COLOUR('',#612);
#599=FILL_AREA_STYLE_COLOUR('',#613);
#600=FILL_AREA_STYLE_COLOUR('',#614);
#601=FILL_AREA_STYLE_COLOUR('',#615);
#602=FILL_AREA_STYLE_COLOUR('',#616);
#603=FILL_AREA_STYLE_COLOUR('',#617);
#604=FILL_AREA_STYLE_COLOUR('',#618);
#605=FILL_AREA_STYLE_COLOUR('',#619);
#606=COLOUR_RGB('',0.800000011920929,0.800000011920929,0.800000011920929);
#607=COLOUR_RGB('',0.800000011920929,0.800000011920929,0.800000011920929);
#608=COLOUR_RGB('',0.498039215803146,0.498039215803146,0.498039215803146);
#609=COLOUR_RGB('',0.498039215803146,0.498039215803146,0.498039215803146);
#610=COLOUR_RGB('',0.800000011920929,0.800000011920929,0.800000011920929);
#611=COLOUR_RGB('',0.800000011920929,0.800000011920929,0.800000011920929);
#612=COLOUR_RGB('',0.800000011920929,0.800000011920929,0.800000011920929);
#613=COLOUR_RGB('',0.498039215803146,0.498039215803146,0.498039215803146);
#614=COLOUR_RGB('',0.800000011920929,0.800000011920929,0.800000011920929);
#615=COLOUR_RGB('',0.498039215803146,0.498039215803146,0.498039215803146);
#616=COLOUR_RGB('',0.800000011920929,0.800000011920929,0.800000011920929);
#617=COLOUR_RGB('',0.498039215803146,0.498039215803146,0.498039215803146);
#618=COLOUR_RGB('',0.498039215803146,0.498039215803146,0.498039215803146);
#619=COLOUR_RGB('',0.800000011920929,0.800000011920929,0.800000011920929);
#620=AXIS2_PLACEMENT_3D('PCS',#621,#622,#623);
#621=CARTESIAN_POINT('',(0.0,0.0,0.0));
#622=DIRECTION('',(0.0,0.0,1.0));
#623=DIRECTION('',(1.0,0.0,0.0));
#624=AXIS2_PLACEMENT_3D('CIP',#625,#626,#627);
#625=CARTESIAN_POINT('',(0.0,0.0,-82.6));
#626=DIRECTION('',(0.0,0.0,1.0));
#627=DIRECTION('',(1.0,0.0,0.0));
#628=AXIS2_PLACEMENT_3D('CRP',#629,#630,#631);
#629=CARTESIAN_POINT('',(-4.7625,0.0,-82.6));
#630=DIRECTION('',(0.0,0.0,1.0));
#631=DIRECTION('',(1.0,0.0,0.0));
#632=AXIS2_PLACEMENT_3D('MCS',#633,#634,#635);
#633=CARTESIAN_POINT('',(0.0,0.0,-41.275));
#634=DIRECTION('',(0.0,0.0,1.0));
#635=DIRECTION('',(1.0,0.0,0.0));
#636=CONSTRUCTIVE_GEOMETRY_REPRESENTATION_RELATIONSHIP('coordinate systems',$,#65,#637);
#637=CONSTRUCTIVE_GEOMETRY_REPRESENTATION('coordinate systems',(#620,#624,#628,#632),#10);
ENDSEC;
END-ISO-10303-21;
