ISO-10303-21;
HEADER;
FILE_DESCRIPTION(('no description'),'unknown implementation level');
FILE_NAME('solid4pKwyIgVRLtJdOdn2ei_54xUJnQ_1.STP','  ',('CIMSOURCE GmbH'),('CADClick - KiM GmbH - www.kimweb.de'),'unknown preprocess','ACIS','unknown authorization');
FILE_SCHEMA(('automotive_design'));
ENDSEC;
DATA;
#1=MECHANICAL_DESIGN_GEOMETRIC_PRESENTATION_REPRESENTATION(' ',(#14,#15,#16,#17,#18,#19,#20,#21,#22,#23,#24,#25,#26,#27,#28,#29,#30,#31,#32,#33,#34,#35,#36,#37,#38,#39,#40,#41,#42,#43,#44,#45,#46,#47,#48,#49,#50,#51,#52,#53,#54,#55,#56,#57,#58,#59,#60),#10);
#2=PRODUCT_DEFINITION_CONTEXT('',#61,'design');
#3=APPLICATION_PROTOCOL_DEFINITION('INTERNATIONAL STANDARD','automotive_design',1994,#61);
#4=PRODUCT_CATEGORY_RELATIONSHIP('NONE','NONE',#62,#63);
#5=SHAPE_DEFINITION_REPRESENTATION(#64,#65);
#6=PRODUCT_DEFINITION_CONTEXT('',#66,'design');
#7=APPLICATION_PROTOCOL_DEFINITION('INTERNATIONAL STANDARD','automotive_design',1994,#66);
#8=PRODUCT_CATEGORY_RELATIONSHIP('NONE','NONE',#67,#68);
#9=SHAPE_DEFINITION_REPRESENTATION(#69,#70);
#10= (GEOMETRIC_REPRESENTATION_CONTEXT(3)GLOBAL_UNCERTAINTY_ASSIGNED_CONTEXT((#73))GLOBAL_UNIT_ASSIGNED_CONTEXT((#75,#76,#77))REPRESENTATION_CONTEXT('NONE','WORKSPACE'));
#14=STYLED_ITEM('',(#79),#80);
#15=STYLED_ITEM('',(#81),#82);
#16=STYLED_ITEM('',(#83),#84);
#17=STYLED_ITEM('',(#85),#86);
#18=STYLED_ITEM('',(#87),#88);
#19=STYLED_ITEM('',(#89),#90);
#20=STYLED_ITEM('',(#91),#92);
#21=STYLED_ITEM('',(#93),#94);
#22=STYLED_ITEM('',(#95),#96);
#23=STYLED_ITEM('',(#97),#98);
#24=STYLED_ITEM('',(#99),#100);
#25=STYLED_ITEM('',(#101),#102);
#26=STYLED_ITEM('',(#103),#104);
#27=STYLED_ITEM('',(#105),#106);
#28=STYLED_ITEM('',(#107),#108);
#29=STYLED_ITEM('',(#109),#110);
#30=STYLED_ITEM('',(#111),#112);
#31=STYLED_ITEM('',(#113),#114);
#32=STYLED_ITEM('',(#115),#116);
#33=STYLED_ITEM('',(#117),#118);
#34=STYLED_ITEM('',(#119),#120);
#35=STYLED_ITEM('',(#121),#122);
#36=STYLED_ITEM('',(#123),#124);
#37=STYLED_ITEM('',(#125),#126);
#38=STYLED_ITEM('',(#127),#128);
#39=STYLED_ITEM('',(#129),#130);
#40=STYLED_ITEM('',(#131),#132);
#41=STYLED_ITEM('',(#133),#134);
#42=STYLED_ITEM('',(#135),#136);
#43=STYLED_ITEM('',(#137),#138);
#44=STYLED_ITEM('',(#139),#140);
#45=STYLED_ITEM('',(#141),#142);
#46=STYLED_ITEM('',(#143),#144);
#47=STYLED_ITEM('',(#145),#146);
#48=STYLED_ITEM('',(#147),#148);
#49=STYLED_ITEM('',(#149),#150);
#50=STYLED_ITEM('',(#151),#152);
#51=STYLED_ITEM('',(#153),#154);
#52=STYLED_ITEM('',(#155),#156);
#53=STYLED_ITEM('',(#157),#158);
#54=STYLED_ITEM('',(#159),#160);
#55=STYLED_ITEM('',(#161),#162);
#56=STYLED_ITEM('',(#163),#164);
#57=STYLED_ITEM('',(#165),#166);
#58=STYLED_ITEM('',(#167),#168);
#59=STYLED_ITEM('',(#169),#170);
#60=STYLED_ITEM('',(#171),#172);
#61=APPLICATION_CONTEXT(' ');
#62=PRODUCT_CATEGORY('part','NONE');
#63=PRODUCT_RELATED_PRODUCT_CATEGORY('detail',' ',(#173));
#64=PRODUCT_DEFINITION_SHAPE('NONE','NONE',#174);
#65=ADVANCED_BREP_SHAPE_REPRESENTATION('1',(#86,#175),#10);
#66=APPLICATION_CONTEXT(' ');
#67=PRODUCT_CATEGORY('part','NONE');
#68=PRODUCT_RELATED_PRODUCT_CATEGORY('detail',' ',(#176));
#69=PRODUCT_DEFINITION_SHAPE('NONE','NONE',#177);
#70=ADVANCED_BREP_SHAPE_REPRESENTATION('2',(#148,#178),#10);
#73=UNCERTAINTY_MEASURE_WITH_UNIT(LENGTH_MEASURE(1.0E-006),#75,'','');
#75= (CONVERSION_BASED_UNIT('MILLIMETRE',#181)LENGTH_UNIT()NAMED_UNIT(#184));
#76= (NAMED_UNIT(#186)PLANE_ANGLE_UNIT()SI_UNIT($,.RADIAN.));
#77= (NAMED_UNIT(#186)SOLID_ANGLE_UNIT()SI_UNIT($,.STERADIAN.));
#79=PRESENTATION_STYLE_ASSIGNMENT((#192));
#80=VERTEX_POINT('',#193);
#81=PRESENTATION_STYLE_ASSIGNMENT((#194));
#82=ADVANCED_FACE('',(#195),#196,.T.);
#83=PRESENTATION_STYLE_ASSIGNMENT((#197));
#84=EDGE_CURVE('',#156,#134,#198,.T.);
#85=PRESENTATION_STYLE_ASSIGNMENT((#199));
#86=MANIFOLD_SOLID_BREP('1',#200);
#87=PRESENTATION_STYLE_ASSIGNMENT((#201));
#88=EDGE_CURVE('',#154,#80,#202,.T.);
#89=PRESENTATION_STYLE_ASSIGNMENT((#203));
#90=EDGE_CURVE('',#172,#154,#204,.T.);
#91=PRESENTATION_STYLE_ASSIGNMENT((#205));
#92=EDGE_CURVE('',#134,#144,#206,.T.);
#93=PRESENTATION_STYLE_ASSIGNMENT((#207));
#94=EDGE_CURVE('',#136,#152,#208,.T.);
#95=PRESENTATION_STYLE_ASSIGNMENT((#209));
#96=EDGE_CURVE('',#136,#134,#210,.T.);
#97=PRESENTATION_STYLE_ASSIGNMENT((#211));
#98=VERTEX_POINT('',#212);
#99=PRESENTATION_STYLE_ASSIGNMENT((#213));
#100=EDGE_CURVE('',#142,#156,#214,.T.);
#101=PRESENTATION_STYLE_ASSIGNMENT((#215));
#102=EDGE_CURVE('',#152,#136,#216,.T.);
#103=PRESENTATION_STYLE_ASSIGNMENT((#217));
#104=VERTEX_POINT('',#218);
#105=PRESENTATION_STYLE_ASSIGNMENT((#219));
#106=ADVANCED_FACE('',(#220),#221,.T.);
#107=PRESENTATION_STYLE_ASSIGNMENT((#222));
#108=EDGE_CURVE('',#98,#170,#223,.T.);
#109=PRESENTATION_STYLE_ASSIGNMENT((#224));
#110=ADVANCED_FACE('',(#225),#226,.T.);
#111=PRESENTATION_STYLE_ASSIGNMENT((#227));
#112=ADVANCED_FACE('',(#228),#229,.F.);
#113=PRESENTATION_STYLE_ASSIGNMENT((#230));
#114=ADVANCED_FACE('',(#231),#232,.T.);
#115=PRESENTATION_STYLE_ASSIGNMENT((#233));
#116=VERTEX_POINT('',#234);
#117=PRESENTATION_STYLE_ASSIGNMENT((#235));
#118=ADVANCED_FACE('',(#236),#237,.T.);
#119=PRESENTATION_STYLE_ASSIGNMENT((#238));
#120=EDGE_CURVE('',#156,#152,#239,.T.);
#121=PRESENTATION_STYLE_ASSIGNMENT((#240));
#122=EDGE_CURVE('',#134,#156,#241,.T.);
#123=PRESENTATION_STYLE_ASSIGNMENT((#242));
#124=ADVANCED_FACE('',(#243),#244,.F.);
#125=PRESENTATION_STYLE_ASSIGNMENT((#245));
#126=ADVANCED_FACE('',(#246),#247,.T.);
#127=PRESENTATION_STYLE_ASSIGNMENT((#248));
#128=EDGE_CURVE('',#144,#142,#249,.T.);
#129=PRESENTATION_STYLE_ASSIGNMENT((#250));
#130=ADVANCED_FACE('',(#251),#252,.T.);
#131=PRESENTATION_STYLE_ASSIGNMENT((#253));
#132=EDGE_CURVE('',#116,#104,#254,.T.);
#133=PRESENTATION_STYLE_ASSIGNMENT((#255));
#134=VERTEX_POINT('',#256);
#135=PRESENTATION_STYLE_ASSIGNMENT((#257));
#136=VERTEX_POINT('',#258);
#137=PRESENTATION_STYLE_ASSIGNMENT((#259));
#138=EDGE_CURVE('',#142,#144,#260,.T.);
#139=PRESENTATION_STYLE_ASSIGNMENT((#261));
#140=EDGE_CURVE('',#170,#116,#262,.T.);
#141=PRESENTATION_STYLE_ASSIGNMENT((#263));
#142=VERTEX_POINT('',#264);
#143=PRESENTATION_STYLE_ASSIGNMENT((#265));
#144=VERTEX_POINT('',#266);
#145=PRESENTATION_STYLE_ASSIGNMENT((#267));
#146=ADVANCED_FACE('',(#268,#269),#270,.T.);
#147=PRESENTATION_STYLE_ASSIGNMENT((#271));
#148=MANIFOLD_SOLID_BREP('2',#272);
#149=PRESENTATION_STYLE_ASSIGNMENT((#273));
#150=ADVANCED_FACE('',(#274),#275,.T.);
#151=PRESENTATION_STYLE_ASSIGNMENT((#276));
#152=VERTEX_POINT('',#277);
#153=PRESENTATION_STYLE_ASSIGNMENT((#278));
#154=VERTEX_POINT('',#279);
#155=PRESENTATION_STYLE_ASSIGNMENT((#280));
#156=VERTEX_POINT('',#281);
#157=PRESENTATION_STYLE_ASSIGNMENT((#282));
#158=EDGE_CURVE('',#116,#170,#283,.T.);
#159=PRESENTATION_STYLE_ASSIGNMENT((#284));
#160=EDGE_CURVE('',#80,#154,#285,.T.);
#161=PRESENTATION_STYLE_ASSIGNMENT((#286));
#162=EDGE_CURVE('',#80,#172,#287,.T.);
#163=PRESENTATION_STYLE_ASSIGNMENT((#288));
#164=EDGE_CURVE('',#98,#104,#289,.T.);
#165=PRESENTATION_STYLE_ASSIGNMENT((#290));
#166=EDGE_CURVE('',#104,#98,#291,.T.);
#167=PRESENTATION_STYLE_ASSIGNMENT((#292));
#168=ADVANCED_FACE('',(#293),#294,.T.);
#169=PRESENTATION_STYLE_ASSIGNMENT((#295));
#170=VERTEX_POINT('',#296);
#171=PRESENTATION_STYLE_ASSIGNMENT((#297));
#172=VERTEX_POINT('',#298);
#173=PRODUCT('1','1','PART-1-DESC',(#299));
#174=PRODUCT_DEFINITION('NONE','NONE',#300,#2);
#175=AXIS2_PLACEMENT_3D('',#301,#302,#303);
#176=PRODUCT('2','2','PART-2-DESC',(#304));
#177=PRODUCT_DEFINITION('NONE','NONE',#305,#6);
#178=AXIS2_PLACEMENT_3D('',#306,#307,#308);
#181=LENGTH_MEASURE_WITH_UNIT(LENGTH_MEASURE(1.0),#309);
#184=DIMENSIONAL_EXPONENTS(1.0,0.0,0.0,0.0,0.0,0.0,0.0);
#186=DIMENSIONAL_EXPONENTS(0.0,0.0,0.0,0.0,0.0,0.0,0.0);
#192=POINT_STYLE(' ',#310,POSITIVE_LENGTH_MEASURE(1.0E-006),#311);
#193=CARTESIAN_POINT('',(0.0,9.08628256877921,-53.89));
#194=SURFACE_STYLE_USAGE(.BOTH.,#312);
#195=FACE_OUTER_BOUND('',#313,.T.);
#196=CONICAL_SURFACE('',#314,6.92689128438961,0.0523586702220446);
#197=CURVE_STYLE('',#315,POSITIVE_LENGTH_MEASURE(1.0E-006),#316);
#198=CIRCLE('',#317,7.9375);
#199=SURFACE_STYLE_USAGE(.BOTH.,#318);
#200=CLOSED_SHELL('',(#82,#112,#124,#146,#106,#114));
#201=CURVE_STYLE('',#319,POSITIVE_LENGTH_MEASURE(1.0E-006),#320);
#202=CIRCLE('',#321,9.08628256877921);
#203=CURVE_STYLE('',#322,POSITIVE_LENGTH_MEASURE(1.0E-006),#323);
#204=LINE('',#324,#325);
#205=CURVE_STYLE('',#326,POSITIVE_LENGTH_MEASURE(1.0E-006),#327);
#206=LINE('',#328,#329);
#207=CURVE_STYLE('',#330,POSITIVE_LENGTH_MEASURE(1.0E-006),#331);
#208=CIRCLE('',#332,7.9375);
#209=CURVE_STYLE('',#333,POSITIVE_LENGTH_MEASURE(1.0E-006),#334);
#210=LINE('',#335,#336);
#211=POINT_STYLE(' ',#337,POSITIVE_LENGTH_MEASURE(1.0E-006),#338);
#212=CARTESIAN_POINT('',(0.0,9.09128256877921,-53.89));
#213=CURVE_STYLE('',#339,POSITIVE_LENGTH_MEASURE(1.0E-006),#340);
#214=LINE('',#341,#342);
#215=CURVE_STYLE('',#343,POSITIVE_LENGTH_MEASURE(1.0E-006),#344);
#216=CIRCLE('',#345,7.9375);
#217=POINT_STYLE(' ',#346,POSITIVE_LENGTH_MEASURE(1.0E-006),#347);
#218=CARTESIAN_POINT('',(1.11332423981216E-015,-9.09128256877921,-53.89));
#219=SURFACE_STYLE_USAGE(.BOTH.,#348);
#220=FACE_OUTER_BOUND('',#349,.T.);
#221=CONICAL_SURFACE('',#350,6.92689128438961,0.0523586702220446);
#222=CURVE_STYLE('',#351,POSITIVE_LENGTH_MEASURE(1.0E-006),#352);
#223=LINE('',#353,#354);
#224=SURFACE_STYLE_USAGE(.BOTH.,#355);
#225=FACE_OUTER_BOUND('',#356,.T.);
#226=CYLINDRICAL_SURFACE('',#357,7.9375);
#227=SURFACE_STYLE_USAGE(.BOTH.,#358);
#228=FACE_OUTER_BOUND('',#359,.T.);
#229=CONICAL_SURFACE('',#360,4.54314128438961,1.56969576714502);
#230=SURFACE_STYLE_USAGE(.BOTH.,#361);
#231=FACE_OUTER_BOUND('',#362,.T.);
#232=PLANE('',#363);
#233=POINT_STYLE(' ',#364,POSITIVE_LENGTH_MEASURE(1.0E-006),#365);
#234=CARTESIAN_POINT('',(5.83218776007907E-016,-4.7625,-136.49));
#235=SURFACE_STYLE_USAGE(.BOTH.,#366);
#236=FACE_OUTER_BOUND('',#367,.T.);
#237=PLANE('',#368);
#238=CURVE_STYLE('',#369,POSITIVE_LENGTH_MEASURE(1.0E-006),#370);
#239=LINE('',#371,#372);
#240=CURVE_STYLE('',#373,POSITIVE_LENGTH_MEASURE(1.0E-006),#374);
#241=CIRCLE('',#375,7.9375);
#242=SURFACE_STYLE_USAGE(.BOTH.,#376);
#243=FACE_OUTER_BOUND('',#377,.T.);
#244=CONICAL_SURFACE('',#378,4.54314128438961,1.56969576714502);
#245=SURFACE_STYLE_USAGE(.BOTH.,#379);
#246=FACE_OUTER_BOUND('',#380,.T.);
#247=CONICAL_SURFACE('',#381,7.70829194313172,0.523598775598301);
#248=CURVE_STYLE('',#382,POSITIVE_LENGTH_MEASURE(1.0E-006),#383);
#249=CIRCLE('',#384,7.47908388626344);
#250=SURFACE_STYLE_USAGE(.BOTH.,#385);
#251=FACE_OUTER_BOUND('',#386,.T.);
#252=CONICAL_SURFACE('',#387,7.70829194313172,0.523598775598301);
#253=CURVE_STYLE('',#388,POSITIVE_LENGTH_MEASURE(1.0E-006),#389);
#254=LINE('',#390,#391);
#255=POINT_STYLE(' ',#392,POSITIVE_LENGTH_MEASURE(1.0E-006),#393);
#256=CARTESIAN_POINT('',(9.72031293346512E-016,-7.9375,-0.783999999999999));
#257=POINT_STYLE(' ',#394,POSITIVE_LENGTH_MEASURE(1.0E-006),#395);
#258=CARTESIAN_POINT('',(0.0,-7.9375,-53.89));
#259=CURVE_STYLE('',#396,POSITIVE_LENGTH_MEASURE(1.0E-006),#397);
#260=CIRCLE('',#398,7.47908388626344);
#261=CURVE_STYLE('',#399,POSITIVE_LENGTH_MEASURE(1.0E-006),#400);
#262=CIRCLE('',#401,4.7625);
#263=POINT_STYLE(' ',#402,POSITIVE_LENGTH_MEASURE(1.0E-006),#403);
#264=CARTESIAN_POINT('',(0.0,7.47908388626344,0.00999999999999801));
#265=POINT_STYLE(' ',#404,POSITIVE_LENGTH_MEASURE(1.0E-006),#405);
#266=CARTESIAN_POINT('',(9.15893364788876E-016,-7.47908388626344,0.00999999999999801));
#267=SURFACE_STYLE_USAGE(.BOTH.,#406);
#268=FACE_OUTER_BOUND('',#407,.T.);
#269=FACE_BOUND('',#408,.T.);
#270=PLANE('',#409);
#271=SURFACE_STYLE_USAGE(.BOTH.,#410);
#272=CLOSED_SHELL('',(#110,#130,#118,#168,#126,#150));
#273=SURFACE_STYLE_USAGE(.BOTH.,#411);
#274=FACE_OUTER_BOUND('',#412,.T.);
#275=CYLINDRICAL_SURFACE('',#413,7.9375);
#276=POINT_STYLE(' ',#414,POSITIVE_LENGTH_MEASURE(1.0E-006),#415);
#277=CARTESIAN_POINT('',(-9.72031293346512E-016,7.9375,-53.89));
#278=POINT_STYLE(' ',#416,POSITIVE_LENGTH_MEASURE(1.0E-006),#417);
#279=CARTESIAN_POINT('',(1.11271193663525E-015,-9.08628256877921,-53.89));
#280=POINT_STYLE(' ',#418,POSITIVE_LENGTH_MEASURE(1.0E-006),#419);
#281=CARTESIAN_POINT('',(0.0,7.9375,-0.783999999999999));
#282=CURVE_STYLE('',#420,POSITIVE_LENGTH_MEASURE(1.0E-006),#421);
#283=CIRCLE('',#422,4.7625);
#284=CURVE_STYLE('',#423,POSITIVE_LENGTH_MEASURE(1.0E-006),#424);
#285=CIRCLE('',#425,9.08628256877921);
#286=CURVE_STYLE('',#426,POSITIVE_LENGTH_MEASURE(1.0E-006),#427);
#287=LINE('',#428,#429);
#288=CURVE_STYLE('',#430,POSITIVE_LENGTH_MEASURE(1.0E-006),#431);
#289=CIRCLE('',#432,9.09128256877921);
#290=CURVE_STYLE('',#433,POSITIVE_LENGTH_MEASURE(1.0E-006),#434);
#291=CIRCLE('',#435,9.09128256877921);
#292=SURFACE_STYLE_USAGE(.BOTH.,#436);
#293=FACE_OUTER_BOUND('',#437,.T.);
#294=PLANE('',#438);
#295=POINT_STYLE(' ',#439,POSITIVE_LENGTH_MEASURE(1.0E-006),#440);
#296=CARTESIAN_POINT('',(0.0,4.7625,-136.49));
#297=POINT_STYLE(' ',#441,POSITIVE_LENGTH_MEASURE(1.0E-006),#442);
#298=CARTESIAN_POINT('',(0.0,0.0,-53.9));
#299=PRODUCT_CONTEXT('',#61,'mechanical');
#300=PRODUCT_DEFINITION_FORMATION_WITH_SPECIFIED_SOURCE(' ','NONE',#173,.NOT_KNOWN.);
#301=CARTESIAN_POINT('',(0.0,0.0,0.0));
#302=DIRECTION('',(0.0,0.0,1.0));
#303=DIRECTION('',(1.0,0.0,0.0));
#304=PRODUCT_CONTEXT('',#66,'mechanical');
#305=PRODUCT_DEFINITION_FORMATION_WITH_SPECIFIED_SOURCE(' ','NONE',#176,.NOT_KNOWN.);
#306=CARTESIAN_POINT('',(0.0,0.0,0.0));
#307=DIRECTION('',(0.0,0.0,1.0));
#308=DIRECTION('',(1.0,0.0,0.0));
#309= (NAMED_UNIT(#184)LENGTH_UNIT()SI_UNIT(.MILLI.,.METRE.));
#310=PRE_DEFINED_MARKER('');
#311=COLOUR_RGB('',0.800000011920929,0.800000011920929,0.800000011920929);
#312=SURFACE_SIDE_STYLE('',(#444));
#313=EDGE_LOOP('',(#445,#446,#447,#448));
#314=AXIS2_PLACEMENT_3D('',#449,#450,#451);
#315=DRAUGHTING_PRE_DEFINED_CURVE_FONT('continuous');
#316=COLOUR_RGB('',0.498039215803146,0.498039215803146,0.498039215803146);
#317=AXIS2_PLACEMENT_3D('',#452,#453,#454);
#318=SURFACE_SIDE_STYLE('',(#455));
#319=DRAUGHTING_PRE_DEFINED_CURVE_FONT('continuous');
#320=COLOUR_RGB('',0.800000011920929,0.800000011920929,0.800000011920929);
#321=AXIS2_PLACEMENT_3D('',#456,#457,#458);
#322=DRAUGHTING_PRE_DEFINED_CURVE_FONT('continuous');
#323=COLOUR_RGB('',0.800000011920929,0.800000011920929,0.800000011920929);
#324=CARTESIAN_POINT('',(5.56355968317627E-016,-4.54314128438961,-53.895));
#325=VECTOR('',#459,1.0);
#326=DRAUGHTING_PRE_DEFINED_CURVE_FONT('continuous');
#327=COLOUR_RGB('',0.498039215803146,0.498039215803146,0.498039215803146);
#328=CARTESIAN_POINT('',(9.43962329067694E-016,-7.70829194313172,-0.387));
#329=VECTOR('',#460,1.0);
#330=DRAUGHTING_PRE_DEFINED_CURVE_FONT('continuous');
#331=COLOUR_RGB('',0.498039215803146,0.498039215803146,0.498039215803146);
#332=AXIS2_PLACEMENT_3D('',#461,#462,#463);
#333=DRAUGHTING_PRE_DEFINED_CURVE_FONT('continuous');
#334=COLOUR_RGB('',0.498039215803146,0.498039215803146,0.498039215803146);
#335=CARTESIAN_POINT('',(9.72031293346512E-016,-7.9375,-22.5745));
#336=VECTOR('',#464,1.0);
#337=PRE_DEFINED_MARKER('');
#338=COLOUR_RGB('',0.800000011920929,0.800000011920929,0.800000011920929);
#339=DRAUGHTING_PRE_DEFINED_CURVE_FONT('continuous');
#340=COLOUR_RGB('',0.498039215803146,0.498039215803146,0.498039215803146);
#341=CARTESIAN_POINT('',(-9.43962329067694E-016,7.70829194313172,-0.387));
#342=VECTOR('',#465,1.0);
#343=DRAUGHTING_PRE_DEFINED_CURVE_FONT('continuous');
#344=COLOUR_RGB('',0.498039215803146,0.498039215803146,0.498039215803146);
#345=AXIS2_PLACEMENT_3D('',#466,#467,#468);
#346=PRE_DEFINED_MARKER('');
#347=COLOUR_RGB('',0.800000011920929,0.800000011920929,0.800000011920929);
#348=SURFACE_SIDE_STYLE('',(#469));
#349=EDGE_LOOP('',(#470,#471,#472,#473));
#350=AXIS2_PLACEMENT_3D('',#474,#475,#476);
#351=DRAUGHTING_PRE_DEFINED_CURVE_FONT('continuous');
#352=COLOUR_RGB('',0.800000011920929,0.800000011920929,0.800000011920929);
#353=CARTESIAN_POINT('',(-8.48271507910036E-016,6.92689128438961,-95.19));
#354=VECTOR('',#477,1.0);
#355=SURFACE_SIDE_STYLE('',(#478));
#356=EDGE_LOOP('',(#479,#480,#481,#482));
#357=AXIS2_PLACEMENT_3D('',#483,#484,#485);
#358=SURFACE_SIDE_STYLE('',(#486));
#359=EDGE_LOOP('',(#487,#488,#489));
#360=AXIS2_PLACEMENT_3D('',#490,#491,#492);
#361=SURFACE_SIDE_STYLE('',(#493));
#362=EDGE_LOOP('',(#494,#495));
#363=AXIS2_PLACEMENT_3D('',#496,#497,#498);
#364=PRE_DEFINED_MARKER('');
#365=COLOUR_RGB('',0.800000011920929,0.800000011920929,0.800000011920929);
#366=SURFACE_SIDE_STYLE('',(#499));
#367=EDGE_LOOP('',(#500,#501));
#368=AXIS2_PLACEMENT_3D('',#502,#503,#504);
#369=DRAUGHTING_PRE_DEFINED_CURVE_FONT('continuous');
#370=COLOUR_RGB('',0.498039215803146,0.498039215803146,0.498039215803146);
#371=CARTESIAN_POINT('',(-9.72031293346512E-016,7.9375,-22.5745));
#372=VECTOR('',#505,1.0);
#373=DRAUGHTING_PRE_DEFINED_CURVE_FONT('continuous');
#374=COLOUR_RGB('',0.498039215803146,0.498039215803146,0.498039215803146);
#375=AXIS2_PLACEMENT_3D('',#506,#507,#508);
#376=SURFACE_SIDE_STYLE('',(#509));
#377=EDGE_LOOP('',(#510,#511,#512));
#378=AXIS2_PLACEMENT_3D('',#513,#514,#515);
#379=SURFACE_SIDE_STYLE('',(#516));
#380=EDGE_LOOP('',(#517,#518,#519,#520));
#381=AXIS2_PLACEMENT_3D('',#521,#522,#523);
#382=DRAUGHTING_PRE_DEFINED_CURVE_FONT('continuous');
#383=COLOUR_RGB('',0.498039215803146,0.498039215803146,0.498039215803146);
#384=AXIS2_PLACEMENT_3D('',#524,#525,#526);
#385=SURFACE_SIDE_STYLE('',(#527));
#386=EDGE_LOOP('',(#528,#529,#530,#531));
#387=AXIS2_PLACEMENT_3D('',#532,#533,#534);
#388=DRAUGHTING_PRE_DEFINED_CURVE_FONT('continuous');
#389=COLOUR_RGB('',0.800000011920929,0.800000011920929,0.800000011920929);
#390=CARTESIAN_POINT('',(8.48271507910036E-016,-6.92689128438961,-95.19));
#391=VECTOR('',#535,1.0);
#392=PRE_DEFINED_MARKER('');
#393=COLOUR_RGB('',0.498039215803146,0.498039215803146,0.498039215803146);
#394=PRE_DEFINED_MARKER('');
#395=COLOUR_RGB('',0.498039215803146,0.498039215803146,0.498039215803146);
#396=DRAUGHTING_PRE_DEFINED_CURVE_FONT('continuous');
#397=COLOUR_RGB('',0.498039215803146,0.498039215803146,0.498039215803146);
#398=AXIS2_PLACEMENT_3D('',#536,#537,#538);
#399=DRAUGHTING_PRE_DEFINED_CURVE_FONT('continuous');
#400=COLOUR_RGB('',0.800000011920929,0.800000011920929,0.800000011920929);
#401=AXIS2_PLACEMENT_3D('',#539,#540,#541);
#402=PRE_DEFINED_MARKER('');
#403=COLOUR_RGB('',0.498039215803146,0.498039215803146,0.498039215803146);
#404=PRE_DEFINED_MARKER('');
#405=COLOUR_RGB('',0.498039215803146,0.498039215803146,0.498039215803146);
#406=SURFACE_SIDE_STYLE('',(#542));
#407=EDGE_LOOP('',(#543,#544));
#408=EDGE_LOOP('',(#545,#546));
#409=AXIS2_PLACEMENT_3D('',#547,#548,#549);
#410=SURFACE_SIDE_STYLE('',(#550));
#411=SURFACE_SIDE_STYLE('',(#551));
#412=EDGE_LOOP('',(#552,#553,#554,#555));
#413=AXIS2_PLACEMENT_3D('',#556,#557,#558);
#414=PRE_DEFINED_MARKER('');
#415=COLOUR_RGB('',0.498039215803146,0.498039215803146,0.498039215803146);
#416=PRE_DEFINED_MARKER('');
#417=COLOUR_RGB('',0.800000011920929,0.800000011920929,0.800000011920929);
#418=PRE_DEFINED_MARKER('');
#419=COLOUR_RGB('',0.498039215803146,0.498039215803146,0.498039215803146);
#420=DRAUGHTING_PRE_DEFINED_CURVE_FONT('continuous');
#421=COLOUR_RGB('',0.800000011920929,0.800000011920929,0.800000011920929);
#422=AXIS2_PLACEMENT_3D('',#559,#560,#561);
#423=DRAUGHTING_PRE_DEFINED_CURVE_FONT('continuous');
#424=COLOUR_RGB('',0.800000011920929,0.800000011920929,0.800000011920929);
#425=AXIS2_PLACEMENT_3D('',#562,#563,#564);
#426=DRAUGHTING_PRE_DEFINED_CURVE_FONT('continuous');
#427=COLOUR_RGB('',0.800000011920929,0.800000011920929,0.800000011920929);
#428=CARTESIAN_POINT('',(-5.56355968317626E-016,4.54314128438961,-53.895));
#429=VECTOR('',#565,1.0);
#430=DRAUGHTING_PRE_DEFINED_CURVE_FONT('continuous');
#431=COLOUR_RGB('',0.800000011920929,0.800000011920929,0.800000011920929);
#432=AXIS2_PLACEMENT_3D('',#566,#567,#568);
#433=DRAUGHTING_PRE_DEFINED_CURVE_FONT('continuous');
#434=COLOUR_RGB('',0.800000011920929,0.800000011920929,0.800000011920929);
#435=AXIS2_PLACEMENT_3D('',#569,#570,#571);
#436=SURFACE_SIDE_STYLE('',(#572));
#437=EDGE_LOOP('',(#573,#574));
#438=AXIS2_PLACEMENT_3D('',#575,#576,#577);
#439=PRE_DEFINED_MARKER('');
#440=COLOUR_RGB('',0.800000011920929,0.800000011920929,0.800000011920929);
#441=PRE_DEFINED_MARKER('');
#442=COLOUR_RGB('',0.800000011920929,0.800000011920929,0.800000011920929);
#444=SURFACE_STYLE_FILL_AREA(#578);
#445=ORIENTED_EDGE('',*,*,#108,.F.);
#446=ORIENTED_EDGE('',*,*,#164,.T.);
#447=ORIENTED_EDGE('',*,*,#132,.F.);
#448=ORIENTED_EDGE('',*,*,#140,.F.);
#449=CARTESIAN_POINT('',(0.0,0.0,-95.19));
#450=DIRECTION('',(-0.0,-0.0,1.0));
#451=DIRECTION('',(0.0,1.0,0.0));
#452=CARTESIAN_POINT('',(0.0,0.0,-0.783999999999999));
#453=DIRECTION('',(0.0,0.0,-1.0));
#454=DIRECTION('',(0.0,1.0,0.0));
#455=SURFACE_STYLE_FILL_AREA(#579);
#456=CARTESIAN_POINT('',(0.0,0.0,-53.89));
#457=DIRECTION('',(0.0,0.0,-1.0));
#458=DIRECTION('',(0.0,1.0,0.0));
#459=DIRECTION('',(1.22460561218153E-016,-0.99999939438429,0.00110055942770229));
#460=DIRECTION('',(-6.12303176911191E-017,0.500000000000002,0.866025403784438));
#461=CARTESIAN_POINT('',(0.0,0.0,-53.89));
#462=DIRECTION('',(0.0,0.0,-1.0));
#463=DIRECTION('',(0.0,-1.0,0.0));
#464=DIRECTION('',(-0.0,-0.0,1.0));
#465=DIRECTION('',(-6.12303176911191E-017,0.500000000000002,-0.866025403784438));
#466=CARTESIAN_POINT('',(0.0,0.0,-53.89));
#467=DIRECTION('',(0.0,0.0,-1.0));
#468=DIRECTION('',(0.0,-1.0,0.0));
#469=SURFACE_STYLE_FILL_AREA(#580);
#470=ORIENTED_EDGE('',*,*,#108,.T.);
#471=ORIENTED_EDGE('',*,*,#158,.F.);
#472=ORIENTED_EDGE('',*,*,#132,.T.);
#473=ORIENTED_EDGE('',*,*,#166,.T.);
#474=CARTESIAN_POINT('',(0.0,0.0,-95.19));
#475=DIRECTION('',(-0.0,-0.0,1.0));
#476=DIRECTION('',(0.0,1.0,0.0));
#477=DIRECTION('',(6.40894680611605E-018,-0.0523347505597348,-0.998629597941024));
#478=SURFACE_STYLE_FILL_AREA(#581);
#479=ORIENTED_EDGE('',*,*,#120,.F.);
#480=ORIENTED_EDGE('',*,*,#84,.T.);
#481=ORIENTED_EDGE('',*,*,#96,.F.);
#482=ORIENTED_EDGE('',*,*,#102,.F.);
#483=CARTESIAN_POINT('',(0.0,0.0,-22.5745));
#484=DIRECTION('',(-0.0,-0.0,1.0));
#485=DIRECTION('',(0.0,1.0,0.0));
#486=SURFACE_STYLE_FILL_AREA(#582);
#487=ORIENTED_EDGE('',*,*,#90,.F.);
#488=ORIENTED_EDGE('',*,*,#162,.F.);
#489=ORIENTED_EDGE('',*,*,#88,.F.);
#490=CARTESIAN_POINT('',(0.0,0.0,-53.895));
#491=DIRECTION('',(-0.0,-0.0,1.0));
#492=DIRECTION('',(0.0,1.0,0.0));
#493=SURFACE_STYLE_FILL_AREA(#583);
#494=ORIENTED_EDGE('',*,*,#140,.T.);
#495=ORIENTED_EDGE('',*,*,#158,.T.);
#496=CARTESIAN_POINT('',(0.0,2.37875,-136.49));
#497=DIRECTION('',(0.0,0.0,-1.0));
#498=DIRECTION('',(0.0,1.0,0.0));
#499=SURFACE_STYLE_FILL_AREA(#584);
#500=ORIENTED_EDGE('',*,*,#94,.T.);
#501=ORIENTED_EDGE('',*,*,#102,.T.);
#502=CARTESIAN_POINT('',(0.0,0.0,-53.89));
#503=DIRECTION('',(0.0,0.0,-1.0));
#504=DIRECTION('',(0.0,-1.0,0.0));
#505=DIRECTION('',(0.0,0.0,-1.0));
#506=CARTESIAN_POINT('',(0.0,0.0,-0.783999999999999));
#507=DIRECTION('',(0.0,0.0,-1.0));
#508=DIRECTION('',(0.0,1.0,0.0));
#509=SURFACE_STYLE_FILL_AREA(#585);
#510=ORIENTED_EDGE('',*,*,#90,.T.);
#511=ORIENTED_EDGE('',*,*,#160,.F.);
#512=ORIENTED_EDGE('',*,*,#162,.T.);
#513=CARTESIAN_POINT('',(0.0,0.0,-53.895));
#514=DIRECTION('',(-0.0,-0.0,1.0));
#515=DIRECTION('',(0.0,1.0,0.0));
#516=SURFACE_STYLE_FILL_AREA(#586);
#517=ORIENTED_EDGE('',*,*,#100,.T.);
#518=ORIENTED_EDGE('',*,*,#122,.F.);
#519=ORIENTED_EDGE('',*,*,#92,.T.);
#520=ORIENTED_EDGE('',*,*,#128,.T.);
#521=CARTESIAN_POINT('',(0.0,0.0,-0.387));
#522=DIRECTION('',(0.0,-0.0,-1.0));
#523=DIRECTION('',(0.0,1.0,0.0));
#524=CARTESIAN_POINT('',(0.0,0.0,0.00999999999999801));
#525=DIRECTION('',(0.0,0.0,-1.0));
#526=DIRECTION('',(0.0,1.0,0.0));
#527=SURFACE_STYLE_FILL_AREA(#587);
#528=ORIENTED_EDGE('',*,*,#100,.F.);
#529=ORIENTED_EDGE('',*,*,#138,.T.);
#530=ORIENTED_EDGE('',*,*,#92,.F.);
#531=ORIENTED_EDGE('',*,*,#84,.F.);
#532=CARTESIAN_POINT('',(0.0,0.0,-0.387));
#533=DIRECTION('',(0.0,-0.0,-1.0));
#534=DIRECTION('',(0.0,1.0,0.0));
#535=DIRECTION('',(6.40894680611605E-018,-0.0523347505597348,0.998629597941024));
#536=CARTESIAN_POINT('',(0.0,0.0,0.00999999999999801));
#537=DIRECTION('',(0.0,0.0,-1.0));
#538=DIRECTION('',(0.0,1.0,0.0));
#539=CARTESIAN_POINT('',(0.0,0.0,-136.49));
#540=DIRECTION('',(0.0,0.0,-1.0));
#541=DIRECTION('',(0.0,1.0,0.0));
#542=SURFACE_STYLE_FILL_AREA(#588);
#543=ORIENTED_EDGE('',*,*,#164,.F.);
#544=ORIENTED_EDGE('',*,*,#166,.F.);
#545=ORIENTED_EDGE('',*,*,#160,.T.);
#546=ORIENTED_EDGE('',*,*,#88,.T.);
#547=CARTESIAN_POINT('',(0.0,9.08878256877921,-53.89));
#548=DIRECTION('',(-0.0,0.0,1.0));
#549=DIRECTION('',(0.0,-1.0,0.0));
#550=SURFACE_STYLE_FILL_AREA(#589);
#551=SURFACE_STYLE_FILL_AREA(#590);
#552=ORIENTED_EDGE('',*,*,#120,.T.);
#553=ORIENTED_EDGE('',*,*,#94,.F.);
#554=ORIENTED_EDGE('',*,*,#96,.T.);
#555=ORIENTED_EDGE('',*,*,#122,.T.);
#556=CARTESIAN_POINT('',(0.0,0.0,-22.5745));
#557=DIRECTION('',(-0.0,-0.0,1.0));
#558=DIRECTION('',(0.0,1.0,0.0));
#559=CARTESIAN_POINT('',(0.0,0.0,-136.49));
#560=DIRECTION('',(0.0,0.0,-1.0));
#561=DIRECTION('',(0.0,1.0,0.0));
#562=CARTESIAN_POINT('',(0.0,0.0,-53.89));
#563=DIRECTION('',(0.0,0.0,-1.0));
#564=DIRECTION('',(0.0,1.0,0.0));
#565=DIRECTION('',(1.22460561218153E-016,-0.99999939438429,-0.00110055942770229));
#566=CARTESIAN_POINT('',(0.0,0.0,-53.89));
#567=DIRECTION('',(0.0,0.0,-1.0));
#568=DIRECTION('',(0.0,1.0,0.0));
#569=CARTESIAN_POINT('',(0.0,0.0,-53.89));
#570=DIRECTION('',(0.0,0.0,-1.0));
#571=DIRECTION('',(0.0,1.0,0.0));
#572=SURFACE_STYLE_FILL_AREA(#591);
#573=ORIENTED_EDGE('',*,*,#138,.F.);
#574=ORIENTED_EDGE('',*,*,#128,.F.);
#575=CARTESIAN_POINT('',(0.0,3.73954194313172,0.00999999999999801));
#576=DIRECTION('',(-0.0,0.0,1.0));
#577=DIRECTION('',(0.0,-1.0,0.0));
#578=FILL_AREA_STYLE('',(#592));
#579=FILL_AREA_STYLE('',(#593));
#580=FILL_AREA_STYLE('',(#594));
#581=FILL_AREA_STYLE('',(#595));
#582=FILL_AREA_STYLE('',(#596));
#583=FILL_AREA_STYLE('',(#597));
#584=FILL_AREA_STYLE('',(#598));
#585=FILL_AREA_STYLE('',(#599));
#586=FILL_AREA_STYLE('',(#600));
#587=FILL_AREA_STYLE('',(#601));
#588=FILL_AREA_STYLE('',(#602));
#589=FILL_AREA_STYLE('',(#603));
#590=FILL_AREA_STYLE('',(#604));
#591=FILL_AREA_STYLE('',(#605));
#592=FILL_AREA_STYLE_COLOUR('',#606);
#593=FILL_AREA_STYLE_COLOUR('',#607);
#594=FILL_AREA_STYLE_COLOUR('',#608);
#595=FILL_AREA_STYLE_COLOUR('',#609);
#596=FILL_AREA_STYLE_COLOUR('',#610);
#597=FILL_AREA_STYLE_COLOUR('',#611);
#598=FILL_AREA_STYLE_COLOUR('',#612);
#599=FILL_AREA_STYLE_COLOUR('',#613);
#600=FILL_AREA_STYLE_COLOUR('',#614);
#601=FILL_AREA_STYLE_COLOUR('',#615);
#602=FILL_AREA_STYLE_COLOUR('',#616);
#603=FILL_AREA_STYLE_COLOUR('',#617);
#604=FILL_AREA_STYLE_COLOUR('',#618);
#605=FILL_AREA_STYLE_COLOUR('',#619);
#606=COLOUR_RGB('',0.800000011920929,0.800000011920929,0.800000011920929);
#607=COLOUR_RGB('',0.800000011920929,0.800000011920929,0.800000011920929);
#608=COLOUR_RGB('',0.800000011920929,0.800000011920929,0.800000011920929);
#609=COLOUR_RGB('',0.498039215803146,0.498039215803146,0.498039215803146);
#610=COLOUR_RGB('',0.800000011920929,0.800000011920929,0.800000011920929);
#611=COLOUR_RGB('',0.800000011920929,0.800000011920929,0.800000011920929);
#612=COLOUR_RGB('',0.498039215803146,0.498039215803146,0.498039215803146);
#613=COLOUR_RGB('',0.800000011920929,0.800000011920929,0.800000011920929);
#614=COLOUR_RGB('',0.498039215803146,0.498039215803146,0.498039215803146);
#615=COLOUR_RGB('',0.498039215803146,0.498039215803146,0.498039215803146);
#616=COLOUR_RGB('',0.800000011920929,0.800000011920929,0.800000011920929);
#617=COLOUR_RGB('',0.800000011920929,0.800000011920929,0.800000011920929);
#618=COLOUR_RGB('',0.498039215803146,0.498039215803146,0.498039215803146);
#619=COLOUR_RGB('',0.498039215803146,0.498039215803146,0.498039215803146);
#620=AXIS2_PLACEMENT_3D('PCS',#621,#622,#623);
#621=CARTESIAN_POINT('',(0.0,0.0,0.0));
#622=DIRECTION('',(0.0,0.0,1.0));
#623=DIRECTION('',(1.0,0.0,0.0));
#624=AXIS2_PLACEMENT_3D('CIP',#625,#626,#627);
#625=CARTESIAN_POINT('',(0.0,0.0,-136.5));
#626=DIRECTION('',(0.0,0.0,1.0));
#627=DIRECTION('',(1.0,0.0,0.0));
#628=AXIS2_PLACEMENT_3D('CRP',#629,#630,#631);
#629=CARTESIAN_POINT('',(-4.7625,0.0,-136.5));
#630=DIRECTION('',(0.0,0.0,1.0));
#631=DIRECTION('',(1.0,0.0,0.0));
#632=AXIS2_PLACEMENT_3D('MCS',#633,#634,#635);
#633=CARTESIAN_POINT('',(0.0,0.0,-44.375));
#634=DIRECTION('',(0.0,0.0,1.0));
#635=DIRECTION('',(1.0,0.0,0.0));
#636=CONSTRUCTIVE_GEOMETRY_REPRESENTATION_RELATIONSHIP('coordinate systems',$,#65,#637);
#637=CONSTRUCTIVE_GEOMETRY_REPRESENTATION('coordinate systems',(#620,#624,#628,#632),#10);
ENDSEC;
END-ISO-10303-21;
