ISO-10303-21;
HEADER;
FILE_DESCRIPTION(('no description'),'unknown implementation level');
FILE_NAME('solidXxx7cZ_lIP_I_MeTLmD3PyyMzMc_1.STP','  ',('CIMSOURCE GmbH'),('CADClick - KiM GmbH - www.kimweb.de'),'unknown preprocess','ACIS','unknown authorization');
FILE_SCHEMA(('automotive_design'));
ENDSEC;
DATA;
#1=MECHANICAL_DESIGN_GEOMETRIC_PRESENTATION_REPRESENTATION(' ',(#14,#15,#16,#17,#18,#19,#20,#21,#22,#23,#24,#25,#26,#27,#28,#29,#30,#31,#32,#33,#34,#35,#36,#37,#38,#39,#40,#41,#42,#43,#44,#45,#46,#47,#48,#49,#50,#51,#52,#53,#54,#55,#56,#57,#58,#59,#60),#10);
#2=PRODUCT_DEFINITION_CONTEXT('',#61,'design');
#3=APPLICATION_PROTOCOL_DEFINITION('INTERNATIONAL STANDARD','automotive_design',1994,#61);
#4=PRODUCT_CATEGORY_RELATIONSHIP('NONE','NONE',#62,#63);
#5=SHAPE_DEFINITION_REPRESENTATION(#64,#65);
#6=PRODUCT_DEFINITION_CONTEXT('',#66,'design');
#7=APPLICATION_PROTOCOL_DEFINITION('INTERNATIONAL STANDARD','automotive_design',1994,#66);
#8=PRODUCT_CATEGORY_RELATIONSHIP('NONE','NONE',#67,#68);
#9=SHAPE_DEFINITION_REPRESENTATION(#69,#70);
#10= (GEOMETRIC_REPRESENTATION_CONTEXT(3)GLOBAL_UNCERTAINTY_ASSIGNED_CONTEXT((#73))GLOBAL_UNIT_ASSIGNED_CONTEXT((#75,#76,#77))REPRESENTATION_CONTEXT('NONE','WORKSPACE'));
#14=STYLED_ITEM('',(#79),#80);
#15=STYLED_ITEM('',(#81),#82);
#16=STYLED_ITEM('',(#83),#84);
#17=STYLED_ITEM('',(#85),#86);
#18=STYLED_ITEM('',(#87),#88);
#19=STYLED_ITEM('',(#89),#90);
#20=STYLED_ITEM('',(#91),#92);
#21=STYLED_ITEM('',(#93),#94);
#22=STYLED_ITEM('',(#95),#96);
#23=STYLED_ITEM('',(#97),#98);
#24=STYLED_ITEM('',(#99),#100);
#25=STYLED_ITEM('',(#101),#102);
#26=STYLED_ITEM('',(#103),#104);
#27=STYLED_ITEM('',(#105),#106);
#28=STYLED_ITEM('',(#107),#108);
#29=STYLED_ITEM('',(#109),#110);
#30=STYLED_ITEM('',(#111),#112);
#31=STYLED_ITEM('',(#113),#114);
#32=STYLED_ITEM('',(#115),#116);
#33=STYLED_ITEM('',(#117),#118);
#34=STYLED_ITEM('',(#119),#120);
#35=STYLED_ITEM('',(#121),#122);
#36=STYLED_ITEM('',(#123),#124);
#37=STYLED_ITEM('',(#125),#126);
#38=STYLED_ITEM('',(#127),#128);
#39=STYLED_ITEM('',(#129),#130);
#40=STYLED_ITEM('',(#131),#132);
#41=STYLED_ITEM('',(#133),#134);
#42=STYLED_ITEM('',(#135),#136);
#43=STYLED_ITEM('',(#137),#138);
#44=STYLED_ITEM('',(#139),#140);
#45=STYLED_ITEM('',(#141),#142);
#46=STYLED_ITEM('',(#143),#144);
#47=STYLED_ITEM('',(#145),#146);
#48=STYLED_ITEM('',(#147),#148);
#49=STYLED_ITEM('',(#149),#150);
#50=STYLED_ITEM('',(#151),#152);
#51=STYLED_ITEM('',(#153),#154);
#52=STYLED_ITEM('',(#155),#156);
#53=STYLED_ITEM('',(#157),#158);
#54=STYLED_ITEM('',(#159),#160);
#55=STYLED_ITEM('',(#161),#162);
#56=STYLED_ITEM('',(#163),#164);
#57=STYLED_ITEM('',(#165),#166);
#58=STYLED_ITEM('',(#167),#168);
#59=STYLED_ITEM('',(#169),#170);
#60=STYLED_ITEM('',(#171),#172);
#61=APPLICATION_CONTEXT(' ');
#62=PRODUCT_CATEGORY('part','NONE');
#63=PRODUCT_RELATED_PRODUCT_CATEGORY('detail',' ',(#173));
#64=PRODUCT_DEFINITION_SHAPE('NONE','NONE',#174);
#65=ADVANCED_BREP_SHAPE_REPRESENTATION('1',(#168,#175),#10);
#66=APPLICATION_CONTEXT(' ');
#67=PRODUCT_CATEGORY('part','NONE');
#68=PRODUCT_RELATED_PRODUCT_CATEGORY('detail',' ',(#176));
#69=PRODUCT_DEFINITION_SHAPE('NONE','NONE',#177);
#70=ADVANCED_BREP_SHAPE_REPRESENTATION('2',(#122,#178),#10);
#73=UNCERTAINTY_MEASURE_WITH_UNIT(LENGTH_MEASURE(1.0E-006),#75,'','');
#75= (CONVERSION_BASED_UNIT('MILLIMETRE',#181)LENGTH_UNIT()NAMED_UNIT(#184));
#76= (NAMED_UNIT(#186)PLANE_ANGLE_UNIT()SI_UNIT($,.RADIAN.));
#77= (NAMED_UNIT(#186)SOLID_ANGLE_UNIT()SI_UNIT($,.STERADIAN.));
#79=PRESENTATION_STYLE_ASSIGNMENT((#192));
#80=EDGE_CURVE('',#110,#132,#193,.T.);
#81=PRESENTATION_STYLE_ASSIGNMENT((#194));
#82=VERTEX_POINT('',#195);
#83=PRESENTATION_STYLE_ASSIGNMENT((#196));
#84=VERTEX_POINT('',#197);
#85=PRESENTATION_STYLE_ASSIGNMENT((#198));
#86=VERTEX_POINT('',#199);
#87=PRESENTATION_STYLE_ASSIGNMENT((#200));
#88=VERTEX_POINT('',#201);
#89=PRESENTATION_STYLE_ASSIGNMENT((#202));
#90=EDGE_CURVE('',#82,#150,#203,.T.);
#91=PRESENTATION_STYLE_ASSIGNMENT((#204));
#92=EDGE_CURVE('',#118,#88,#205,.T.);
#93=PRESENTATION_STYLE_ASSIGNMENT((#206));
#94=EDGE_CURVE('',#118,#132,#207,.T.);
#95=PRESENTATION_STYLE_ASSIGNMENT((#208));
#96=EDGE_CURVE('',#160,#114,#209,.T.);
#97=PRESENTATION_STYLE_ASSIGNMENT((#210));
#98=EDGE_CURVE('',#150,#82,#211,.T.);
#99=PRESENTATION_STYLE_ASSIGNMENT((#212));
#100=ADVANCED_FACE('',(#213),#214,.T.);
#101=PRESENTATION_STYLE_ASSIGNMENT((#215));
#102=ADVANCED_FACE('',(#216),#217,.F.);
#103=PRESENTATION_STYLE_ASSIGNMENT((#218));
#104=ADVANCED_FACE('',(#219),#220,.T.);
#105=PRESENTATION_STYLE_ASSIGNMENT((#221));
#106=VERTEX_POINT('',#222);
#107=PRESENTATION_STYLE_ASSIGNMENT((#223));
#108=EDGE_CURVE('',#150,#84,#224,.T.);
#109=PRESENTATION_STYLE_ASSIGNMENT((#225));
#110=VERTEX_POINT('',#226);
#111=PRESENTATION_STYLE_ASSIGNMENT((#227));
#112=ADVANCED_FACE('',(#228),#229,.T.);
#113=PRESENTATION_STYLE_ASSIGNMENT((#230));
#114=VERTEX_POINT('',#231);
#115=PRESENTATION_STYLE_ASSIGNMENT((#232));
#116=VERTEX_POINT('',#233);
#117=PRESENTATION_STYLE_ASSIGNMENT((#234));
#118=VERTEX_POINT('',#235);
#119=PRESENTATION_STYLE_ASSIGNMENT((#236));
#120=ADVANCED_FACE('',(#237),#238,.T.);
#121=PRESENTATION_STYLE_ASSIGNMENT((#239));
#122=MANIFOLD_SOLID_BREP('2',#240);
#123=PRESENTATION_STYLE_ASSIGNMENT((#241));
#124=ADVANCED_FACE('',(#242),#243,.T.);
#125=PRESENTATION_STYLE_ASSIGNMENT((#244));
#126=ADVANCED_FACE('',(#245),#246,.T.);
#127=PRESENTATION_STYLE_ASSIGNMENT((#247));
#128=EDGE_CURVE('',#110,#88,#248,.T.);
#129=PRESENTATION_STYLE_ASSIGNMENT((#249));
#130=EDGE_CURVE('',#106,#118,#250,.T.);
#131=PRESENTATION_STYLE_ASSIGNMENT((#251));
#132=VERTEX_POINT('',#252);
#133=PRESENTATION_STYLE_ASSIGNMENT((#253));
#134=EDGE_CURVE('',#84,#148,#254,.T.);
#135=PRESENTATION_STYLE_ASSIGNMENT((#255));
#136=EDGE_CURVE('',#86,#160,#256,.T.);
#137=PRESENTATION_STYLE_ASSIGNMENT((#257));
#138=ADVANCED_FACE('',(#258),#259,.T.);
#139=PRESENTATION_STYLE_ASSIGNMENT((#260));
#140=EDGE_CURVE('',#114,#86,#261,.T.);
#141=PRESENTATION_STYLE_ASSIGNMENT((#262));
#142=EDGE_CURVE('',#148,#82,#263,.T.);
#143=PRESENTATION_STYLE_ASSIGNMENT((#264));
#144=EDGE_CURVE('',#106,#116,#265,.T.);
#145=PRESENTATION_STYLE_ASSIGNMENT((#266));
#146=ADVANCED_FACE('',(#267),#268,.T.);
#147=PRESENTATION_STYLE_ASSIGNMENT((#269));
#148=VERTEX_POINT('',#270);
#149=PRESENTATION_STYLE_ASSIGNMENT((#271));
#150=VERTEX_POINT('',#272);
#151=PRESENTATION_STYLE_ASSIGNMENT((#273));
#152=EDGE_CURVE('',#88,#118,#274,.T.);
#153=PRESENTATION_STYLE_ASSIGNMENT((#275));
#154=ADVANCED_FACE('',(#276),#277,.T.);
#155=PRESENTATION_STYLE_ASSIGNMENT((#278));
#156=EDGE_CURVE('',#114,#160,#279,.T.);
#157=PRESENTATION_STYLE_ASSIGNMENT((#280));
#158=EDGE_CURVE('',#148,#84,#281,.T.);
#159=PRESENTATION_STYLE_ASSIGNMENT((#282));
#160=VERTEX_POINT('',#283);
#161=PRESENTATION_STYLE_ASSIGNMENT((#284));
#162=ADVANCED_FACE('',(#285),#286,.F.);
#163=PRESENTATION_STYLE_ASSIGNMENT((#287));
#164=EDGE_CURVE('',#88,#116,#288,.T.);
#165=PRESENTATION_STYLE_ASSIGNMENT((#289));
#166=EDGE_CURVE('',#132,#110,#290,.T.);
#167=PRESENTATION_STYLE_ASSIGNMENT((#291));
#168=MANIFOLD_SOLID_BREP('1',#292);
#169=PRESENTATION_STYLE_ASSIGNMENT((#293));
#170=EDGE_CURVE('',#116,#106,#294,.T.);
#171=PRESENTATION_STYLE_ASSIGNMENT((#295));
#172=ADVANCED_FACE('',(#296,#297),#298,.T.);
#173=PRODUCT('1','1','PART-1-DESC',(#299));
#174=PRODUCT_DEFINITION('NONE','NONE',#300,#2);
#175=AXIS2_PLACEMENT_3D('',#301,#302,#303);
#176=PRODUCT('2','2','PART-2-DESC',(#304));
#177=PRODUCT_DEFINITION('NONE','NONE',#305,#6);
#178=AXIS2_PLACEMENT_3D('',#306,#307,#308);
#181=LENGTH_MEASURE_WITH_UNIT(LENGTH_MEASURE(1.0),#309);
#184=DIMENSIONAL_EXPONENTS(1.0,0.0,0.0,0.0,0.0,0.0,0.0);
#186=DIMENSIONAL_EXPONENTS(0.0,0.0,0.0,0.0,0.0,0.0,0.0);
#192=CURVE_STYLE('',#310,POSITIVE_LENGTH_MEASURE(1.0E-006),#311);
#193=CIRCLE('',#312,5.89158388626344);
#194=POINT_STYLE(' ',#313,POSITIVE_LENGTH_MEASURE(1.0E-006),#314);
#195=CARTESIAN_POINT('',(0.0,6.35,-82.59));
#196=POINT_STYLE(' ',#315,POSITIVE_LENGTH_MEASURE(1.0E-006),#316);
#197=CARTESIAN_POINT('',(9.81701689022823E-016,-8.01646738120071,-50.79));
#198=POINT_STYLE(' ',#317,POSITIVE_LENGTH_MEASURE(1.0E-006),#318);
#199=CARTESIAN_POINT('',(0.0,0.0,-50.8));
#200=POINT_STYLE(' ',#319,POSITIVE_LENGTH_MEASURE(1.0E-006),#320);
#201=CARTESIAN_POINT('',(0.0,6.35,-0.783999999999992));
#202=CURVE_STYLE('',#321,POSITIVE_LENGTH_MEASURE(1.0E-006),#322);
#203=CIRCLE('',#323,6.35);
#204=CURVE_STYLE('',#324,POSITIVE_LENGTH_MEASURE(1.0E-006),#325);
#205=CIRCLE('',#326,6.35);
#206=CURVE_STYLE('',#327,POSITIVE_LENGTH_MEASURE(1.0E-006),#328);
#207=LINE('',#329,#330);
#208=CURVE_STYLE('',#331,POSITIVE_LENGTH_MEASURE(1.0E-006),#332);
#209=CIRCLE('',#333,8.01146738120071);
#210=CURVE_STYLE('',#334,POSITIVE_LENGTH_MEASURE(1.0E-006),#335);
#211=CIRCLE('',#336,6.35);
#212=SURFACE_STYLE_USAGE(.BOTH.,#337);
#213=FACE_OUTER_BOUND('',#338,.T.);
#214=PLANE('',#339);
#215=SURFACE_STYLE_USAGE(.BOTH.,#340);
#216=FACE_OUTER_BOUND('',#341,.T.);
#217=CONICAL_SURFACE('',#342,4.00573369060036,1.56954811665676);
#218=SURFACE_STYLE_USAGE(.BOTH.,#343);
#219=FACE_OUTER_BOUND('',#344,.T.);
#220=PLANE('',#345);
#221=POINT_STYLE(' ',#346,POSITIVE_LENGTH_MEASURE(1.0E-006),#347);
#222=CARTESIAN_POINT('',(0.0,-6.35,-50.79));
#223=CURVE_STYLE('',#348,POSITIVE_LENGTH_MEASURE(1.0E-006),#349);
#224=LINE('',#350,#351);
#225=POINT_STYLE(' ',#352,POSITIVE_LENGTH_MEASURE(1.0E-006),#353);
#226=CARTESIAN_POINT('',(0.0,5.89158388626344,0.0100000000000051));
#227=SURFACE_STYLE_USAGE(.BOTH.,#354);
#228=FACE_OUTER_BOUND('',#355,.T.);
#229=CONICAL_SURFACE('',#356,6.12079194313172,0.523598775598301);
#230=POINT_STYLE(' ',#357,POSITIVE_LENGTH_MEASURE(1.0E-006),#358);
#231=CARTESIAN_POINT('',(0.0,8.01146738120071,-50.79));
#232=POINT_STYLE(' ',#359,POSITIVE_LENGTH_MEASURE(1.0E-006),#360);
#233=CARTESIAN_POINT('',(-7.7762503467721E-016,6.35,-50.79));
#234=POINT_STYLE(' ',#361,POSITIVE_LENGTH_MEASURE(1.0E-006),#362);
#235=CARTESIAN_POINT('',(7.7762503467721E-016,-6.35,-0.783999999999992));
#236=SURFACE_STYLE_USAGE(.BOTH.,#363);
#237=FACE_OUTER_BOUND('',#364,.T.);
#238=PLANE('',#365);
#239=SURFACE_STYLE_USAGE(.BOTH.,#366);
#240=CLOSED_SHELL('',(#146,#112,#104,#100,#154,#126));
#241=SURFACE_STYLE_USAGE(.BOTH.,#367);
#242=FACE_OUTER_BOUND('',#368,.T.);
#243=CONICAL_SURFACE('',#369,7.18323369060036,0.0523567415185986);
#244=SURFACE_STYLE_USAGE(.BOTH.,#370);
#245=FACE_OUTER_BOUND('',#371,.T.);
#246=CYLINDRICAL_SURFACE('',#372,6.35);
#247=CURVE_STYLE('',#373,POSITIVE_LENGTH_MEASURE(1.0E-006),#374);
#248=LINE('',#375,#376);
#249=CURVE_STYLE('',#377,POSITIVE_LENGTH_MEASURE(1.0E-006),#378);
#250=LINE('',#379,#380);
#251=POINT_STYLE(' ',#381,POSITIVE_LENGTH_MEASURE(1.0E-006),#382);
#252=CARTESIAN_POINT('',(7.21487106119574E-016,-5.89158388626344,0.0100000000000051));
#253=CURVE_STYLE('',#383,POSITIVE_LENGTH_MEASURE(1.0E-006),#384);
#254=CIRCLE('',#385,8.01646738120071);
#255=CURVE_STYLE('',#386,POSITIVE_LENGTH_MEASURE(1.0E-006),#387);
#256=LINE('',#388,#389);
#257=SURFACE_STYLE_USAGE(.BOTH.,#390);
#258=FACE_OUTER_BOUND('',#391,.T.);
#259=CONICAL_SURFACE('',#392,7.18323369060036,0.0523567415185986);
#260=CURVE_STYLE('',#393,POSITIVE_LENGTH_MEASURE(1.0E-006),#394);
#261=LINE('',#395,#396);
#262=CURVE_STYLE('',#397,POSITIVE_LENGTH_MEASURE(1.0E-006),#398);
#263=LINE('',#399,#400);
#264=CURVE_STYLE('',#401,POSITIVE_LENGTH_MEASURE(1.0E-006),#402);
#265=CIRCLE('',#403,6.35);
#266=SURFACE_STYLE_USAGE(.BOTH.,#404);
#267=FACE_OUTER_BOUND('',#405,.T.);
#268=CYLINDRICAL_SURFACE('',#406,6.35);
#269=POINT_STYLE(' ',#407,POSITIVE_LENGTH_MEASURE(1.0E-006),#408);
#270=CARTESIAN_POINT('',(0.0,8.01646738120071,-50.79));
#271=POINT_STYLE(' ',#409,POSITIVE_LENGTH_MEASURE(1.0E-006),#410);
#272=CARTESIAN_POINT('',(7.7762503467721E-016,-6.35,-82.59));
#273=CURVE_STYLE('',#411,POSITIVE_LENGTH_MEASURE(1.0E-006),#412);
#274=CIRCLE('',#413,6.35);
#275=SURFACE_STYLE_USAGE(.BOTH.,#414);
#276=FACE_OUTER_BOUND('',#415,.T.);
#277=CONICAL_SURFACE('',#416,6.12079194313172,0.523598775598301);
#278=CURVE_STYLE('',#417,POSITIVE_LENGTH_MEASURE(1.0E-006),#418);
#279=CIRCLE('',#419,8.01146738120071);
#280=CURVE_STYLE('',#420,POSITIVE_LENGTH_MEASURE(1.0E-006),#421);
#281=CIRCLE('',#422,8.01646738120071);
#282=POINT_STYLE(' ',#423,POSITIVE_LENGTH_MEASURE(1.0E-006),#424);
#283=CARTESIAN_POINT('',(9.81089385845911E-016,-8.01146738120071,-50.79));
#284=SURFACE_STYLE_USAGE(.BOTH.,#425);
#285=FACE_OUTER_BOUND('',#426,.T.);
#286=CONICAL_SURFACE('',#427,4.00573369060036,1.56954811665676);
#287=CURVE_STYLE('',#428,POSITIVE_LENGTH_MEASURE(1.0E-006),#429);
#288=LINE('',#430,#431);
#289=CURVE_STYLE('',#432,POSITIVE_LENGTH_MEASURE(1.0E-006),#433);
#290=CIRCLE('',#434,5.89158388626344);
#291=SURFACE_STYLE_USAGE(.BOTH.,#435);
#292=CLOSED_SHELL('',(#138,#102,#162,#172,#124,#120));
#293=CURVE_STYLE('',#436,POSITIVE_LENGTH_MEASURE(1.0E-006),#437);
#294=CIRCLE('',#438,6.35);
#295=SURFACE_STYLE_USAGE(.BOTH.,#439);
#296=FACE_OUTER_BOUND('',#440,.T.);
#297=FACE_BOUND('',#441,.T.);
#298=PLANE('',#442);
#299=PRODUCT_CONTEXT('',#61,'mechanical');
#300=PRODUCT_DEFINITION_FORMATION_WITH_SPECIFIED_SOURCE(' ','NONE',#173,.NOT_KNOWN.);
#301=CARTESIAN_POINT('',(0.0,0.0,0.0));
#302=DIRECTION('',(0.0,0.0,1.0));
#303=DIRECTION('',(1.0,0.0,0.0));
#304=PRODUCT_CONTEXT('',#66,'mechanical');
#305=PRODUCT_DEFINITION_FORMATION_WITH_SPECIFIED_SOURCE(' ','NONE',#176,.NOT_KNOWN.);
#306=CARTESIAN_POINT('',(0.0,0.0,0.0));
#307=DIRECTION('',(0.0,0.0,1.0));
#308=DIRECTION('',(1.0,0.0,0.0));
#309= (NAMED_UNIT(#184)LENGTH_UNIT()SI_UNIT(.MILLI.,.METRE.));
#310=DRAUGHTING_PRE_DEFINED_CURVE_FONT('continuous');
#311=COLOUR_RGB('',0.498039215803146,0.498039215803146,0.498039215803146);
#312=AXIS2_PLACEMENT_3D('',#444,#445,#446);
#313=PRE_DEFINED_MARKER('');
#314=COLOUR_RGB('',0.800000011920929,0.800000011920929,0.800000011920929);
#315=PRE_DEFINED_MARKER('');
#316=COLOUR_RGB('',0.800000011920929,0.800000011920929,0.800000011920929);
#317=PRE_DEFINED_MARKER('');
#318=COLOUR_RGB('',0.800000011920929,0.800000011920929,0.800000011920929);
#319=PRE_DEFINED_MARKER('');
#320=COLOUR_RGB('',0.498039215803146,0.498039215803146,0.498039215803146);
#321=DRAUGHTING_PRE_DEFINED_CURVE_FONT('continuous');
#322=COLOUR_RGB('',0.800000011920929,0.800000011920929,0.800000011920929);
#323=AXIS2_PLACEMENT_3D('',#447,#448,#449);
#324=DRAUGHTING_PRE_DEFINED_CURVE_FONT('continuous');
#325=COLOUR_RGB('',0.498039215803146,0.498039215803146,0.498039215803146);
#326=AXIS2_PLACEMENT_3D('',#450,#451,#452);
#327=DRAUGHTING_PRE_DEFINED_CURVE_FONT('continuous');
#328=COLOUR_RGB('',0.498039215803146,0.498039215803146,0.498039215803146);
#329=CARTESIAN_POINT('',(7.49556070398392E-016,-6.12079194313172,-0.386999999999993));
#330=VECTOR('',#453,1.0);
#331=DRAUGHTING_PRE_DEFINED_CURVE_FONT('continuous');
#332=COLOUR_RGB('',0.800000011920929,0.800000011920929,0.800000011920929);
#333=AXIS2_PLACEMENT_3D('',#454,#455,#456);
#334=DRAUGHTING_PRE_DEFINED_CURVE_FONT('continuous');
#335=COLOUR_RGB('',0.800000011920929,0.800000011920929,0.800000011920929);
#336=AXIS2_PLACEMENT_3D('',#457,#458,#459);
#337=SURFACE_SIDE_STYLE('',(#460));
#338=EDGE_LOOP('',(#461,#462));
#339=AXIS2_PLACEMENT_3D('',#463,#464,#465);
#340=SURFACE_SIDE_STYLE('',(#466));
#341=EDGE_LOOP('',(#467,#468,#469));
#342=AXIS2_PLACEMENT_3D('',#470,#471,#472);
#343=SURFACE_SIDE_STYLE('',(#473));
#344=EDGE_LOOP('',(#474,#475));
#345=AXIS2_PLACEMENT_3D('',#476,#477,#478);
#346=PRE_DEFINED_MARKER('');
#347=COLOUR_RGB('',0.498039215803146,0.498039215803146,0.498039215803146);
#348=DRAUGHTING_PRE_DEFINED_CURVE_FONT('continuous');
#349=COLOUR_RGB('',0.800000011920929,0.800000011920929,0.800000011920929);
#350=CARTESIAN_POINT('',(8.79663361850016E-016,-7.18323369060036,-66.69));
#351=VECTOR('',#479,1.0);
#352=PRE_DEFINED_MARKER('');
#353=COLOUR_RGB('',0.498039215803146,0.498039215803146,0.498039215803146);
#354=SURFACE_SIDE_STYLE('',(#480));
#355=EDGE_LOOP('',(#481,#482,#483,#484));
#356=AXIS2_PLACEMENT_3D('',#485,#486,#487);
#357=PRE_DEFINED_MARKER('');
#358=COLOUR_RGB('',0.800000011920929,0.800000011920929,0.800000011920929);
#359=PRE_DEFINED_MARKER('');
#360=COLOUR_RGB('',0.498039215803146,0.498039215803146,0.498039215803146);
#361=PRE_DEFINED_MARKER('');
#362=COLOUR_RGB('',0.498039215803146,0.498039215803146,0.498039215803146);
#363=SURFACE_SIDE_STYLE('',(#488));
#364=EDGE_LOOP('',(#489,#490));
#365=AXIS2_PLACEMENT_3D('',#491,#492,#493);
#366=SURFACE_SIDE_STYLE('',(#494));
#367=SURFACE_SIDE_STYLE('',(#495));
#368=EDGE_LOOP('',(#496,#497,#498,#499));
#369=AXIS2_PLACEMENT_3D('',#500,#501,#502);
#370=SURFACE_SIDE_STYLE('',(#503));
#371=EDGE_LOOP('',(#504,#505,#506,#507));
#372=AXIS2_PLACEMENT_3D('',#508,#509,#510);
#373=DRAUGHTING_PRE_DEFINED_CURVE_FONT('continuous');
#374=COLOUR_RGB('',0.498039215803146,0.498039215803146,0.498039215803146);
#375=CARTESIAN_POINT('',(-7.49556070398392E-016,6.12079194313172,-0.386999999999993));
#376=VECTOR('',#511,1.0);
#377=DRAUGHTING_PRE_DEFINED_CURVE_FONT('continuous');
#378=COLOUR_RGB('',0.498039215803146,0.498039215803146,0.498039215803146);
#379=CARTESIAN_POINT('',(7.7762503467721E-016,-6.35,-19.437));
#380=VECTOR('',#512,1.0);
#381=PRE_DEFINED_MARKER('');
#382=COLOUR_RGB('',0.498039215803146,0.498039215803146,0.498039215803146);
#383=DRAUGHTING_PRE_DEFINED_CURVE_FONT('continuous');
#384=COLOUR_RGB('',0.800000011920929,0.800000011920929,0.800000011920929);
#385=AXIS2_PLACEMENT_3D('',#513,#514,#515);
#386=DRAUGHTING_PRE_DEFINED_CURVE_FONT('continuous');
#387=COLOUR_RGB('',0.800000011920929,0.800000011920929,0.800000011920929);
#388=CARTESIAN_POINT('',(4.90544692922956E-016,-4.00573369060036,-50.795));
#389=VECTOR('',#516,1.0);
#390=SURFACE_SIDE_STYLE('',(#517));
#391=EDGE_LOOP('',(#518,#519,#520,#521));
#392=AXIS2_PLACEMENT_3D('',#522,#523,#524);
#393=DRAUGHTING_PRE_DEFINED_CURVE_FONT('continuous');
#394=COLOUR_RGB('',0.800000011920929,0.800000011920929,0.800000011920929);
#395=CARTESIAN_POINT('',(-4.90544692922956E-016,4.00573369060036,-50.795));
#396=VECTOR('',#525,1.0);
#397=DRAUGHTING_PRE_DEFINED_CURVE_FONT('continuous');
#398=COLOUR_RGB('',0.800000011920929,0.800000011920929,0.800000011920929);
#399=CARTESIAN_POINT('',(-8.79663361850016E-016,7.18323369060036,-66.69));
#400=VECTOR('',#526,1.0);
#401=DRAUGHTING_PRE_DEFINED_CURVE_FONT('continuous');
#402=COLOUR_RGB('',0.498039215803146,0.498039215803146,0.498039215803146);
#403=AXIS2_PLACEMENT_3D('',#527,#528,#529);
#404=SURFACE_SIDE_STYLE('',(#530));
#405=EDGE_LOOP('',(#531,#532,#533,#534));
#406=AXIS2_PLACEMENT_3D('',#535,#536,#537);
#407=PRE_DEFINED_MARKER('');
#408=COLOUR_RGB('',0.800000011920929,0.800000011920929,0.800000011920929);
#409=PRE_DEFINED_MARKER('');
#410=COLOUR_RGB('',0.800000011920929,0.800000011920929,0.800000011920929);
#411=DRAUGHTING_PRE_DEFINED_CURVE_FONT('continuous');
#412=COLOUR_RGB('',0.498039215803146,0.498039215803146,0.498039215803146);
#413=AXIS2_PLACEMENT_3D('',#538,#539,#540);
#414=SURFACE_SIDE_STYLE('',(#541));
#415=EDGE_LOOP('',(#542,#543,#544,#545));
#416=AXIS2_PLACEMENT_3D('',#546,#547,#548);
#417=DRAUGHTING_PRE_DEFINED_CURVE_FONT('continuous');
#418=COLOUR_RGB('',0.800000011920929,0.800000011920929,0.800000011920929);
#419=AXIS2_PLACEMENT_3D('',#549,#550,#551);
#420=DRAUGHTING_PRE_DEFINED_CURVE_FONT('continuous');
#421=COLOUR_RGB('',0.800000011920929,0.800000011920929,0.800000011920929);
#422=AXIS2_PLACEMENT_3D('',#552,#553,#554);
#423=PRE_DEFINED_MARKER('');
#424=COLOUR_RGB('',0.800000011920929,0.800000011920929,0.800000011920929);
#425=SURFACE_SIDE_STYLE('',(#555));
#426=EDGE_LOOP('',(#556,#557,#558));
#427=AXIS2_PLACEMENT_3D('',#559,#560,#561);
#428=DRAUGHTING_PRE_DEFINED_CURVE_FONT('continuous');
#429=COLOUR_RGB('',0.498039215803146,0.498039215803146,0.498039215803146);
#430=CARTESIAN_POINT('',(-7.7762503467721E-016,6.35,-19.437));
#431=VECTOR('',#562,1.0);
#432=DRAUGHTING_PRE_DEFINED_CURVE_FONT('continuous');
#433=COLOUR_RGB('',0.498039215803146,0.498039215803146,0.498039215803146);
#434=AXIS2_PLACEMENT_3D('',#563,#564,#565);
#435=SURFACE_SIDE_STYLE('',(#566));
#436=DRAUGHTING_PRE_DEFINED_CURVE_FONT('continuous');
#437=COLOUR_RGB('',0.498039215803146,0.498039215803146,0.498039215803146);
#438=AXIS2_PLACEMENT_3D('',#567,#568,#569);
#439=SURFACE_SIDE_STYLE('',(#570));
#440=EDGE_LOOP('',(#571,#572));
#441=EDGE_LOOP('',(#573,#574));
#442=AXIS2_PLACEMENT_3D('',#575,#576,#577);
#444=CARTESIAN_POINT('',(0.0,0.0,0.0100000000000051));
#445=DIRECTION('',(0.0,0.0,-1.0));
#446=DIRECTION('',(0.0,1.0,0.0));
#447=CARTESIAN_POINT('',(0.0,0.0,-82.59));
#448=DIRECTION('',(0.0,0.0,-1.0));
#449=DIRECTION('',(0.0,1.0,0.0));
#450=CARTESIAN_POINT('',(0.0,0.0,-0.783999999999992));
#451=DIRECTION('',(0.0,0.0,-1.0));
#452=DIRECTION('',(0.0,1.0,0.0));
#453=DIRECTION('',(-6.12303176911191E-017,0.500000000000002,0.866025403784438));
#454=CARTESIAN_POINT('',(0.0,0.0,-50.79));
#455=DIRECTION('',(0.0,0.0,-1.0));
#456=DIRECTION('',(0.0,1.0,0.0));
#457=CARTESIAN_POINT('',(0.0,0.0,-82.59));
#458=DIRECTION('',(0.0,0.0,-1.0));
#459=DIRECTION('',(0.0,1.0,0.0));
#460=SURFACE_STYLE_FILL_AREA(#578);
#461=ORIENTED_EDGE('',*,*,#80,.F.);
#462=ORIENTED_EDGE('',*,*,#166,.F.);
#463=CARTESIAN_POINT('',(0.0,2.94579194313172,0.0100000000000051));
#464=DIRECTION('',(-0.0,0.0,1.0));
#465=DIRECTION('',(0.0,-1.0,0.0));
#466=SURFACE_STYLE_FILL_AREA(#579);
#467=ORIENTED_EDGE('',*,*,#136,.F.);
#468=ORIENTED_EDGE('',*,*,#140,.F.);
#469=ORIENTED_EDGE('',*,*,#96,.F.);
#470=CARTESIAN_POINT('',(0.0,0.0,-50.795));
#471=DIRECTION('',(-0.0,-0.0,1.0));
#472=DIRECTION('',(0.0,1.0,0.0));
#473=SURFACE_STYLE_FILL_AREA(#580);
#474=ORIENTED_EDGE('',*,*,#144,.T.);
#475=ORIENTED_EDGE('',*,*,#170,.T.);
#476=CARTESIAN_POINT('',(0.0,0.0,-50.79));
#477=DIRECTION('',(0.0,0.0,-1.0));
#478=DIRECTION('',(0.0,-1.0,0.0));
#479=DIRECTION('',(6.40871093953028E-018,-0.0523328244992907,0.99862969887738));
#480=SURFACE_STYLE_FILL_AREA(#581);
#481=ORIENTED_EDGE('',*,*,#128,.F.);
#482=ORIENTED_EDGE('',*,*,#80,.T.);
#483=ORIENTED_EDGE('',*,*,#94,.F.);
#484=ORIENTED_EDGE('',*,*,#152,.F.);
#485=CARTESIAN_POINT('',(0.0,0.0,-0.386999999999993));
#486=DIRECTION('',(0.0,-0.0,-1.0));
#487=DIRECTION('',(0.0,1.0,0.0));
#488=SURFACE_STYLE_FILL_AREA(#582);
#489=ORIENTED_EDGE('',*,*,#90,.T.);
#490=ORIENTED_EDGE('',*,*,#98,.T.);
#491=CARTESIAN_POINT('',(0.0,3.1725,-82.59));
#492=DIRECTION('',(0.0,0.0,-1.0));
#493=DIRECTION('',(0.0,1.0,0.0));
#494=SURFACE_STYLE_FILL_AREA(#583);
#495=SURFACE_STYLE_FILL_AREA(#584);
#496=ORIENTED_EDGE('',*,*,#142,.T.);
#497=ORIENTED_EDGE('',*,*,#98,.F.);
#498=ORIENTED_EDGE('',*,*,#108,.T.);
#499=ORIENTED_EDGE('',*,*,#134,.T.);
#500=CARTESIAN_POINT('',(0.0,0.0,-66.69));
#501=DIRECTION('',(-0.0,-0.0,1.0));
#502=DIRECTION('',(0.0,1.0,0.0));
#503=SURFACE_STYLE_FILL_AREA(#585);
#504=ORIENTED_EDGE('',*,*,#164,.T.);
#505=ORIENTED_EDGE('',*,*,#144,.F.);
#506=ORIENTED_EDGE('',*,*,#130,.T.);
#507=ORIENTED_EDGE('',*,*,#92,.T.);
#508=CARTESIAN_POINT('',(0.0,0.0,-19.437));
#509=DIRECTION('',(-0.0,-0.0,1.0));
#510=DIRECTION('',(0.0,1.0,0.0));
#511=DIRECTION('',(-6.12303176911191E-017,0.500000000000002,-0.866025403784438));
#512=DIRECTION('',(-0.0,-0.0,1.0));
#513=CARTESIAN_POINT('',(0.0,0.0,-50.79));
#514=DIRECTION('',(0.0,0.0,-1.0));
#515=DIRECTION('',(0.0,1.0,0.0));
#516=DIRECTION('',(1.22460539983667E-016,-0.999999220985827,0.00124820981401306));
#517=SURFACE_STYLE_FILL_AREA(#586);
#518=ORIENTED_EDGE('',*,*,#142,.F.);
#519=ORIENTED_EDGE('',*,*,#158,.T.);
#520=ORIENTED_EDGE('',*,*,#108,.F.);
#521=ORIENTED_EDGE('',*,*,#90,.F.);
#522=CARTESIAN_POINT('',(0.0,0.0,-66.69));
#523=DIRECTION('',(-0.0,-0.0,1.0));
#524=DIRECTION('',(0.0,1.0,0.0));
#525=DIRECTION('',(1.22460539983667E-016,-0.999999220985827,-0.00124820981401306));
#526=DIRECTION('',(6.40871093953028E-018,-0.0523328244992907,-0.99862969887738));
#527=CARTESIAN_POINT('',(0.0,0.0,-50.79));
#528=DIRECTION('',(0.0,0.0,-1.0));
#529=DIRECTION('',(0.0,-1.0,0.0));
#530=SURFACE_STYLE_FILL_AREA(#587);
#531=ORIENTED_EDGE('',*,*,#164,.F.);
#532=ORIENTED_EDGE('',*,*,#152,.T.);
#533=ORIENTED_EDGE('',*,*,#130,.F.);
#534=ORIENTED_EDGE('',*,*,#170,.F.);
#535=CARTESIAN_POINT('',(0.0,0.0,-19.437));
#536=DIRECTION('',(-0.0,-0.0,1.0));
#537=DIRECTION('',(0.0,1.0,0.0));
#538=CARTESIAN_POINT('',(0.0,0.0,-0.783999999999992));
#539=DIRECTION('',(0.0,0.0,-1.0));
#540=DIRECTION('',(0.0,1.0,0.0));
#541=SURFACE_STYLE_FILL_AREA(#588);
#542=ORIENTED_EDGE('',*,*,#128,.T.);
#543=ORIENTED_EDGE('',*,*,#92,.F.);
#544=ORIENTED_EDGE('',*,*,#94,.T.);
#545=ORIENTED_EDGE('',*,*,#166,.T.);
#546=CARTESIAN_POINT('',(0.0,0.0,-0.386999999999993));
#547=DIRECTION('',(0.0,-0.0,-1.0));
#548=DIRECTION('',(0.0,1.0,0.0));
#549=CARTESIAN_POINT('',(0.0,0.0,-50.79));
#550=DIRECTION('',(0.0,0.0,-1.0));
#551=DIRECTION('',(0.0,1.0,0.0));
#552=CARTESIAN_POINT('',(0.0,0.0,-50.79));
#553=DIRECTION('',(0.0,0.0,-1.0));
#554=DIRECTION('',(0.0,1.0,0.0));
#555=SURFACE_STYLE_FILL_AREA(#589);
#556=ORIENTED_EDGE('',*,*,#136,.T.);
#557=ORIENTED_EDGE('',*,*,#156,.F.);
#558=ORIENTED_EDGE('',*,*,#140,.T.);
#559=CARTESIAN_POINT('',(0.0,0.0,-50.795));
#560=DIRECTION('',(-0.0,-0.0,1.0));
#561=DIRECTION('',(0.0,1.0,0.0));
#562=DIRECTION('',(0.0,0.0,-1.0));
#563=CARTESIAN_POINT('',(0.0,0.0,0.0100000000000051));
#564=DIRECTION('',(0.0,0.0,-1.0));
#565=DIRECTION('',(0.0,1.0,0.0));
#566=SURFACE_STYLE_FILL_AREA(#590);
#567=CARTESIAN_POINT('',(0.0,0.0,-50.79));
#568=DIRECTION('',(0.0,0.0,-1.0));
#569=DIRECTION('',(0.0,-1.0,0.0));
#570=SURFACE_STYLE_FILL_AREA(#591);
#571=ORIENTED_EDGE('',*,*,#158,.F.);
#572=ORIENTED_EDGE('',*,*,#134,.F.);
#573=ORIENTED_EDGE('',*,*,#156,.T.);
#574=ORIENTED_EDGE('',*,*,#96,.T.);
#575=CARTESIAN_POINT('',(0.0,8.01396738120071,-50.79));
#576=DIRECTION('',(-0.0,0.0,1.0));
#577=DIRECTION('',(0.0,-1.0,0.0));
#578=FILL_AREA_STYLE('',(#592));
#579=FILL_AREA_STYLE('',(#593));
#580=FILL_AREA_STYLE('',(#594));
#581=FILL_AREA_STYLE('',(#595));
#582=FILL_AREA_STYLE('',(#596));
#583=FILL_AREA_STYLE('',(#597));
#584=FILL_AREA_STYLE('',(#598));
#585=FILL_AREA_STYLE('',(#599));
#586=FILL_AREA_STYLE('',(#600));
#587=FILL_AREA_STYLE('',(#601));
#588=FILL_AREA_STYLE('',(#602));
#589=FILL_AREA_STYLE('',(#603));
#590=FILL_AREA_STYLE('',(#604));
#591=FILL_AREA_STYLE('',(#605));
#592=FILL_AREA_STYLE_COLOUR('',#606);
#593=FILL_AREA_STYLE_COLOUR('',#607);
#594=FILL_AREA_STYLE_COLOUR('',#608);
#595=FILL_AREA_STYLE_COLOUR('',#609);
#596=FILL_AREA_STYLE_COLOUR('',#610);
#597=FILL_AREA_STYLE_COLOUR('',#611);
#598=FILL_AREA_STYLE_COLOUR('',#612);
#599=FILL_AREA_STYLE_COLOUR('',#613);
#600=FILL_AREA_STYLE_COLOUR('',#614);
#601=FILL_AREA_STYLE_COLOUR('',#615);
#602=FILL_AREA_STYLE_COLOUR('',#616);
#603=FILL_AREA_STYLE_COLOUR('',#617);
#604=FILL_AREA_STYLE_COLOUR('',#618);
#605=FILL_AREA_STYLE_COLOUR('',#619);
#606=COLOUR_RGB('',0.498039215803146,0.498039215803146,0.498039215803146);
#607=COLOUR_RGB('',0.800000011920929,0.800000011920929,0.800000011920929);
#608=COLOUR_RGB('',0.498039215803146,0.498039215803146,0.498039215803146);
#609=COLOUR_RGB('',0.498039215803146,0.498039215803146,0.498039215803146);
#610=COLOUR_RGB('',0.800000011920929,0.800000011920929,0.800000011920929);
#611=COLOUR_RGB('',0.800000011920929,0.800000011920929,0.800000011920929);
#612=COLOUR_RGB('',0.800000011920929,0.800000011920929,0.800000011920929);
#613=COLOUR_RGB('',0.498039215803146,0.498039215803146,0.498039215803146);
#614=COLOUR_RGB('',0.800000011920929,0.800000011920929,0.800000011920929);
#615=COLOUR_RGB('',0.498039215803146,0.498039215803146,0.498039215803146);
#616=COLOUR_RGB('',0.498039215803146,0.498039215803146,0.498039215803146);
#617=COLOUR_RGB('',0.800000011920929,0.800000011920929,0.800000011920929);
#618=COLOUR_RGB('',0.800000011920929,0.800000011920929,0.800000011920929);
#619=COLOUR_RGB('',0.800000011920929,0.800000011920929,0.800000011920929);
#620=AXIS2_PLACEMENT_3D('PCS',#621,#622,#623);
#621=CARTESIAN_POINT('',(0.0,0.0,0.0));
#622=DIRECTION('',(0.0,0.0,1.0));
#623=DIRECTION('',(1.0,0.0,0.0));
#624=AXIS2_PLACEMENT_3D('CIP',#625,#626,#627);
#625=CARTESIAN_POINT('',(0.0,0.0,-82.6));
#626=DIRECTION('',(0.0,0.0,1.0));
#627=DIRECTION('',(1.0,0.0,0.0));
#628=AXIS2_PLACEMENT_3D('CRP',#629,#630,#631);
#629=CARTESIAN_POINT('',(-6.35,0.0,-82.6));
#630=DIRECTION('',(0.0,0.0,1.0));
#631=DIRECTION('',(1.0,0.0,0.0));
#632=AXIS2_PLACEMENT_3D('MCS',#633,#634,#635);
#633=CARTESIAN_POINT('',(0.0,0.0,-38.1));
#634=DIRECTION('',(0.0,0.0,1.0));
#635=DIRECTION('',(1.0,0.0,0.0));
#636=CONSTRUCTIVE_GEOMETRY_REPRESENTATION_RELATIONSHIP('coordinate systems',$,#65,#637);
#637=CONSTRUCTIVE_GEOMETRY_REPRESENTATION('coordinate systems',(#620,#624,#628,#632),#10);
ENDSEC;
END-ISO-10303-21;
