ISO-10303-21;
HEADER;
FILE_DESCRIPTION(('no description'),'unknown implementation level');
FILE_NAME('solidYNhFEBua2VL2vmc5RCftgUKNk7g_1.STP','  ',('CIMSOURCE GmbH'),('CADClick - KiM GmbH - www.kimweb.de'),'unknown preprocess','ACIS','unknown authorization');
FILE_SCHEMA(('automotive_design'));
ENDSEC;
DATA;
#1=MECHANICAL_DESIGN_GEOMETRIC_PRESENTATION_REPRESENTATION(' ',(#14,#15,#16,#17,#18,#19,#20,#21,#22,#23,#24,#25,#26,#27,#28,#29,#30,#31,#32,#33,#34,#35,#36,#37,#38,#39,#40,#41,#42,#43,#44,#45,#46,#47,#48,#49,#50,#51,#52,#53,#54,#55,#56,#57,#58,#59,#60),#10);
#2=PRODUCT_DEFINITION_CONTEXT('',#61,'design');
#3=APPLICATION_PROTOCOL_DEFINITION('INTERNATIONAL STANDARD','automotive_design',1994,#61);
#4=PRODUCT_CATEGORY_RELATIONSHIP('NONE','NONE',#62,#63);
#5=SHAPE_DEFINITION_REPRESENTATION(#64,#65);
#6=PRODUCT_DEFINITION_CONTEXT('',#66,'design');
#7=APPLICATION_PROTOCOL_DEFINITION('INTERNATIONAL STANDARD','automotive_design',1994,#66);
#8=PRODUCT_CATEGORY_RELATIONSHIP('NONE','NONE',#67,#68);
#9=SHAPE_DEFINITION_REPRESENTATION(#69,#70);
#10= (GEOMETRIC_REPRESENTATION_CONTEXT(3)GLOBAL_UNCERTAINTY_ASSIGNED_CONTEXT((#73))GLOBAL_UNIT_ASSIGNED_CONTEXT((#75,#76,#77))REPRESENTATION_CONTEXT('NONE','WORKSPACE'));
#14=STYLED_ITEM('',(#79),#80);
#15=STYLED_ITEM('',(#81),#82);
#16=STYLED_ITEM('',(#83),#84);
#17=STYLED_ITEM('',(#85),#86);
#18=STYLED_ITEM('',(#87),#88);
#19=STYLED_ITEM('',(#89),#90);
#20=STYLED_ITEM('',(#91),#92);
#21=STYLED_ITEM('',(#93),#94);
#22=STYLED_ITEM('',(#95),#96);
#23=STYLED_ITEM('',(#97),#98);
#24=STYLED_ITEM('',(#99),#100);
#25=STYLED_ITEM('',(#101),#102);
#26=STYLED_ITEM('',(#103),#104);
#27=STYLED_ITEM('',(#105),#106);
#28=STYLED_ITEM('',(#107),#108);
#29=STYLED_ITEM('',(#109),#110);
#30=STYLED_ITEM('',(#111),#112);
#31=STYLED_ITEM('',(#113),#114);
#32=STYLED_ITEM('',(#115),#116);
#33=STYLED_ITEM('',(#117),#118);
#34=STYLED_ITEM('',(#119),#120);
#35=STYLED_ITEM('',(#121),#122);
#36=STYLED_ITEM('',(#123),#124);
#37=STYLED_ITEM('',(#125),#126);
#38=STYLED_ITEM('',(#127),#128);
#39=STYLED_ITEM('',(#129),#130);
#40=STYLED_ITEM('',(#131),#132);
#41=STYLED_ITEM('',(#133),#134);
#42=STYLED_ITEM('',(#135),#136);
#43=STYLED_ITEM('',(#137),#138);
#44=STYLED_ITEM('',(#139),#140);
#45=STYLED_ITEM('',(#141),#142);
#46=STYLED_ITEM('',(#143),#144);
#47=STYLED_ITEM('',(#145),#146);
#48=STYLED_ITEM('',(#147),#148);
#49=STYLED_ITEM('',(#149),#150);
#50=STYLED_ITEM('',(#151),#152);
#51=STYLED_ITEM('',(#153),#154);
#52=STYLED_ITEM('',(#155),#156);
#53=STYLED_ITEM('',(#157),#158);
#54=STYLED_ITEM('',(#159),#160);
#55=STYLED_ITEM('',(#161),#162);
#56=STYLED_ITEM('',(#163),#164);
#57=STYLED_ITEM('',(#165),#166);
#58=STYLED_ITEM('',(#167),#168);
#59=STYLED_ITEM('',(#169),#170);
#60=STYLED_ITEM('',(#171),#172);
#61=APPLICATION_CONTEXT(' ');
#62=PRODUCT_CATEGORY('part','NONE');
#63=PRODUCT_RELATED_PRODUCT_CATEGORY('detail',' ',(#173));
#64=PRODUCT_DEFINITION_SHAPE('NONE','NONE',#174);
#65=ADVANCED_BREP_SHAPE_REPRESENTATION('1',(#152,#175),#10);
#66=APPLICATION_CONTEXT(' ');
#67=PRODUCT_CATEGORY('part','NONE');
#68=PRODUCT_RELATED_PRODUCT_CATEGORY('detail',' ',(#176));
#69=PRODUCT_DEFINITION_SHAPE('NONE','NONE',#177);
#70=ADVANCED_BREP_SHAPE_REPRESENTATION('2',(#108,#178),#10);
#73=UNCERTAINTY_MEASURE_WITH_UNIT(LENGTH_MEASURE(1.0E-006),#75,'','');
#75= (CONVERSION_BASED_UNIT('MILLIMETRE',#181)LENGTH_UNIT()NAMED_UNIT(#184));
#76= (NAMED_UNIT(#186)PLANE_ANGLE_UNIT()SI_UNIT($,.RADIAN.));
#77= (NAMED_UNIT(#186)SOLID_ANGLE_UNIT()SI_UNIT($,.STERADIAN.));
#79=PRESENTATION_STYLE_ASSIGNMENT((#192));
#80=VERTEX_POINT('',#193);
#81=PRESENTATION_STYLE_ASSIGNMENT((#194));
#82=VERTEX_POINT('',#195);
#83=PRESENTATION_STYLE_ASSIGNMENT((#196));
#84=VERTEX_POINT('',#197);
#85=PRESENTATION_STYLE_ASSIGNMENT((#198));
#86=ADVANCED_FACE('',(#199),#200,.T.);
#87=PRESENTATION_STYLE_ASSIGNMENT((#201));
#88=ADVANCED_FACE('',(#202),#203,.T.);
#89=PRESENTATION_STYLE_ASSIGNMENT((#204));
#90=EDGE_CURVE('',#136,#126,#205,.T.);
#91=PRESENTATION_STYLE_ASSIGNMENT((#206));
#92=ADVANCED_FACE('',(#207),#208,.T.);
#93=PRESENTATION_STYLE_ASSIGNMENT((#209));
#94=EDGE_CURVE('',#130,#124,#210,.T.);
#95=PRESENTATION_STYLE_ASSIGNMENT((#211));
#96=ADVANCED_FACE('',(#212),#213,.T.);
#97=PRESENTATION_STYLE_ASSIGNMENT((#214));
#98=EDGE_CURVE('',#82,#154,#215,.T.);
#99=PRESENTATION_STYLE_ASSIGNMENT((#216));
#100=EDGE_CURVE('',#154,#82,#217,.T.);
#101=PRESENTATION_STYLE_ASSIGNMENT((#218));
#102=ADVANCED_FACE('',(#219),#220,.F.);
#103=PRESENTATION_STYLE_ASSIGNMENT((#221));
#104=VERTEX_POINT('',#222);
#105=PRESENTATION_STYLE_ASSIGNMENT((#223));
#106=VERTEX_POINT('',#224);
#107=PRESENTATION_STYLE_ASSIGNMENT((#225));
#108=MANIFOLD_SOLID_BREP('2',#226);
#109=PRESENTATION_STYLE_ASSIGNMENT((#227));
#110=EDGE_CURVE('',#106,#104,#228,.T.);
#111=PRESENTATION_STYLE_ASSIGNMENT((#229));
#112=ADVANCED_FACE('',(#230),#231,.T.);
#113=PRESENTATION_STYLE_ASSIGNMENT((#232));
#114=VERTEX_POINT('',#233);
#115=PRESENTATION_STYLE_ASSIGNMENT((#234));
#116=ADVANCED_FACE('',(#235),#236,.T.);
#117=PRESENTATION_STYLE_ASSIGNMENT((#237));
#118=EDGE_CURVE('',#130,#114,#238,.T.);
#119=PRESENTATION_STYLE_ASSIGNMENT((#239));
#120=EDGE_CURVE('',#114,#82,#240,.T.);
#121=PRESENTATION_STYLE_ASSIGNMENT((#241));
#122=EDGE_CURVE('',#80,#114,#242,.T.);
#123=PRESENTATION_STYLE_ASSIGNMENT((#243));
#124=VERTEX_POINT('',#244);
#125=PRESENTATION_STYLE_ASSIGNMENT((#245));
#126=VERTEX_POINT('',#246);
#127=PRESENTATION_STYLE_ASSIGNMENT((#247));
#128=ADVANCED_FACE('',(#248,#249),#250,.T.);
#129=PRESENTATION_STYLE_ASSIGNMENT((#251));
#130=VERTEX_POINT('',#252);
#131=PRESENTATION_STYLE_ASSIGNMENT((#253));
#132=EDGE_CURVE('',#106,#84,#254,.T.);
#133=PRESENTATION_STYLE_ASSIGNMENT((#255));
#134=EDGE_CURVE('',#154,#80,#256,.T.);
#135=PRESENTATION_STYLE_ASSIGNMENT((#257));
#136=VERTEX_POINT('',#258);
#137=PRESENTATION_STYLE_ASSIGNMENT((#259));
#138=EDGE_CURVE('',#124,#130,#260,.T.);
#139=PRESENTATION_STYLE_ASSIGNMENT((#261));
#140=ADVANCED_FACE('',(#262),#263,.T.);
#141=PRESENTATION_STYLE_ASSIGNMENT((#264));
#142=EDGE_CURVE('',#172,#160,#265,.T.);
#143=PRESENTATION_STYLE_ASSIGNMENT((#266));
#144=EDGE_CURVE('',#114,#80,#267,.T.);
#145=PRESENTATION_STYLE_ASSIGNMENT((#268));
#146=ADVANCED_FACE('',(#269),#270,.T.);
#147=PRESENTATION_STYLE_ASSIGNMENT((#271));
#148=EDGE_CURVE('',#136,#172,#272,.T.);
#149=PRESENTATION_STYLE_ASSIGNMENT((#273));
#150=ADVANCED_FACE('',(#274),#275,.F.);
#151=PRESENTATION_STYLE_ASSIGNMENT((#276));
#152=MANIFOLD_SOLID_BREP('1',#277);
#153=PRESENTATION_STYLE_ASSIGNMENT((#278));
#154=VERTEX_POINT('',#279);
#155=PRESENTATION_STYLE_ASSIGNMENT((#280));
#156=EDGE_CURVE('',#126,#136,#281,.T.);
#157=PRESENTATION_STYLE_ASSIGNMENT((#282));
#158=EDGE_CURVE('',#104,#84,#283,.T.);
#159=PRESENTATION_STYLE_ASSIGNMENT((#284));
#160=VERTEX_POINT('',#285);
#161=PRESENTATION_STYLE_ASSIGNMENT((#286));
#162=EDGE_CURVE('',#160,#126,#287,.T.);
#163=PRESENTATION_STYLE_ASSIGNMENT((#288));
#164=ADVANCED_FACE('',(#289),#290,.T.);
#165=PRESENTATION_STYLE_ASSIGNMENT((#291));
#166=EDGE_CURVE('',#84,#106,#292,.T.);
#167=PRESENTATION_STYLE_ASSIGNMENT((#293));
#168=EDGE_CURVE('',#160,#172,#294,.T.);
#169=PRESENTATION_STYLE_ASSIGNMENT((#295));
#170=EDGE_CURVE('',#80,#124,#296,.T.);
#171=PRESENTATION_STYLE_ASSIGNMENT((#297));
#172=VERTEX_POINT('',#298);
#173=PRODUCT('1','1','PART-1-DESC',(#299));
#174=PRODUCT_DEFINITION('NONE','NONE',#300,#2);
#175=AXIS2_PLACEMENT_3D('',#301,#302,#303);
#176=PRODUCT('2','2','PART-2-DESC',(#304));
#177=PRODUCT_DEFINITION('NONE','NONE',#305,#6);
#178=AXIS2_PLACEMENT_3D('',#306,#307,#308);
#181=LENGTH_MEASURE_WITH_UNIT(LENGTH_MEASURE(1.0),#309);
#184=DIMENSIONAL_EXPONENTS(1.0,0.0,0.0,0.0,0.0,0.0,0.0);
#186=DIMENSIONAL_EXPONENTS(0.0,0.0,0.0,0.0,0.0,0.0,0.0);
#192=POINT_STYLE(' ',#310,POSITIVE_LENGTH_MEASURE(1.0E-006),#311);
#193=CARTESIAN_POINT('',(0.0,7.9375,-0.783999999999985));
#194=POINT_STYLE(' ',#312,POSITIVE_LENGTH_MEASURE(1.0E-006),#313);
#195=CARTESIAN_POINT('',(9.15893364788876E-016,-7.47908388626344,0.0100000000000122));
#196=POINT_STYLE(' ',#314,POSITIVE_LENGTH_MEASURE(1.0E-006),#315);
#197=CARTESIAN_POINT('',(1.14410379057523E-015,-9.34262497498997,-53.89));
#198=SURFACE_STYLE_USAGE(.BOTH.,#316);
#199=FACE_OUTER_BOUND('',#317,.T.);
#200=CYLINDRICAL_SURFACE('',#318,7.9375);
#201=SURFACE_STYLE_USAGE(.BOTH.,#319);
#202=FACE_OUTER_BOUND('',#320,.T.);
#203=CYLINDRICAL_SURFACE('',#321,7.9375);
#204=CURVE_STYLE('',#322,POSITIVE_LENGTH_MEASURE(1.0E-006),#323);
#205=CIRCLE('',#324,9.34762497498997);
#206=SURFACE_STYLE_USAGE(.BOTH.,#325);
#207=FACE_OUTER_BOUND('',#326,.T.);
#208=PLANE('',#327);
#209=CURVE_STYLE('',#328,POSITIVE_LENGTH_MEASURE(1.0E-006),#329);
#210=CIRCLE('',#330,7.9375);
#211=SURFACE_STYLE_USAGE(.BOTH.,#331);
#212=FACE_OUTER_BOUND('',#332,.T.);
#213=PLANE('',#333);
#214=CURVE_STYLE('',#334,POSITIVE_LENGTH_MEASURE(1.0E-006),#335);
#215=CIRCLE('',#336,7.47908388626344);
#216=CURVE_STYLE('',#337,POSITIVE_LENGTH_MEASURE(1.0E-006),#338);
#217=CIRCLE('',#339,7.47908388626344);
#218=SURFACE_STYLE_USAGE(.BOTH.,#340);
#219=FACE_OUTER_BOUND('',#341,.T.);
#220=CONICAL_SURFACE('',#342,4.67131248749498,1.56972596421395);
#221=POINT_STYLE(' ',#343,POSITIVE_LENGTH_MEASURE(1.0E-006),#344);
#222=CARTESIAN_POINT('',(0.0,0.0,-53.9));
#223=POINT_STYLE(' ',#345,POSITIVE_LENGTH_MEASURE(1.0E-006),#346);
#224=CARTESIAN_POINT('',(0.0,9.34262497498997,-53.89));
#225=SURFACE_STYLE_USAGE(.BOTH.,#347);
#226=CLOSED_SHELL('',(#88,#116,#146,#96,#140,#86));
#227=CURVE_STYLE('',#348,POSITIVE_LENGTH_MEASURE(1.0E-006),#349);
#228=LINE('',#350,#351);
#229=SURFACE_STYLE_USAGE(.BOTH.,#352);
#230=FACE_OUTER_BOUND('',#353,.T.);
#231=CONICAL_SURFACE('',#354,7.84881248749498,0.0523581340964755);
#232=POINT_STYLE(' ',#355,POSITIVE_LENGTH_MEASURE(1.0E-006),#356);
#233=CARTESIAN_POINT('',(9.72031293346512E-016,-7.9375,-0.783999999999985));
#234=SURFACE_STYLE_USAGE(.BOTH.,#357);
#235=FACE_OUTER_BOUND('',#358,.T.);
#236=CONICAL_SURFACE('',#359,7.70829194313172,0.523598775598301);
#237=CURVE_STYLE('',#360,POSITIVE_LENGTH_MEASURE(1.0E-006),#361);
#238=LINE('',#362,#363);
#239=CURVE_STYLE('',#364,POSITIVE_LENGTH_MEASURE(1.0E-006),#365);
#240=LINE('',#366,#367);
#241=CURVE_STYLE('',#368,POSITIVE_LENGTH_MEASURE(1.0E-006),#369);
#242=CIRCLE('',#370,7.9375);
#243=POINT_STYLE(' ',#371,POSITIVE_LENGTH_MEASURE(1.0E-006),#372);
#244=CARTESIAN_POINT('',(-9.72031293346512E-016,7.9375,-53.89));
#245=POINT_STYLE(' ',#373,POSITIVE_LENGTH_MEASURE(1.0E-006),#374);
#246=CARTESIAN_POINT('',(1.14471609375215E-015,-9.34762497498997,-53.89));
#247=SURFACE_STYLE_USAGE(.BOTH.,#375);
#248=FACE_OUTER_BOUND('',#376,.T.);
#249=FACE_BOUND('',#377,.T.);
#250=PLANE('',#378);
#251=POINT_STYLE(' ',#379,POSITIVE_LENGTH_MEASURE(1.0E-006),#380);
#252=CARTESIAN_POINT('',(0.0,-7.9375,-53.89));
#253=CURVE_STYLE('',#381,POSITIVE_LENGTH_MEASURE(1.0E-006),#382);
#254=CIRCLE('',#383,9.34262497498997);
#255=CURVE_STYLE('',#384,POSITIVE_LENGTH_MEASURE(1.0E-006),#385);
#256=LINE('',#386,#387);
#257=POINT_STYLE(' ',#388,POSITIVE_LENGTH_MEASURE(1.0E-006),#389);
#258=CARTESIAN_POINT('',(0.0,9.34762497498997,-53.89));
#259=CURVE_STYLE('',#390,POSITIVE_LENGTH_MEASURE(1.0E-006),#391);
#260=CIRCLE('',#392,7.9375);
#261=SURFACE_STYLE_USAGE(.BOTH.,#393);
#262=FACE_OUTER_BOUND('',#394,.T.);
#263=CONICAL_SURFACE('',#395,7.70829194313172,0.523598775598301);
#264=CURVE_STYLE('',#396,POSITIVE_LENGTH_MEASURE(1.0E-006),#397);
#265=CIRCLE('',#398,6.35);
#266=CURVE_STYLE('',#399,POSITIVE_LENGTH_MEASURE(1.0E-006),#400);
#267=CIRCLE('',#401,7.9375);
#268=SURFACE_STYLE_USAGE(.BOTH.,#402);
#269=FACE_OUTER_BOUND('',#403,.T.);
#270=PLANE('',#404);
#271=CURVE_STYLE('',#405,POSITIVE_LENGTH_MEASURE(1.0E-006),#406);
#272=LINE('',#407,#408);
#273=SURFACE_STYLE_USAGE(.BOTH.,#409);
#274=FACE_OUTER_BOUND('',#410,.T.);
#275=CONICAL_SURFACE('',#411,4.67131248749498,1.56972596421395);
#276=SURFACE_STYLE_USAGE(.BOTH.,#412);
#277=CLOSED_SHELL('',(#112,#102,#150,#128,#164,#92));
#278=POINT_STYLE(' ',#413,POSITIVE_LENGTH_MEASURE(1.0E-006),#414);
#279=CARTESIAN_POINT('',(0.0,7.47908388626344,0.0100000000000122));
#280=CURVE_STYLE('',#415,POSITIVE_LENGTH_MEASURE(1.0E-006),#416);
#281=CIRCLE('',#417,9.34762497498997);
#282=CURVE_STYLE('',#418,POSITIVE_LENGTH_MEASURE(1.0E-006),#419);
#283=LINE('',#420,#421);
#284=POINT_STYLE(' ',#422,POSITIVE_LENGTH_MEASURE(1.0E-006),#423);
#285=CARTESIAN_POINT('',(7.7762503467721E-016,-6.35,-111.09));
#286=CURVE_STYLE('',#424,POSITIVE_LENGTH_MEASURE(1.0E-006),#425);
#287=LINE('',#426,#427);
#288=SURFACE_STYLE_USAGE(.BOTH.,#428);
#289=FACE_OUTER_BOUND('',#429,.T.);
#290=CONICAL_SURFACE('',#430,7.84881248749498,0.0523581340964755);
#291=CURVE_STYLE('',#431,POSITIVE_LENGTH_MEASURE(1.0E-006),#432);
#292=CIRCLE('',#433,9.34262497498997);
#293=CURVE_STYLE('',#434,POSITIVE_LENGTH_MEASURE(1.0E-006),#435);
#294=CIRCLE('',#436,6.35);
#295=CURVE_STYLE('',#437,POSITIVE_LENGTH_MEASURE(1.0E-006),#438);
#296=LINE('',#439,#440);
#297=POINT_STYLE(' ',#441,POSITIVE_LENGTH_MEASURE(1.0E-006),#442);
#298=CARTESIAN_POINT('',(0.0,6.35,-111.09));
#299=PRODUCT_CONTEXT('',#61,'mechanical');
#300=PRODUCT_DEFINITION_FORMATION_WITH_SPECIFIED_SOURCE(' ','NONE',#173,.NOT_KNOWN.);
#301=CARTESIAN_POINT('',(0.0,0.0,0.0));
#302=DIRECTION('',(0.0,0.0,1.0));
#303=DIRECTION('',(1.0,0.0,0.0));
#304=PRODUCT_CONTEXT('',#66,'mechanical');
#305=PRODUCT_DEFINITION_FORMATION_WITH_SPECIFIED_SOURCE(' ','NONE',#176,.NOT_KNOWN.);
#306=CARTESIAN_POINT('',(0.0,0.0,0.0));
#307=DIRECTION('',(0.0,0.0,1.0));
#308=DIRECTION('',(1.0,0.0,0.0));
#309= (NAMED_UNIT(#184)LENGTH_UNIT()SI_UNIT(.MILLI.,.METRE.));
#310=PRE_DEFINED_MARKER('');
#311=COLOUR_RGB('',0.498039215803146,0.498039215803146,0.498039215803146);
#312=PRE_DEFINED_MARKER('');
#313=COLOUR_RGB('',0.498039215803146,0.498039215803146,0.498039215803146);
#314=PRE_DEFINED_MARKER('');
#315=COLOUR_RGB('',0.800000011920929,0.800000011920929,0.800000011920929);
#316=SURFACE_SIDE_STYLE('',(#444));
#317=EDGE_LOOP('',(#445,#446,#447,#448));
#318=AXIS2_PLACEMENT_3D('',#449,#450,#451);
#319=SURFACE_SIDE_STYLE('',(#452));
#320=EDGE_LOOP('',(#453,#454,#455,#456));
#321=AXIS2_PLACEMENT_3D('',#457,#458,#459);
#322=DRAUGHTING_PRE_DEFINED_CURVE_FONT('continuous');
#323=COLOUR_RGB('',0.800000011920929,0.800000011920929,0.800000011920929);
#324=AXIS2_PLACEMENT_3D('',#460,#461,#462);
#325=SURFACE_SIDE_STYLE('',(#463));
#326=EDGE_LOOP('',(#464,#465));
#327=AXIS2_PLACEMENT_3D('',#466,#467,#468);
#328=DRAUGHTING_PRE_DEFINED_CURVE_FONT('continuous');
#329=COLOUR_RGB('',0.498039215803146,0.498039215803146,0.498039215803146);
#330=AXIS2_PLACEMENT_3D('',#469,#470,#471);
#331=SURFACE_SIDE_STYLE('',(#472));
#332=EDGE_LOOP('',(#473,#474));
#333=AXIS2_PLACEMENT_3D('',#475,#476,#477);
#334=DRAUGHTING_PRE_DEFINED_CURVE_FONT('continuous');
#335=COLOUR_RGB('',0.498039215803146,0.498039215803146,0.498039215803146);
#336=AXIS2_PLACEMENT_3D('',#478,#479,#480);
#337=DRAUGHTING_PRE_DEFINED_CURVE_FONT('continuous');
#338=COLOUR_RGB('',0.498039215803146,0.498039215803146,0.498039215803146);
#339=AXIS2_PLACEMENT_3D('',#481,#482,#483);
#340=SURFACE_SIDE_STYLE('',(#484));
#341=EDGE_LOOP('',(#485,#486,#487));
#342=AXIS2_PLACEMENT_3D('',#488,#489,#490);
#343=PRE_DEFINED_MARKER('');
#344=COLOUR_RGB('',0.800000011920929,0.800000011920929,0.800000011920929);
#345=PRE_DEFINED_MARKER('');
#346=COLOUR_RGB('',0.800000011920929,0.800000011920929,0.800000011920929);
#347=SURFACE_SIDE_STYLE('',(#491));
#348=DRAUGHTING_PRE_DEFINED_CURVE_FONT('continuous');
#349=COLOUR_RGB('',0.800000011920929,0.800000011920929,0.800000011920929);
#350=CARTESIAN_POINT('',(-5.72051895287617E-016,4.67131248749498,-53.895));
#351=VECTOR('',#492,1.0);
#352=SURFACE_SIDE_STYLE('',(#493));
#353=EDGE_LOOP('',(#494,#495,#496,#497));
#354=AXIS2_PLACEMENT_3D('',#498,#499,#500);
#355=PRE_DEFINED_MARKER('');
#356=COLOUR_RGB('',0.498039215803146,0.498039215803146,0.498039215803146);
#357=SURFACE_SIDE_STYLE('',(#501));
#358=EDGE_LOOP('',(#502,#503,#504,#505));
#359=AXIS2_PLACEMENT_3D('',#506,#507,#508);
#360=DRAUGHTING_PRE_DEFINED_CURVE_FONT('continuous');
#361=COLOUR_RGB('',0.498039215803146,0.498039215803146,0.498039215803146);
#362=CARTESIAN_POINT('',(9.72031293346512E-016,-7.9375,-20.987));
#363=VECTOR('',#509,1.0);
#364=DRAUGHTING_PRE_DEFINED_CURVE_FONT('continuous');
#365=COLOUR_RGB('',0.498039215803146,0.498039215803146,0.498039215803146);
#366=CARTESIAN_POINT('',(9.43962329067694E-016,-7.70829194313172,-0.386999999999986));
#367=VECTOR('',#510,1.0);
#368=DRAUGHTING_PRE_DEFINED_CURVE_FONT('continuous');
#369=COLOUR_RGB('',0.498039215803146,0.498039215803146,0.498039215803146);
#370=AXIS2_PLACEMENT_3D('',#511,#512,#513);
#371=PRE_DEFINED_MARKER('');
#372=COLOUR_RGB('',0.498039215803146,0.498039215803146,0.498039215803146);
#373=PRE_DEFINED_MARKER('');
#374=COLOUR_RGB('',0.800000011920929,0.800000011920929,0.800000011920929);
#375=SURFACE_SIDE_STYLE('',(#514));
#376=EDGE_LOOP('',(#515,#516));
#377=EDGE_LOOP('',(#517,#518));
#378=AXIS2_PLACEMENT_3D('',#519,#520,#521);
#379=PRE_DEFINED_MARKER('');
#380=COLOUR_RGB('',0.498039215803146,0.498039215803146,0.498039215803146);
#381=DRAUGHTING_PRE_DEFINED_CURVE_FONT('continuous');
#382=COLOUR_RGB('',0.800000011920929,0.800000011920929,0.800000011920929);
#383=AXIS2_PLACEMENT_3D('',#522,#523,#524);
#384=DRAUGHTING_PRE_DEFINED_CURVE_FONT('continuous');
#385=COLOUR_RGB('',0.498039215803146,0.498039215803146,0.498039215803146);
#386=CARTESIAN_POINT('',(-9.43962329067694E-016,7.70829194313172,-0.386999999999986));
#387=VECTOR('',#525,1.0);
#388=PRE_DEFINED_MARKER('');
#389=COLOUR_RGB('',0.800000011920929,0.800000011920929,0.800000011920929);
#390=DRAUGHTING_PRE_DEFINED_CURVE_FONT('continuous');
#391=COLOUR_RGB('',0.498039215803146,0.498039215803146,0.498039215803146);
#392=AXIS2_PLACEMENT_3D('',#526,#527,#528);
#393=SURFACE_SIDE_STYLE('',(#529));
#394=EDGE_LOOP('',(#530,#531,#532,#533));
#395=AXIS2_PLACEMENT_3D('',#534,#535,#536);
#396=DRAUGHTING_PRE_DEFINED_CURVE_FONT('continuous');
#397=COLOUR_RGB('',0.800000011920929,0.800000011920929,0.800000011920929);
#398=AXIS2_PLACEMENT_3D('',#537,#538,#539);
#399=DRAUGHTING_PRE_DEFINED_CURVE_FONT('continuous');
#400=COLOUR_RGB('',0.498039215803146,0.498039215803146,0.498039215803146);
#401=AXIS2_PLACEMENT_3D('',#540,#541,#542);
#402=SURFACE_SIDE_STYLE('',(#543));
#403=EDGE_LOOP('',(#544,#545));
#404=AXIS2_PLACEMENT_3D('',#546,#547,#548);
#405=DRAUGHTING_PRE_DEFINED_CURVE_FONT('continuous');
#406=COLOUR_RGB('',0.800000011920929,0.800000011920929,0.800000011920929);
#407=CARTESIAN_POINT('',(-9.61170564214677E-016,7.84881248749498,-82.49));
#408=VECTOR('',#549,1.0);
#409=SURFACE_SIDE_STYLE('',(#550));
#410=EDGE_LOOP('',(#551,#552,#553));
#411=AXIS2_PLACEMENT_3D('',#554,#555,#556);
#412=SURFACE_SIDE_STYLE('',(#557));
#413=PRE_DEFINED_MARKER('');
#414=COLOUR_RGB('',0.498039215803146,0.498039215803146,0.498039215803146);
#415=DRAUGHTING_PRE_DEFINED_CURVE_FONT('continuous');
#416=COLOUR_RGB('',0.800000011920929,0.800000011920929,0.800000011920929);
#417=AXIS2_PLACEMENT_3D('',#558,#559,#560);
#418=DRAUGHTING_PRE_DEFINED_CURVE_FONT('continuous');
#419=COLOUR_RGB('',0.800000011920929,0.800000011920929,0.800000011920929);
#420=CARTESIAN_POINT('',(5.72051895287617E-016,-4.67131248749498,-53.895));
#421=VECTOR('',#561,1.0);
#422=PRE_DEFINED_MARKER('');
#423=COLOUR_RGB('',0.800000011920929,0.800000011920929,0.800000011920929);
#424=DRAUGHTING_PRE_DEFINED_CURVE_FONT('continuous');
#425=COLOUR_RGB('',0.800000011920929,0.800000011920929,0.800000011920929);
#426=CARTESIAN_POINT('',(9.61170564214677E-016,-7.84881248749498,-82.49));
#427=VECTOR('',#562,1.0);
#428=SURFACE_SIDE_STYLE('',(#563));
#429=EDGE_LOOP('',(#564,#565,#566,#567));
#430=AXIS2_PLACEMENT_3D('',#568,#569,#570);
#431=DRAUGHTING_PRE_DEFINED_CURVE_FONT('continuous');
#432=COLOUR_RGB('',0.800000011920929,0.800000011920929,0.800000011920929);
#433=AXIS2_PLACEMENT_3D('',#571,#572,#573);
#434=DRAUGHTING_PRE_DEFINED_CURVE_FONT('continuous');
#435=COLOUR_RGB('',0.800000011920929,0.800000011920929,0.800000011920929);
#436=AXIS2_PLACEMENT_3D('',#574,#575,#576);
#437=DRAUGHTING_PRE_DEFINED_CURVE_FONT('continuous');
#438=COLOUR_RGB('',0.498039215803146,0.498039215803146,0.498039215803146);
#439=CARTESIAN_POINT('',(-9.72031293346512E-016,7.9375,-20.987));
#440=VECTOR('',#577,1.0);
#441=PRE_DEFINED_MARKER('');
#442=COLOUR_RGB('',0.800000011920929,0.800000011920929,0.800000011920929);
#444=SURFACE_STYLE_FILL_AREA(#578);
#445=ORIENTED_EDGE('',*,*,#170,.T.);
#446=ORIENTED_EDGE('',*,*,#94,.F.);
#447=ORIENTED_EDGE('',*,*,#118,.T.);
#448=ORIENTED_EDGE('',*,*,#144,.T.);
#449=CARTESIAN_POINT('',(0.0,0.0,-20.987));
#450=DIRECTION('',(-0.0,-0.0,1.0));
#451=DIRECTION('',(0.0,1.0,0.0));
#452=SURFACE_STYLE_FILL_AREA(#579);
#453=ORIENTED_EDGE('',*,*,#170,.F.);
#454=ORIENTED_EDGE('',*,*,#122,.T.);
#455=ORIENTED_EDGE('',*,*,#118,.F.);
#456=ORIENTED_EDGE('',*,*,#138,.F.);
#457=CARTESIAN_POINT('',(0.0,0.0,-20.987));
#458=DIRECTION('',(-0.0,-0.0,1.0));
#459=DIRECTION('',(0.0,1.0,0.0));
#460=CARTESIAN_POINT('',(0.0,0.0,-53.89));
#461=DIRECTION('',(0.0,0.0,-1.0));
#462=DIRECTION('',(0.0,1.0,0.0));
#463=SURFACE_STYLE_FILL_AREA(#580);
#464=ORIENTED_EDGE('',*,*,#142,.T.);
#465=ORIENTED_EDGE('',*,*,#168,.T.);
#466=CARTESIAN_POINT('',(0.0,3.1725,-111.09));
#467=DIRECTION('',(0.0,0.0,-1.0));
#468=DIRECTION('',(0.0,1.0,0.0));
#469=CARTESIAN_POINT('',(0.0,0.0,-53.89));
#470=DIRECTION('',(0.0,0.0,-1.0));
#471=DIRECTION('',(0.0,-1.0,0.0));
#472=SURFACE_STYLE_FILL_AREA(#581);
#473=ORIENTED_EDGE('',*,*,#100,.F.);
#474=ORIENTED_EDGE('',*,*,#98,.F.);
#475=CARTESIAN_POINT('',(0.0,3.73954194313172,0.0100000000000122));
#476=DIRECTION('',(-0.0,0.0,1.0));
#477=DIRECTION('',(0.0,-1.0,0.0));
#478=CARTESIAN_POINT('',(0.0,0.0,0.0100000000000122));
#479=DIRECTION('',(0.0,0.0,-1.0));
#480=DIRECTION('',(0.0,1.0,0.0));
#481=CARTESIAN_POINT('',(0.0,0.0,0.0100000000000122));
#482=DIRECTION('',(0.0,0.0,-1.0));
#483=DIRECTION('',(0.0,1.0,0.0));
#484=SURFACE_STYLE_FILL_AREA(#582);
#485=ORIENTED_EDGE('',*,*,#158,.F.);
#486=ORIENTED_EDGE('',*,*,#110,.F.);
#487=ORIENTED_EDGE('',*,*,#166,.F.);
#488=CARTESIAN_POINT('',(0.0,0.0,-53.895));
#489=DIRECTION('',(-0.0,-0.0,1.0));
#490=DIRECTION('',(0.0,1.0,0.0));
#491=SURFACE_STYLE_FILL_AREA(#583);
#492=DIRECTION('',(1.22460565232136E-016,-0.999999427162027,-0.00107036237656822));
#493=SURFACE_STYLE_FILL_AREA(#584);
#494=ORIENTED_EDGE('',*,*,#148,.F.);
#495=ORIENTED_EDGE('',*,*,#90,.T.);
#496=ORIENTED_EDGE('',*,*,#162,.F.);
#497=ORIENTED_EDGE('',*,*,#142,.F.);
#498=CARTESIAN_POINT('',(0.0,0.0,-82.49));
#499=DIRECTION('',(-0.0,-0.0,1.0));
#500=DIRECTION('',(0.0,1.0,0.0));
#501=SURFACE_STYLE_FILL_AREA(#585);
#502=ORIENTED_EDGE('',*,*,#134,.F.);
#503=ORIENTED_EDGE('',*,*,#100,.T.);
#504=ORIENTED_EDGE('',*,*,#120,.F.);
#505=ORIENTED_EDGE('',*,*,#122,.F.);
#506=CARTESIAN_POINT('',(0.0,0.0,-0.386999999999986));
#507=DIRECTION('',(0.0,-0.0,-1.0));
#508=DIRECTION('',(0.0,1.0,0.0));
#509=DIRECTION('',(-0.0,-0.0,1.0));
#510=DIRECTION('',(-6.12303176911191E-017,0.500000000000002,0.866025403784438));
#511=CARTESIAN_POINT('',(0.0,0.0,-0.783999999999985));
#512=DIRECTION('',(0.0,0.0,-1.0));
#513=DIRECTION('',(0.0,1.0,0.0));
#514=SURFACE_STYLE_FILL_AREA(#586);
#515=ORIENTED_EDGE('',*,*,#90,.F.);
#516=ORIENTED_EDGE('',*,*,#156,.F.);
#517=ORIENTED_EDGE('',*,*,#132,.T.);
#518=ORIENTED_EDGE('',*,*,#166,.T.);
#519=CARTESIAN_POINT('',(0.0,9.34512497498996,-53.89));
#520=DIRECTION('',(-0.0,0.0,1.0));
#521=DIRECTION('',(0.0,-1.0,0.0));
#522=CARTESIAN_POINT('',(0.0,0.0,-53.89));
#523=DIRECTION('',(0.0,0.0,-1.0));
#524=DIRECTION('',(0.0,1.0,0.0));
#525=DIRECTION('',(-6.12303176911191E-017,0.500000000000002,-0.866025403784438));
#526=CARTESIAN_POINT('',(0.0,0.0,-53.89));
#527=DIRECTION('',(0.0,0.0,-1.0));
#528=DIRECTION('',(0.0,-1.0,0.0));
#529=SURFACE_STYLE_FILL_AREA(#587);
#530=ORIENTED_EDGE('',*,*,#134,.T.);
#531=ORIENTED_EDGE('',*,*,#144,.F.);
#532=ORIENTED_EDGE('',*,*,#120,.T.);
#533=ORIENTED_EDGE('',*,*,#98,.T.);
#534=CARTESIAN_POINT('',(0.0,0.0,-0.386999999999986));
#535=DIRECTION('',(0.0,-0.0,-1.0));
#536=DIRECTION('',(0.0,1.0,0.0));
#537=CARTESIAN_POINT('',(0.0,0.0,-111.09));
#538=DIRECTION('',(0.0,0.0,-1.0));
#539=DIRECTION('',(0.0,1.0,0.0));
#540=CARTESIAN_POINT('',(0.0,0.0,-0.783999999999985));
#541=DIRECTION('',(0.0,0.0,-1.0));
#542=DIRECTION('',(0.0,1.0,0.0));
#543=SURFACE_STYLE_FILL_AREA(#588);
#544=ORIENTED_EDGE('',*,*,#94,.T.);
#545=ORIENTED_EDGE('',*,*,#138,.T.);
#546=CARTESIAN_POINT('',(0.0,0.0,-53.89));
#547=DIRECTION('',(0.0,0.0,-1.0));
#548=DIRECTION('',(0.0,-1.0,0.0));
#549=DIRECTION('',(6.40888124181005E-018,-0.0523342151688658,-0.998629625998878));
#550=SURFACE_STYLE_FILL_AREA(#589);
#551=ORIENTED_EDGE('',*,*,#158,.T.);
#552=ORIENTED_EDGE('',*,*,#132,.F.);
#553=ORIENTED_EDGE('',*,*,#110,.T.);
#554=CARTESIAN_POINT('',(0.0,0.0,-53.895));
#555=DIRECTION('',(-0.0,-0.0,1.0));
#556=DIRECTION('',(0.0,1.0,0.0));
#557=SURFACE_STYLE_FILL_AREA(#590);
#558=CARTESIAN_POINT('',(0.0,0.0,-53.89));
#559=DIRECTION('',(0.0,0.0,-1.0));
#560=DIRECTION('',(0.0,1.0,0.0));
#561=DIRECTION('',(1.22460565232136E-016,-0.999999427162027,0.00107036237656822));
#562=DIRECTION('',(6.40888124181005E-018,-0.0523342151688658,0.998629625998878));
#563=SURFACE_STYLE_FILL_AREA(#591);
#564=ORIENTED_EDGE('',*,*,#148,.T.);
#565=ORIENTED_EDGE('',*,*,#168,.F.);
#566=ORIENTED_EDGE('',*,*,#162,.T.);
#567=ORIENTED_EDGE('',*,*,#156,.T.);
#568=CARTESIAN_POINT('',(0.0,0.0,-82.49));
#569=DIRECTION('',(-0.0,-0.0,1.0));
#570=DIRECTION('',(0.0,1.0,0.0));
#571=CARTESIAN_POINT('',(0.0,0.0,-53.89));
#572=DIRECTION('',(0.0,0.0,-1.0));
#573=DIRECTION('',(0.0,1.0,0.0));
#574=CARTESIAN_POINT('',(0.0,0.0,-111.09));
#575=DIRECTION('',(0.0,0.0,-1.0));
#576=DIRECTION('',(0.0,1.0,0.0));
#577=DIRECTION('',(0.0,0.0,-1.0));
#578=FILL_AREA_STYLE('',(#592));
#579=FILL_AREA_STYLE('',(#593));
#580=FILL_AREA_STYLE('',(#594));
#581=FILL_AREA_STYLE('',(#595));
#582=FILL_AREA_STYLE('',(#596));
#583=FILL_AREA_STYLE('',(#597));
#584=FILL_AREA_STYLE('',(#598));
#585=FILL_AREA_STYLE('',(#599));
#586=FILL_AREA_STYLE('',(#600));
#587=FILL_AREA_STYLE('',(#601));
#588=FILL_AREA_STYLE('',(#602));
#589=FILL_AREA_STYLE('',(#603));
#590=FILL_AREA_STYLE('',(#604));
#591=FILL_AREA_STYLE('',(#605));
#592=FILL_AREA_STYLE_COLOUR('',#606);
#593=FILL_AREA_STYLE_COLOUR('',#607);
#594=FILL_AREA_STYLE_COLOUR('',#608);
#595=FILL_AREA_STYLE_COLOUR('',#609);
#596=FILL_AREA_STYLE_COLOUR('',#610);
#597=FILL_AREA_STYLE_COLOUR('',#611);
#598=FILL_AREA_STYLE_COLOUR('',#612);
#599=FILL_AREA_STYLE_COLOUR('',#613);
#600=FILL_AREA_STYLE_COLOUR('',#614);
#601=FILL_AREA_STYLE_COLOUR('',#615);
#602=FILL_AREA_STYLE_COLOUR('',#616);
#603=FILL_AREA_STYLE_COLOUR('',#617);
#604=FILL_AREA_STYLE_COLOUR('',#618);
#605=FILL_AREA_STYLE_COLOUR('',#619);
#606=COLOUR_RGB('',0.498039215803146,0.498039215803146,0.498039215803146);
#607=COLOUR_RGB('',0.498039215803146,0.498039215803146,0.498039215803146);
#608=COLOUR_RGB('',0.800000011920929,0.800000011920929,0.800000011920929);
#609=COLOUR_RGB('',0.498039215803146,0.498039215803146,0.498039215803146);
#610=COLOUR_RGB('',0.800000011920929,0.800000011920929,0.800000011920929);
#611=COLOUR_RGB('',0.800000011920929,0.800000011920929,0.800000011920929);
#612=COLOUR_RGB('',0.800000011920929,0.800000011920929,0.800000011920929);
#613=COLOUR_RGB('',0.498039215803146,0.498039215803146,0.498039215803146);
#614=COLOUR_RGB('',0.800000011920929,0.800000011920929,0.800000011920929);
#615=COLOUR_RGB('',0.498039215803146,0.498039215803146,0.498039215803146);
#616=COLOUR_RGB('',0.498039215803146,0.498039215803146,0.498039215803146);
#617=COLOUR_RGB('',0.800000011920929,0.800000011920929,0.800000011920929);
#618=COLOUR_RGB('',0.800000011920929,0.800000011920929,0.800000011920929);
#619=COLOUR_RGB('',0.800000011920929,0.800000011920929,0.800000011920929);
#620=AXIS2_PLACEMENT_3D('PCS',#621,#622,#623);
#621=CARTESIAN_POINT('',(0.0,0.0,0.0));
#622=DIRECTION('',(0.0,0.0,1.0));
#623=DIRECTION('',(1.0,0.0,0.0));
#624=AXIS2_PLACEMENT_3D('CIP',#625,#626,#627);
#625=CARTESIAN_POINT('',(0.0,0.0,-111.1));
#626=DIRECTION('',(0.0,0.0,1.0));
#627=DIRECTION('',(1.0,0.0,0.0));
#628=AXIS2_PLACEMENT_3D('CRP',#629,#630,#631);
#629=CARTESIAN_POINT('',(-6.35,0.0,-111.1));
#630=DIRECTION('',(0.0,0.0,1.0));
#631=DIRECTION('',(1.0,0.0,0.0));
#632=AXIS2_PLACEMENT_3D('MCS',#633,#634,#635);
#633=CARTESIAN_POINT('',(0.0,0.0,-41.2));
#634=DIRECTION('',(0.0,0.0,1.0));
#635=DIRECTION('',(1.0,0.0,0.0));
#636=CONSTRUCTIVE_GEOMETRY_REPRESENTATION_RELATIONSHIP('coordinate systems',$,#65,#637);
#637=CONSTRUCTIVE_GEOMETRY_REPRESENTATION('coordinate systems',(#620,#624,#628,#632),#10);
ENDSEC;
END-ISO-10303-21;
