ISO-10303-21;
HEADER;
FILE_DESCRIPTION(('no description'),'unknown implementation level');
FILE_NAME('solid_yofsBVEX7Df35HcQ23G1DWlzoA_1.STP','  ',('CIMSOURCE GmbH'),('CADClick - KiM GmbH - www.kimweb.de'),'unknown preprocess','ACIS','unknown authorization');
FILE_SCHEMA(('automotive_design'));
ENDSEC;
DATA;
#1=MECHANICAL_DESIGN_GEOMETRIC_PRESENTATION_REPRESENTATION(' ',(#14,#15,#16,#17,#18,#19,#20,#21,#22,#23,#24,#25,#26,#27,#28,#29,#30,#31,#32,#33,#34,#35,#36,#37,#38,#39,#40,#41,#42,#43,#44,#45,#46,#47,#48,#49,#50,#51,#52,#53,#54,#55,#56,#57,#58,#59,#60),#10);
#2=PRODUCT_DEFINITION_CONTEXT('',#61,'design');
#3=APPLICATION_PROTOCOL_DEFINITION('INTERNATIONAL STANDARD','automotive_design',1994,#61);
#4=PRODUCT_CATEGORY_RELATIONSHIP('NONE','NONE',#62,#63);
#5=SHAPE_DEFINITION_REPRESENTATION(#64,#65);
#6=PRODUCT_DEFINITION_CONTEXT('',#66,'design');
#7=APPLICATION_PROTOCOL_DEFINITION('INTERNATIONAL STANDARD','automotive_design',1994,#66);
#8=PRODUCT_CATEGORY_RELATIONSHIP('NONE','NONE',#67,#68);
#9=SHAPE_DEFINITION_REPRESENTATION(#69,#70);
#10= (GEOMETRIC_REPRESENTATION_CONTEXT(3)GLOBAL_UNCERTAINTY_ASSIGNED_CONTEXT((#73))GLOBAL_UNIT_ASSIGNED_CONTEXT((#75,#76,#77))REPRESENTATION_CONTEXT('NONE','WORKSPACE'));
#14=STYLED_ITEM('',(#79),#80);
#15=STYLED_ITEM('',(#81),#82);
#16=STYLED_ITEM('',(#83),#84);
#17=STYLED_ITEM('',(#85),#86);
#18=STYLED_ITEM('',(#87),#88);
#19=STYLED_ITEM('',(#89),#90);
#20=STYLED_ITEM('',(#91),#92);
#21=STYLED_ITEM('',(#93),#94);
#22=STYLED_ITEM('',(#95),#96);
#23=STYLED_ITEM('',(#97),#98);
#24=STYLED_ITEM('',(#99),#100);
#25=STYLED_ITEM('',(#101),#102);
#26=STYLED_ITEM('',(#103),#104);
#27=STYLED_ITEM('',(#105),#106);
#28=STYLED_ITEM('',(#107),#108);
#29=STYLED_ITEM('',(#109),#110);
#30=STYLED_ITEM('',(#111),#112);
#31=STYLED_ITEM('',(#113),#114);
#32=STYLED_ITEM('',(#115),#116);
#33=STYLED_ITEM('',(#117),#118);
#34=STYLED_ITEM('',(#119),#120);
#35=STYLED_ITEM('',(#121),#122);
#36=STYLED_ITEM('',(#123),#124);
#37=STYLED_ITEM('',(#125),#126);
#38=STYLED_ITEM('',(#127),#128);
#39=STYLED_ITEM('',(#129),#130);
#40=STYLED_ITEM('',(#131),#132);
#41=STYLED_ITEM('',(#133),#134);
#42=STYLED_ITEM('',(#135),#136);
#43=STYLED_ITEM('',(#137),#138);
#44=STYLED_ITEM('',(#139),#140);
#45=STYLED_ITEM('',(#141),#142);
#46=STYLED_ITEM('',(#143),#144);
#47=STYLED_ITEM('',(#145),#146);
#48=STYLED_ITEM('',(#147),#148);
#49=STYLED_ITEM('',(#149),#150);
#50=STYLED_ITEM('',(#151),#152);
#51=STYLED_ITEM('',(#153),#154);
#52=STYLED_ITEM('',(#155),#156);
#53=STYLED_ITEM('',(#157),#158);
#54=STYLED_ITEM('',(#159),#160);
#55=STYLED_ITEM('',(#161),#162);
#56=STYLED_ITEM('',(#163),#164);
#57=STYLED_ITEM('',(#165),#166);
#58=STYLED_ITEM('',(#167),#168);
#59=STYLED_ITEM('',(#169),#170);
#60=STYLED_ITEM('',(#171),#172);
#61=APPLICATION_CONTEXT(' ');
#62=PRODUCT_CATEGORY('part','NONE');
#63=PRODUCT_RELATED_PRODUCT_CATEGORY('detail',' ',(#173));
#64=PRODUCT_DEFINITION_SHAPE('NONE','NONE',#174);
#65=ADVANCED_BREP_SHAPE_REPRESENTATION('1',(#138,#175),#10);
#66=APPLICATION_CONTEXT(' ');
#67=PRODUCT_CATEGORY('part','NONE');
#68=PRODUCT_RELATED_PRODUCT_CATEGORY('detail',' ',(#176));
#69=PRODUCT_DEFINITION_SHAPE('NONE','NONE',#177);
#70=ADVANCED_BREP_SHAPE_REPRESENTATION('2',(#154,#178),#10);
#73=UNCERTAINTY_MEASURE_WITH_UNIT(LENGTH_MEASURE(1.0E-006),#75,'','');
#75= (CONVERSION_BASED_UNIT('MILLIMETRE',#181)LENGTH_UNIT()NAMED_UNIT(#184));
#76= (NAMED_UNIT(#186)PLANE_ANGLE_UNIT()SI_UNIT($,.RADIAN.));
#77= (NAMED_UNIT(#186)SOLID_ANGLE_UNIT()SI_UNIT($,.STERADIAN.));
#79=PRESENTATION_STYLE_ASSIGNMENT((#192));
#80=EDGE_CURVE('',#144,#112,#193,.T.);
#81=PRESENTATION_STYLE_ASSIGNMENT((#194));
#82=EDGE_CURVE('',#126,#112,#195,.T.);
#83=PRESENTATION_STYLE_ASSIGNMENT((#196));
#84=EDGE_CURVE('',#112,#126,#197,.T.);
#85=PRESENTATION_STYLE_ASSIGNMENT((#198));
#86=VERTEX_POINT('',#199);
#87=PRESENTATION_STYLE_ASSIGNMENT((#200));
#88=ADVANCED_FACE('',(#201),#202,.T.);
#89=PRESENTATION_STYLE_ASSIGNMENT((#203));
#90=ADVANCED_FACE('',(#204),#205,.T.);
#91=PRESENTATION_STYLE_ASSIGNMENT((#206));
#92=EDGE_CURVE('',#98,#146,#207,.T.);
#93=PRESENTATION_STYLE_ASSIGNMENT((#208));
#94=ADVANCED_FACE('',(#209),#210,.T.);
#95=PRESENTATION_STYLE_ASSIGNMENT((#211));
#96=VERTEX_POINT('',#212);
#97=PRESENTATION_STYLE_ASSIGNMENT((#213));
#98=VERTEX_POINT('',#214);
#99=PRESENTATION_STYLE_ASSIGNMENT((#215));
#100=ADVANCED_FACE('',(#216),#217,.F.);
#101=PRESENTATION_STYLE_ASSIGNMENT((#218));
#102=ADVANCED_FACE('',(#219),#220,.T.);
#103=PRESENTATION_STYLE_ASSIGNMENT((#221));
#104=ADVANCED_FACE('',(#222),#223,.T.);
#105=PRESENTATION_STYLE_ASSIGNMENT((#224));
#106=EDGE_CURVE('',#116,#146,#225,.T.);
#107=PRESENTATION_STYLE_ASSIGNMENT((#226));
#108=VERTEX_POINT('',#227);
#109=PRESENTATION_STYLE_ASSIGNMENT((#228));
#110=EDGE_CURVE('',#108,#120,#229,.T.);
#111=PRESENTATION_STYLE_ASSIGNMENT((#230));
#112=VERTEX_POINT('',#231);
#113=PRESENTATION_STYLE_ASSIGNMENT((#232));
#114=ADVANCED_FACE('',(#233),#234,.F.);
#115=PRESENTATION_STYLE_ASSIGNMENT((#235));
#116=VERTEX_POINT('',#236);
#117=PRESENTATION_STYLE_ASSIGNMENT((#237));
#118=EDGE_CURVE('',#96,#164,#238,.T.);
#119=PRESENTATION_STYLE_ASSIGNMENT((#239));
#120=VERTEX_POINT('',#240);
#121=PRESENTATION_STYLE_ASSIGNMENT((#241));
#122=EDGE_CURVE('',#86,#160,#242,.T.);
#123=PRESENTATION_STYLE_ASSIGNMENT((#243));
#124=EDGE_CURVE('',#116,#98,#244,.T.);
#125=PRESENTATION_STYLE_ASSIGNMENT((#245));
#126=VERTEX_POINT('',#246);
#127=PRESENTATION_STYLE_ASSIGNMENT((#247));
#128=ADVANCED_FACE('',(#248),#249,.T.);
#129=PRESENTATION_STYLE_ASSIGNMENT((#250));
#130=EDGE_CURVE('',#160,#164,#251,.T.);
#131=PRESENTATION_STYLE_ASSIGNMENT((#252));
#132=VERTEX_POINT('',#253);
#133=PRESENTATION_STYLE_ASSIGNMENT((#254));
#134=EDGE_CURVE('',#144,#132,#255,.T.);
#135=PRESENTATION_STYLE_ASSIGNMENT((#256));
#136=EDGE_CURVE('',#96,#86,#257,.T.);
#137=PRESENTATION_STYLE_ASSIGNMENT((#258));
#138=MANIFOLD_SOLID_BREP('1',#259);
#139=PRESENTATION_STYLE_ASSIGNMENT((#260));
#140=EDGE_CURVE('',#164,#96,#261,.T.);
#141=PRESENTATION_STYLE_ASSIGNMENT((#262));
#142=ADVANCED_FACE('',(#263),#264,.T.);
#143=PRESENTATION_STYLE_ASSIGNMENT((#265));
#144=VERTEX_POINT('',#266);
#145=PRESENTATION_STYLE_ASSIGNMENT((#267));
#146=VERTEX_POINT('',#268);
#147=PRESENTATION_STYLE_ASSIGNMENT((#269));
#148=EDGE_CURVE('',#120,#96,#270,.T.);
#149=PRESENTATION_STYLE_ASSIGNMENT((#271));
#150=EDGE_CURVE('',#120,#108,#272,.T.);
#151=PRESENTATION_STYLE_ASSIGNMENT((#273));
#152=EDGE_CURVE('',#164,#108,#274,.T.);
#153=PRESENTATION_STYLE_ASSIGNMENT((#275));
#154=MANIFOLD_SOLID_BREP('2',#276);
#155=PRESENTATION_STYLE_ASSIGNMENT((#277));
#156=EDGE_CURVE('',#146,#116,#278,.T.);
#157=PRESENTATION_STYLE_ASSIGNMENT((#279));
#158=ADVANCED_FACE('',(#280),#281,.T.);
#159=PRESENTATION_STYLE_ASSIGNMENT((#282));
#160=VERTEX_POINT('',#283);
#161=PRESENTATION_STYLE_ASSIGNMENT((#284));
#162=ADVANCED_FACE('',(#285),#286,.T.);
#163=PRESENTATION_STYLE_ASSIGNMENT((#287));
#164=VERTEX_POINT('',#288);
#165=PRESENTATION_STYLE_ASSIGNMENT((#289));
#166=EDGE_CURVE('',#132,#144,#290,.T.);
#167=PRESENTATION_STYLE_ASSIGNMENT((#291));
#168=EDGE_CURVE('',#160,#86,#292,.T.);
#169=PRESENTATION_STYLE_ASSIGNMENT((#293));
#170=EDGE_CURVE('',#126,#132,#294,.T.);
#171=PRESENTATION_STYLE_ASSIGNMENT((#295));
#172=ADVANCED_FACE('',(#296,#297),#298,.T.);
#173=PRODUCT('1','1','PART-1-DESC',(#299));
#174=PRODUCT_DEFINITION('NONE','NONE',#300,#2);
#175=AXIS2_PLACEMENT_3D('',#301,#302,#303);
#176=PRODUCT('2','2','PART-2-DESC',(#304));
#177=PRODUCT_DEFINITION('NONE','NONE',#305,#6);
#178=AXIS2_PLACEMENT_3D('',#306,#307,#308);
#181=LENGTH_MEASURE_WITH_UNIT(LENGTH_MEASURE(1.0),#309);
#184=DIMENSIONAL_EXPONENTS(1.0,0.0,0.0,0.0,0.0,0.0,0.0);
#186=DIMENSIONAL_EXPONENTS(0.0,0.0,0.0,0.0,0.0,0.0,0.0);
#192=CURVE_STYLE('',#310,POSITIVE_LENGTH_MEASURE(1.0E-006),#311);
#193=LINE('',#312,#313);
#194=CURVE_STYLE('',#314,POSITIVE_LENGTH_MEASURE(1.0E-006),#315);
#195=CIRCLE('',#316,4.9207180803377);
#196=CURVE_STYLE('',#317,POSITIVE_LENGTH_MEASURE(1.0E-006),#318);
#197=CIRCLE('',#319,4.9207180803377);
#198=POINT_STYLE(' ',#320,POSITIVE_LENGTH_MEASURE(1.0E-006),#321);
#199=CARTESIAN_POINT('',(5.27080847450271E-016,-4.30408388626344,0.0100000000000051));
#200=SURFACE_STYLE_USAGE(.BOTH.,#322);
#201=FACE_OUTER_BOUND('',#323,.T.);
#202=PLANE('',#324);
#203=SURFACE_STYLE_USAGE(.BOTH.,#325);
#204=FACE_OUTER_BOUND('',#326,.T.);
#205=PLANE('',#327);
#206=CURVE_STYLE('',#328,POSITIVE_LENGTH_MEASURE(1.0E-006),#329);
#207=LINE('',#330,#331);
#208=SURFACE_STYLE_USAGE(.BOTH.,#332);
#209=FACE_OUTER_BOUND('',#333,.T.);
#210=CONICAL_SURFACE('',#334,4.53329194313172,0.523598775598301);
#211=POINT_STYLE(' ',#335,POSITIVE_LENGTH_MEASURE(1.0E-006),#336);
#212=CARTESIAN_POINT('',(5.83218776007907E-016,-4.7625,-0.783999999999992));
#213=POINT_STYLE(' ',#337,POSITIVE_LENGTH_MEASURE(1.0E-006),#338);
#214=CARTESIAN_POINT('',(0.0,0.0,-44.5));
#215=SURFACE_STYLE_USAGE(.BOTH.,#339);
#216=FACE_OUTER_BOUND('',#340,.T.);
#217=CONICAL_SURFACE('',#341,2.45785904016885,1.56876203881456);
#218=SURFACE_STYLE_USAGE(.BOTH.,#342);
#219=FACE_OUTER_BOUND('',#343,.T.);
#220=CONICAL_SURFACE('',#344,3.25410904016885,0.0872638578645389);
#221=SURFACE_STYLE_USAGE(.BOTH.,#345);
#222=FACE_OUTER_BOUND('',#346,.T.);
#223=CONICAL_SURFACE('',#347,4.53329194313172,0.523598775598301);
#224=CURVE_STYLE('',#348,POSITIVE_LENGTH_MEASURE(1.0E-006),#349);
#225=CIRCLE('',#350,4.9157180803377);
#226=POINT_STYLE(' ',#351,POSITIVE_LENGTH_MEASURE(1.0E-006),#352);
#227=CARTESIAN_POINT('',(-5.83218776007907E-016,4.7625,-44.49));
#228=CURVE_STYLE('',#353,POSITIVE_LENGTH_MEASURE(1.0E-006),#354);
#229=CIRCLE('',#355,4.7625);
#230=POINT_STYLE(' ',#356,POSITIVE_LENGTH_MEASURE(1.0E-006),#357);
#231=CARTESIAN_POINT('',(6.0259426265502E-016,-4.9207180803377,-44.49));
#232=SURFACE_STYLE_USAGE(.BOTH.,#358);
#233=FACE_OUTER_BOUND('',#359,.T.);
#234=CONICAL_SURFACE('',#360,2.45785904016885,1.56876203881456);
#235=POINT_STYLE(' ',#361,POSITIVE_LENGTH_MEASURE(1.0E-006),#362);
#236=CARTESIAN_POINT('',(0.0,4.9157180803377,-44.49));
#237=CURVE_STYLE('',#363,POSITIVE_LENGTH_MEASURE(1.0E-006),#364);
#238=CIRCLE('',#365,4.7625);
#239=POINT_STYLE(' ',#366,POSITIVE_LENGTH_MEASURE(1.0E-006),#367);
#240=CARTESIAN_POINT('',(0.0,-4.7625,-44.49));
#241=CURVE_STYLE('',#368,POSITIVE_LENGTH_MEASURE(1.0E-006),#369);
#242=CIRCLE('',#370,4.30408388626344);
#243=CURVE_STYLE('',#371,POSITIVE_LENGTH_MEASURE(1.0E-006),#372);
#244=LINE('',#373,#374);
#245=POINT_STYLE(' ',#375,POSITIVE_LENGTH_MEASURE(1.0E-006),#376);
#246=CARTESIAN_POINT('',(0.0,4.9207180803377,-44.49));
#247=SURFACE_STYLE_USAGE(.BOTH.,#377);
#248=FACE_OUTER_BOUND('',#378,.T.);
#249=CYLINDRICAL_SURFACE('',#379,4.7625);
#250=CURVE_STYLE('',#380,POSITIVE_LENGTH_MEASURE(1.0E-006),#381);
#251=LINE('',#382,#383);
#252=POINT_STYLE(' ',#384,POSITIVE_LENGTH_MEASURE(1.0E-006),#385);
#253=CARTESIAN_POINT('',(0.0,1.5875,-82.59));
#254=CURVE_STYLE('',#386,POSITIVE_LENGTH_MEASURE(1.0E-006),#387);
#255=CIRCLE('',#388,1.5875);
#256=CURVE_STYLE('',#389,POSITIVE_LENGTH_MEASURE(1.0E-006),#390);
#257=LINE('',#391,#392);
#258=SURFACE_STYLE_USAGE(.BOTH.,#393);
#259=CLOSED_SHELL('',(#162,#114,#100,#172,#102,#90));
#260=CURVE_STYLE('',#394,POSITIVE_LENGTH_MEASURE(1.0E-006),#395);
#261=CIRCLE('',#396,4.7625);
#262=SURFACE_STYLE_USAGE(.BOTH.,#397);
#263=FACE_OUTER_BOUND('',#398,.T.);
#264=CYLINDRICAL_SURFACE('',#399,4.7625);
#265=POINT_STYLE(' ',#400,POSITIVE_LENGTH_MEASURE(1.0E-006),#401);
#266=CARTESIAN_POINT('',(1.94406258669302E-016,-1.5875,-82.59));
#267=POINT_STYLE(' ',#402,POSITIVE_LENGTH_MEASURE(1.0E-006),#403);
#268=CARTESIAN_POINT('',(6.01981959478109E-016,-4.9157180803377,-44.49));
#269=CURVE_STYLE('',#404,POSITIVE_LENGTH_MEASURE(1.0E-006),#405);
#270=LINE('',#406,#407);
#271=CURVE_STYLE('',#408,POSITIVE_LENGTH_MEASURE(1.0E-006),#409);
#272=CIRCLE('',#410,4.7625);
#273=CURVE_STYLE('',#411,POSITIVE_LENGTH_MEASURE(1.0E-006),#412);
#274=LINE('',#413,#414);
#275=SURFACE_STYLE_USAGE(.BOTH.,#415);
#276=CLOSED_SHELL('',(#142,#94,#158,#88,#104,#128));
#277=CURVE_STYLE('',#416,POSITIVE_LENGTH_MEASURE(1.0E-006),#417);
#278=CIRCLE('',#418,4.9157180803377);
#279=SURFACE_STYLE_USAGE(.BOTH.,#419);
#280=FACE_OUTER_BOUND('',#420,.T.);
#281=PLANE('',#421);
#282=POINT_STYLE(' ',#422,POSITIVE_LENGTH_MEASURE(1.0E-006),#423);
#283=CARTESIAN_POINT('',(0.0,4.30408388626344,0.0100000000000051));
#284=SURFACE_STYLE_USAGE(.BOTH.,#424);
#285=FACE_OUTER_BOUND('',#425,.T.);
#286=CONICAL_SURFACE('',#426,3.25410904016885,0.0872638578645389);
#287=POINT_STYLE(' ',#427,POSITIVE_LENGTH_MEASURE(1.0E-006),#428);
#288=CARTESIAN_POINT('',(0.0,4.7625,-0.783999999999992));
#289=CURVE_STYLE('',#429,POSITIVE_LENGTH_MEASURE(1.0E-006),#430);
#290=CIRCLE('',#431,1.5875);
#291=CURVE_STYLE('',#432,POSITIVE_LENGTH_MEASURE(1.0E-006),#433);
#292=CIRCLE('',#434,4.30408388626344);
#293=CURVE_STYLE('',#435,POSITIVE_LENGTH_MEASURE(1.0E-006),#436);
#294=LINE('',#437,#438);
#295=SURFACE_STYLE_USAGE(.BOTH.,#439);
#296=FACE_OUTER_BOUND('',#440,.T.);
#297=FACE_BOUND('',#441,.T.);
#298=PLANE('',#442);
#299=PRODUCT_CONTEXT('',#61,'mechanical');
#300=PRODUCT_DEFINITION_FORMATION_WITH_SPECIFIED_SOURCE(' ','NONE',#173,.NOT_KNOWN.);
#301=CARTESIAN_POINT('',(0.0,0.0,0.0));
#302=DIRECTION('',(0.0,0.0,1.0));
#303=DIRECTION('',(1.0,0.0,0.0));
#304=PRODUCT_CONTEXT('',#66,'mechanical');
#305=PRODUCT_DEFINITION_FORMATION_WITH_SPECIFIED_SOURCE(' ','NONE',#176,.NOT_KNOWN.);
#306=CARTESIAN_POINT('',(0.0,0.0,0.0));
#307=DIRECTION('',(0.0,0.0,1.0));
#308=DIRECTION('',(1.0,0.0,0.0));
#309= (NAMED_UNIT(#184)LENGTH_UNIT()SI_UNIT(.MILLI.,.METRE.));
#310=DRAUGHTING_PRE_DEFINED_CURVE_FONT('continuous');
#311=COLOUR_RGB('',0.800000011920929,0.800000011920929,0.800000011920929);
#312=CARTESIAN_POINT('',(3.98500260662161E-016,-3.25410904016885,-63.54));
#313=VECTOR('',#444,1.0);
#314=DRAUGHTING_PRE_DEFINED_CURVE_FONT('continuous');
#315=COLOUR_RGB('',0.800000011920929,0.800000011920929,0.800000011920929);
#316=AXIS2_PLACEMENT_3D('',#445,#446,#447);
#317=DRAUGHTING_PRE_DEFINED_CURVE_FONT('continuous');
#318=COLOUR_RGB('',0.800000011920929,0.800000011920929,0.800000011920929);
#319=AXIS2_PLACEMENT_3D('',#448,#449,#450);
#320=PRE_DEFINED_MARKER('');
#321=COLOUR_RGB('',0.498039215803146,0.498039215803146,0.498039215803146);
#322=SURFACE_SIDE_STYLE('',(#451));
#323=EDGE_LOOP('',(#452,#453));
#324=AXIS2_PLACEMENT_3D('',#454,#455,#456);
#325=SURFACE_SIDE_STYLE('',(#457));
#326=EDGE_LOOP('',(#458,#459));
#327=AXIS2_PLACEMENT_3D('',#460,#461,#462);
#328=DRAUGHTING_PRE_DEFINED_CURVE_FONT('continuous');
#329=COLOUR_RGB('',0.800000011920929,0.800000011920929,0.800000011920929);
#330=CARTESIAN_POINT('',(3.00990979739055E-016,-2.45785904016885,-44.495));
#331=VECTOR('',#463,1.0);
#332=SURFACE_SIDE_STYLE('',(#464));
#333=EDGE_LOOP('',(#465,#466,#467,#468));
#334=AXIS2_PLACEMENT_3D('',#469,#470,#471);
#335=PRE_DEFINED_MARKER('');
#336=COLOUR_RGB('',0.498039215803146,0.498039215803146,0.498039215803146);
#337=PRE_DEFINED_MARKER('');
#338=COLOUR_RGB('',0.800000011920929,0.800000011920929,0.800000011920929);
#339=SURFACE_SIDE_STYLE('',(#472));
#340=EDGE_LOOP('',(#473,#474,#475));
#341=AXIS2_PLACEMENT_3D('',#476,#477,#478);
#342=SURFACE_SIDE_STYLE('',(#479));
#343=EDGE_LOOP('',(#480,#481,#482,#483));
#344=AXIS2_PLACEMENT_3D('',#484,#485,#486);
#345=SURFACE_SIDE_STYLE('',(#487));
#346=EDGE_LOOP('',(#488,#489,#490,#491));
#347=AXIS2_PLACEMENT_3D('',#492,#493,#494);
#348=DRAUGHTING_PRE_DEFINED_CURVE_FONT('continuous');
#349=COLOUR_RGB('',0.800000011920929,0.800000011920929,0.800000011920929);
#350=AXIS2_PLACEMENT_3D('',#495,#496,#497);
#351=PRE_DEFINED_MARKER('');
#352=COLOUR_RGB('',0.498039215803146,0.498039215803146,0.498039215803146);
#353=DRAUGHTING_PRE_DEFINED_CURVE_FONT('continuous');
#354=COLOUR_RGB('',0.498039215803146,0.498039215803146,0.498039215803146);
#355=AXIS2_PLACEMENT_3D('',#498,#499,#500);
#356=PRE_DEFINED_MARKER('');
#357=COLOUR_RGB('',0.800000011920929,0.800000011920929,0.800000011920929);
#358=SURFACE_SIDE_STYLE('',(#501));
#359=EDGE_LOOP('',(#502,#503,#504));
#360=AXIS2_PLACEMENT_3D('',#505,#506,#507);
#361=PRE_DEFINED_MARKER('');
#362=COLOUR_RGB('',0.800000011920929,0.800000011920929,0.800000011920929);
#363=DRAUGHTING_PRE_DEFINED_CURVE_FONT('continuous');
#364=COLOUR_RGB('',0.498039215803146,0.498039215803146,0.498039215803146);
#365=AXIS2_PLACEMENT_3D('',#508,#509,#510);
#366=PRE_DEFINED_MARKER('');
#367=COLOUR_RGB('',0.498039215803146,0.498039215803146,0.498039215803146);
#368=DRAUGHTING_PRE_DEFINED_CURVE_FONT('continuous');
#369=COLOUR_RGB('',0.498039215803146,0.498039215803146,0.498039215803146);
#370=AXIS2_PLACEMENT_3D('',#511,#512,#513);
#371=DRAUGHTING_PRE_DEFINED_CURVE_FONT('continuous');
#372=COLOUR_RGB('',0.800000011920929,0.800000011920929,0.800000011920929);
#373=CARTESIAN_POINT('',(-3.00990979739054E-016,2.45785904016885,-44.495));
#374=VECTOR('',#514,1.0);
#375=PRE_DEFINED_MARKER('');
#376=COLOUR_RGB('',0.800000011920929,0.800000011920929,0.800000011920929);
#377=SURFACE_SIDE_STYLE('',(#515));
#378=EDGE_LOOP('',(#516,#517,#518,#519));
#379=AXIS2_PLACEMENT_3D('',#520,#521,#522);
#380=DRAUGHTING_PRE_DEFINED_CURVE_FONT('continuous');
#381=COLOUR_RGB('',0.498039215803146,0.498039215803146,0.498039215803146);
#382=CARTESIAN_POINT('',(-5.5514981172909E-016,4.53329194313172,-0.386999999999993));
#383=VECTOR('',#523,1.0);
#384=PRE_DEFINED_MARKER('');
#385=COLOUR_RGB('',0.800000011920929,0.800000011920929,0.800000011920929);
#386=DRAUGHTING_PRE_DEFINED_CURVE_FONT('continuous');
#387=COLOUR_RGB('',0.800000011920929,0.800000011920929,0.800000011920929);
#388=AXIS2_PLACEMENT_3D('',#524,#525,#526);
#389=DRAUGHTING_PRE_DEFINED_CURVE_FONT('continuous');
#390=COLOUR_RGB('',0.498039215803146,0.498039215803146,0.498039215803146);
#391=CARTESIAN_POINT('',(5.55149811729089E-016,-4.53329194313172,-0.386999999999993));
#392=VECTOR('',#527,1.0);
#393=SURFACE_SIDE_STYLE('',(#528));
#394=DRAUGHTING_PRE_DEFINED_CURVE_FONT('continuous');
#395=COLOUR_RGB('',0.498039215803146,0.498039215803146,0.498039215803146);
#396=AXIS2_PLACEMENT_3D('',#529,#530,#531);
#397=SURFACE_SIDE_STYLE('',(#532));
#398=EDGE_LOOP('',(#533,#534,#535,#536));
#399=AXIS2_PLACEMENT_3D('',#537,#538,#539);
#400=PRE_DEFINED_MARKER('');
#401=COLOUR_RGB('',0.800000011920929,0.800000011920929,0.800000011920929);
#402=PRE_DEFINED_MARKER('');
#403=COLOUR_RGB('',0.800000011920929,0.800000011920929,0.800000011920929);
#404=DRAUGHTING_PRE_DEFINED_CURVE_FONT('continuous');
#405=COLOUR_RGB('',0.498039215803146,0.498039215803146,0.498039215803146);
#406=CARTESIAN_POINT('',(5.83218776007907E-016,-4.7625,-21.0495));
#407=VECTOR('',#540,1.0);
#408=DRAUGHTING_PRE_DEFINED_CURVE_FONT('continuous');
#409=COLOUR_RGB('',0.498039215803146,0.498039215803146,0.498039215803146);
#410=AXIS2_PLACEMENT_3D('',#541,#542,#543);
#411=DRAUGHTING_PRE_DEFINED_CURVE_FONT('continuous');
#412=COLOUR_RGB('',0.498039215803146,0.498039215803146,0.498039215803146);
#413=CARTESIAN_POINT('',(-5.83218776007907E-016,4.7625,-21.0495));
#414=VECTOR('',#544,1.0);
#415=SURFACE_SIDE_STYLE('',(#545));
#416=DRAUGHTING_PRE_DEFINED_CURVE_FONT('continuous');
#417=COLOUR_RGB('',0.800000011920929,0.800000011920929,0.800000011920929);
#418=AXIS2_PLACEMENT_3D('',#546,#547,#548);
#419=SURFACE_SIDE_STYLE('',(#549));
#420=EDGE_LOOP('',(#550,#551));
#421=AXIS2_PLACEMENT_3D('',#552,#553,#554);
#422=PRE_DEFINED_MARKER('');
#423=COLOUR_RGB('',0.498039215803146,0.498039215803146,0.498039215803146);
#424=SURFACE_SIDE_STYLE('',(#555));
#425=EDGE_LOOP('',(#556,#557,#558,#559));
#426=AXIS2_PLACEMENT_3D('',#560,#561,#562);
#427=PRE_DEFINED_MARKER('');
#428=COLOUR_RGB('',0.498039215803146,0.498039215803146,0.498039215803146);
#429=DRAUGHTING_PRE_DEFINED_CURVE_FONT('continuous');
#430=COLOUR_RGB('',0.800000011920929,0.800000011920929,0.800000011920929);
#431=AXIS2_PLACEMENT_3D('',#563,#564,#565);
#432=DRAUGHTING_PRE_DEFINED_CURVE_FONT('continuous');
#433=COLOUR_RGB('',0.498039215803146,0.498039215803146,0.498039215803146);
#434=AXIS2_PLACEMENT_3D('',#566,#567,#568);
#435=DRAUGHTING_PRE_DEFINED_CURVE_FONT('continuous');
#436=COLOUR_RGB('',0.800000011920929,0.800000011920929,0.800000011920929);
#437=CARTESIAN_POINT('',(-3.98500260662161E-016,3.25410904016885,-63.54));
#438=VECTOR('',#569,1.0);
#439=SURFACE_SIDE_STYLE('',(#570));
#440=EDGE_LOOP('',(#571,#572));
#441=EDGE_LOOP('',(#573,#574));
#442=AXIS2_PLACEMENT_3D('',#575,#576,#577);
#444=DIRECTION('',(1.06728298703338E-017,-0.0871531479239887,0.996194925105995));
#445=CARTESIAN_POINT('',(0.0,0.0,-44.49));
#446=DIRECTION('',(0.0,0.0,-1.0));
#447=DIRECTION('',(0.0,1.0,0.0));
#448=CARTESIAN_POINT('',(0.0,0.0,-44.49));
#449=DIRECTION('',(0.0,0.0,-1.0));
#450=DIRECTION('',(0.0,1.0,0.0));
#451=SURFACE_STYLE_FILL_AREA(#578);
#452=ORIENTED_EDGE('',*,*,#168,.F.);
#453=ORIENTED_EDGE('',*,*,#122,.F.);
#454=CARTESIAN_POINT('',(0.0,2.15204194313172,0.0100000000000051));
#455=DIRECTION('',(-0.0,0.0,1.0));
#456=DIRECTION('',(0.0,-1.0,0.0));
#457=SURFACE_STYLE_FILL_AREA(#579);
#458=ORIENTED_EDGE('',*,*,#166,.T.);
#459=ORIENTED_EDGE('',*,*,#134,.T.);
#460=CARTESIAN_POINT('',(0.0,0.79125,-82.59));
#461=DIRECTION('',(0.0,0.0,-1.0));
#462=DIRECTION('',(0.0,1.0,0.0));
#463=DIRECTION('',(1.22460381991212E-016,-0.99999793083692,0.00203428657725034));
#464=SURFACE_STYLE_FILL_AREA(#580);
#465=ORIENTED_EDGE('',*,*,#130,.F.);
#466=ORIENTED_EDGE('',*,*,#168,.T.);
#467=ORIENTED_EDGE('',*,*,#136,.F.);
#468=ORIENTED_EDGE('',*,*,#140,.F.);
#469=CARTESIAN_POINT('',(0.0,0.0,-0.386999999999993));
#470=DIRECTION('',(0.0,-0.0,-1.0));
#471=DIRECTION('',(0.0,1.0,0.0));
#472=SURFACE_STYLE_FILL_AREA(#581);
#473=ORIENTED_EDGE('',*,*,#92,.T.);
#474=ORIENTED_EDGE('',*,*,#106,.F.);
#475=ORIENTED_EDGE('',*,*,#124,.T.);
#476=CARTESIAN_POINT('',(0.0,0.0,-44.495));
#477=DIRECTION('',(-0.0,-0.0,1.0));
#478=DIRECTION('',(0.0,1.0,0.0));
#479=SURFACE_STYLE_FILL_AREA(#582);
#480=ORIENTED_EDGE('',*,*,#170,.T.);
#481=ORIENTED_EDGE('',*,*,#134,.F.);
#482=ORIENTED_EDGE('',*,*,#80,.T.);
#483=ORIENTED_EDGE('',*,*,#84,.T.);
#484=CARTESIAN_POINT('',(0.0,0.0,-63.54));
#485=DIRECTION('',(-0.0,-0.0,1.0));
#486=DIRECTION('',(0.0,1.0,0.0));
#487=SURFACE_STYLE_FILL_AREA(#583);
#488=ORIENTED_EDGE('',*,*,#130,.T.);
#489=ORIENTED_EDGE('',*,*,#118,.F.);
#490=ORIENTED_EDGE('',*,*,#136,.T.);
#491=ORIENTED_EDGE('',*,*,#122,.T.);
#492=CARTESIAN_POINT('',(0.0,0.0,-0.386999999999993));
#493=DIRECTION('',(0.0,-0.0,-1.0));
#494=DIRECTION('',(0.0,1.0,0.0));
#495=CARTESIAN_POINT('',(0.0,0.0,-44.49));
#496=DIRECTION('',(0.0,0.0,-1.0));
#497=DIRECTION('',(0.0,1.0,0.0));
#498=CARTESIAN_POINT('',(0.0,0.0,-44.49));
#499=DIRECTION('',(0.0,0.0,-1.0));
#500=DIRECTION('',(0.0,-1.0,0.0));
#501=SURFACE_STYLE_FILL_AREA(#584);
#502=ORIENTED_EDGE('',*,*,#92,.F.);
#503=ORIENTED_EDGE('',*,*,#124,.F.);
#504=ORIENTED_EDGE('',*,*,#156,.F.);
#505=CARTESIAN_POINT('',(0.0,0.0,-44.495));
#506=DIRECTION('',(-0.0,-0.0,1.0));
#507=DIRECTION('',(0.0,1.0,0.0));
#508=CARTESIAN_POINT('',(0.0,0.0,-0.783999999999992));
#509=DIRECTION('',(0.0,0.0,-1.0));
#510=DIRECTION('',(0.0,1.0,0.0));
#511=CARTESIAN_POINT('',(0.0,0.0,0.0100000000000051));
#512=DIRECTION('',(0.0,0.0,-1.0));
#513=DIRECTION('',(0.0,1.0,0.0));
#514=DIRECTION('',(1.22460381991212E-016,-0.99999793083692,-0.00203428657725034));
#515=SURFACE_STYLE_FILL_AREA(#585);
#516=ORIENTED_EDGE('',*,*,#152,.T.);
#517=ORIENTED_EDGE('',*,*,#150,.F.);
#518=ORIENTED_EDGE('',*,*,#148,.T.);
#519=ORIENTED_EDGE('',*,*,#118,.T.);
#520=CARTESIAN_POINT('',(0.0,0.0,-21.0495));
#521=DIRECTION('',(-0.0,-0.0,1.0));
#522=DIRECTION('',(0.0,1.0,0.0));
#523=DIRECTION('',(-6.12303176911191E-017,0.500000000000002,-0.866025403784438));
#524=CARTESIAN_POINT('',(0.0,0.0,-82.59));
#525=DIRECTION('',(0.0,0.0,-1.0));
#526=DIRECTION('',(0.0,1.0,0.0));
#527=DIRECTION('',(-6.12303176911191E-017,0.500000000000002,0.866025403784438));
#528=SURFACE_STYLE_FILL_AREA(#586);
#529=CARTESIAN_POINT('',(0.0,0.0,-0.783999999999992));
#530=DIRECTION('',(0.0,0.0,-1.0));
#531=DIRECTION('',(0.0,1.0,0.0));
#532=SURFACE_STYLE_FILL_AREA(#587);
#533=ORIENTED_EDGE('',*,*,#152,.F.);
#534=ORIENTED_EDGE('',*,*,#140,.T.);
#535=ORIENTED_EDGE('',*,*,#148,.F.);
#536=ORIENTED_EDGE('',*,*,#110,.F.);
#537=CARTESIAN_POINT('',(0.0,0.0,-21.0495));
#538=DIRECTION('',(-0.0,-0.0,1.0));
#539=DIRECTION('',(0.0,1.0,0.0));
#540=DIRECTION('',(-0.0,-0.0,1.0));
#541=CARTESIAN_POINT('',(0.0,0.0,-44.49));
#542=DIRECTION('',(0.0,0.0,-1.0));
#543=DIRECTION('',(0.0,-1.0,0.0));
#544=DIRECTION('',(0.0,0.0,-1.0));
#545=SURFACE_STYLE_FILL_AREA(#588);
#546=CARTESIAN_POINT('',(0.0,0.0,-44.49));
#547=DIRECTION('',(0.0,0.0,-1.0));
#548=DIRECTION('',(0.0,1.0,0.0));
#549=SURFACE_STYLE_FILL_AREA(#589);
#550=ORIENTED_EDGE('',*,*,#150,.T.);
#551=ORIENTED_EDGE('',*,*,#110,.T.);
#552=CARTESIAN_POINT('',(0.0,0.0,-44.49));
#553=DIRECTION('',(0.0,0.0,-1.0));
#554=DIRECTION('',(0.0,-1.0,0.0));
#555=SURFACE_STYLE_FILL_AREA(#590);
#556=ORIENTED_EDGE('',*,*,#170,.F.);
#557=ORIENTED_EDGE('',*,*,#82,.T.);
#558=ORIENTED_EDGE('',*,*,#80,.F.);
#559=ORIENTED_EDGE('',*,*,#166,.F.);
#560=CARTESIAN_POINT('',(0.0,0.0,-63.54));
#561=DIRECTION('',(-0.0,-0.0,1.0));
#562=DIRECTION('',(0.0,1.0,0.0));
#563=CARTESIAN_POINT('',(0.0,0.0,-82.59));
#564=DIRECTION('',(0.0,0.0,-1.0));
#565=DIRECTION('',(0.0,1.0,0.0));
#566=CARTESIAN_POINT('',(0.0,0.0,0.0100000000000051));
#567=DIRECTION('',(0.0,0.0,-1.0));
#568=DIRECTION('',(0.0,1.0,0.0));
#569=DIRECTION('',(1.06728298703338E-017,-0.0871531479239887,-0.996194925105995));
#570=SURFACE_STYLE_FILL_AREA(#591);
#571=ORIENTED_EDGE('',*,*,#82,.F.);
#572=ORIENTED_EDGE('',*,*,#84,.F.);
#573=ORIENTED_EDGE('',*,*,#106,.T.);
#574=ORIENTED_EDGE('',*,*,#156,.T.);
#575=CARTESIAN_POINT('',(0.0,4.9182180803377,-44.49));
#576=DIRECTION('',(-0.0,0.0,1.0));
#577=DIRECTION('',(0.0,-1.0,0.0));
#578=FILL_AREA_STYLE('',(#592));
#579=FILL_AREA_STYLE('',(#593));
#580=FILL_AREA_STYLE('',(#594));
#581=FILL_AREA_STYLE('',(#595));
#582=FILL_AREA_STYLE('',(#596));
#583=FILL_AREA_STYLE('',(#597));
#584=FILL_AREA_STYLE('',(#598));
#585=FILL_AREA_STYLE('',(#599));
#586=FILL_AREA_STYLE('',(#600));
#587=FILL_AREA_STYLE('',(#601));
#588=FILL_AREA_STYLE('',(#602));
#589=FILL_AREA_STYLE('',(#603));
#590=FILL_AREA_STYLE('',(#604));
#591=FILL_AREA_STYLE('',(#605));
#592=FILL_AREA_STYLE_COLOUR('',#606);
#593=FILL_AREA_STYLE_COLOUR('',#607);
#594=FILL_AREA_STYLE_COLOUR('',#608);
#595=FILL_AREA_STYLE_COLOUR('',#609);
#596=FILL_AREA_STYLE_COLOUR('',#610);
#597=FILL_AREA_STYLE_COLOUR('',#611);
#598=FILL_AREA_STYLE_COLOUR('',#612);
#599=FILL_AREA_STYLE_COLOUR('',#613);
#600=FILL_AREA_STYLE_COLOUR('',#614);
#601=FILL_AREA_STYLE_COLOUR('',#615);
#602=FILL_AREA_STYLE_COLOUR('',#616);
#603=FILL_AREA_STYLE_COLOUR('',#617);
#604=FILL_AREA_STYLE_COLOUR('',#618);
#605=FILL_AREA_STYLE_COLOUR('',#619);
#606=COLOUR_RGB('',0.498039215803146,0.498039215803146,0.498039215803146);
#607=COLOUR_RGB('',0.800000011920929,0.800000011920929,0.800000011920929);
#608=COLOUR_RGB('',0.498039215803146,0.498039215803146,0.498039215803146);
#609=COLOUR_RGB('',0.800000011920929,0.800000011920929,0.800000011920929);
#610=COLOUR_RGB('',0.800000011920929,0.800000011920929,0.800000011920929);
#611=COLOUR_RGB('',0.498039215803146,0.498039215803146,0.498039215803146);
#612=COLOUR_RGB('',0.800000011920929,0.800000011920929,0.800000011920929);
#613=COLOUR_RGB('',0.498039215803146,0.498039215803146,0.498039215803146);
#614=COLOUR_RGB('',0.800000011920929,0.800000011920929,0.800000011920929);
#615=COLOUR_RGB('',0.498039215803146,0.498039215803146,0.498039215803146);
#616=COLOUR_RGB('',0.800000011920929,0.800000011920929,0.800000011920929);
#617=COLOUR_RGB('',0.498039215803146,0.498039215803146,0.498039215803146);
#618=COLOUR_RGB('',0.800000011920929,0.800000011920929,0.800000011920929);
#619=COLOUR_RGB('',0.800000011920929,0.800000011920929,0.800000011920929);
#620=AXIS2_PLACEMENT_3D('PCS',#621,#622,#623);
#621=CARTESIAN_POINT('',(0.0,0.0,0.0));
#622=DIRECTION('',(0.0,0.0,1.0));
#623=DIRECTION('',(1.0,0.0,0.0));
#624=AXIS2_PLACEMENT_3D('CIP',#625,#626,#627);
#625=CARTESIAN_POINT('',(0.0,0.0,-82.6));
#626=DIRECTION('',(0.0,0.0,1.0));
#627=DIRECTION('',(1.0,0.0,0.0));
#628=AXIS2_PLACEMENT_3D('CRP',#629,#630,#631);
#629=CARTESIAN_POINT('',(-1.5875,0.0,-82.6));
#630=DIRECTION('',(0.0,0.0,1.0));
#631=DIRECTION('',(1.0,0.0,0.0));
#632=AXIS2_PLACEMENT_3D('MCS',#633,#634,#635);
#633=CARTESIAN_POINT('',(0.0,0.0,-41.325));
#634=DIRECTION('',(0.0,0.0,1.0));
#635=DIRECTION('',(1.0,0.0,0.0));
#636=CONSTRUCTIVE_GEOMETRY_REPRESENTATION_RELATIONSHIP('coordinate systems',$,#65,#637);
#637=CONSTRUCTIVE_GEOMETRY_REPRESENTATION('coordinate systems',(#620,#624,#628,#632),#10);
ENDSEC;
END-ISO-10303-21;
