ISO-10303-21;
HEADER;
FILE_DESCRIPTION(('no description'),'unknown implementation level');
FILE_NAME('solidvb_pEJYutFdT18axSBCtugAfHOQ_1.STP','  ',('CIMSOURCE GmbH'),('CADClick - KiM GmbH - www.kimweb.de'),'unknown preprocess','ACIS','unknown authorization');
FILE_SCHEMA(('automotive_design'));
ENDSEC;
DATA;
#1=MECHANICAL_DESIGN_GEOMETRIC_PRESENTATION_REPRESENTATION(' ',(#14,#15,#16,#17,#18,#19,#20,#21,#22,#23,#24,#25,#26,#27,#28,#29,#30,#31,#32,#33,#34,#35,#36,#37,#38,#39,#40,#41,#42,#43,#44,#45,#46,#47,#48,#49,#50,#51,#52,#53,#54,#55,#56,#57,#58,#59,#60),#10);
#2=PRODUCT_DEFINITION_CONTEXT('',#61,'design');
#3=APPLICATION_PROTOCOL_DEFINITION('INTERNATIONAL STANDARD','automotive_design',1994,#61);
#4=PRODUCT_CATEGORY_RELATIONSHIP('NONE','NONE',#62,#63);
#5=SHAPE_DEFINITION_REPRESENTATION(#64,#65);
#6=PRODUCT_DEFINITION_CONTEXT('',#66,'design');
#7=APPLICATION_PROTOCOL_DEFINITION('INTERNATIONAL STANDARD','automotive_design',1994,#66);
#8=PRODUCT_CATEGORY_RELATIONSHIP('NONE','NONE',#67,#68);
#9=SHAPE_DEFINITION_REPRESENTATION(#69,#70);
#10= (GEOMETRIC_REPRESENTATION_CONTEXT(3)GLOBAL_UNCERTAINTY_ASSIGNED_CONTEXT((#73))GLOBAL_UNIT_ASSIGNED_CONTEXT((#75,#76,#77))REPRESENTATION_CONTEXT('NONE','WORKSPACE'));
#14=STYLED_ITEM('',(#79),#80);
#15=STYLED_ITEM('',(#81),#82);
#16=STYLED_ITEM('',(#83),#84);
#17=STYLED_ITEM('',(#85),#86);
#18=STYLED_ITEM('',(#87),#88);
#19=STYLED_ITEM('',(#89),#90);
#20=STYLED_ITEM('',(#91),#92);
#21=STYLED_ITEM('',(#93),#94);
#22=STYLED_ITEM('',(#95),#96);
#23=STYLED_ITEM('',(#97),#98);
#24=STYLED_ITEM('',(#99),#100);
#25=STYLED_ITEM('',(#101),#102);
#26=STYLED_ITEM('',(#103),#104);
#27=STYLED_ITEM('',(#105),#106);
#28=STYLED_ITEM('',(#107),#108);
#29=STYLED_ITEM('',(#109),#110);
#30=STYLED_ITEM('',(#111),#112);
#31=STYLED_ITEM('',(#113),#114);
#32=STYLED_ITEM('',(#115),#116);
#33=STYLED_ITEM('',(#117),#118);
#34=STYLED_ITEM('',(#119),#120);
#35=STYLED_ITEM('',(#121),#122);
#36=STYLED_ITEM('',(#123),#124);
#37=STYLED_ITEM('',(#125),#126);
#38=STYLED_ITEM('',(#127),#128);
#39=STYLED_ITEM('',(#129),#130);
#40=STYLED_ITEM('',(#131),#132);
#41=STYLED_ITEM('',(#133),#134);
#42=STYLED_ITEM('',(#135),#136);
#43=STYLED_ITEM('',(#137),#138);
#44=STYLED_ITEM('',(#139),#140);
#45=STYLED_ITEM('',(#141),#142);
#46=STYLED_ITEM('',(#143),#144);
#47=STYLED_ITEM('',(#145),#146);
#48=STYLED_ITEM('',(#147),#148);
#49=STYLED_ITEM('',(#149),#150);
#50=STYLED_ITEM('',(#151),#152);
#51=STYLED_ITEM('',(#153),#154);
#52=STYLED_ITEM('',(#155),#156);
#53=STYLED_ITEM('',(#157),#158);
#54=STYLED_ITEM('',(#159),#160);
#55=STYLED_ITEM('',(#161),#162);
#56=STYLED_ITEM('',(#163),#164);
#57=STYLED_ITEM('',(#165),#166);
#58=STYLED_ITEM('',(#167),#168);
#59=STYLED_ITEM('',(#169),#170);
#60=STYLED_ITEM('',(#171),#172);
#61=APPLICATION_CONTEXT(' ');
#62=PRODUCT_CATEGORY('part','NONE');
#63=PRODUCT_RELATED_PRODUCT_CATEGORY('detail',' ',(#173));
#64=PRODUCT_DEFINITION_SHAPE('NONE','NONE',#174);
#65=ADVANCED_BREP_SHAPE_REPRESENTATION('1',(#172,#175),#10);
#66=APPLICATION_CONTEXT(' ');
#67=PRODUCT_CATEGORY('part','NONE');
#68=PRODUCT_RELATED_PRODUCT_CATEGORY('detail',' ',(#176));
#69=PRODUCT_DEFINITION_SHAPE('NONE','NONE',#177);
#70=ADVANCED_BREP_SHAPE_REPRESENTATION('2',(#124,#178),#10);
#73=UNCERTAINTY_MEASURE_WITH_UNIT(LENGTH_MEASURE(1.0E-006),#75,'','');
#75= (CONVERSION_BASED_UNIT('MILLIMETRE',#181)LENGTH_UNIT()NAMED_UNIT(#184));
#76= (NAMED_UNIT(#186)PLANE_ANGLE_UNIT()SI_UNIT($,.RADIAN.));
#77= (NAMED_UNIT(#186)SOLID_ANGLE_UNIT()SI_UNIT($,.STERADIAN.));
#79=PRESENTATION_STYLE_ASSIGNMENT((#192));
#80=ADVANCED_FACE('',(#193),#194,.T.);
#81=PRESENTATION_STYLE_ASSIGNMENT((#195));
#82=VERTEX_POINT('',#196);
#83=PRESENTATION_STYLE_ASSIGNMENT((#197));
#84=EDGE_CURVE('',#116,#156,#198,.T.);
#85=PRESENTATION_STYLE_ASSIGNMENT((#199));
#86=ADVANCED_FACE('',(#200),#201,.T.);
#87=PRESENTATION_STYLE_ASSIGNMENT((#202));
#88=VERTEX_POINT('',#203);
#89=PRESENTATION_STYLE_ASSIGNMENT((#204));
#90=EDGE_CURVE('',#94,#122,#205,.T.);
#91=PRESENTATION_STYLE_ASSIGNMENT((#206));
#92=EDGE_CURVE('',#110,#120,#207,.T.);
#93=PRESENTATION_STYLE_ASSIGNMENT((#208));
#94=VERTEX_POINT('',#209);
#95=PRESENTATION_STYLE_ASSIGNMENT((#210));
#96=VERTEX_POINT('',#211);
#97=PRESENTATION_STYLE_ASSIGNMENT((#212));
#98=EDGE_CURVE('',#156,#116,#213,.T.);
#99=PRESENTATION_STYLE_ASSIGNMENT((#214));
#100=ADVANCED_FACE('',(#215),#216,.T.);
#101=PRESENTATION_STYLE_ASSIGNMENT((#217));
#102=VERTEX_POINT('',#218);
#103=PRESENTATION_STYLE_ASSIGNMENT((#219));
#104=EDGE_CURVE('',#88,#102,#220,.T.);
#105=PRESENTATION_STYLE_ASSIGNMENT((#221));
#106=EDGE_CURVE('',#156,#96,#222,.T.);
#107=PRESENTATION_STYLE_ASSIGNMENT((#223));
#108=EDGE_CURVE('',#96,#82,#224,.T.);
#109=PRESENTATION_STYLE_ASSIGNMENT((#225));
#110=VERTEX_POINT('',#226);
#111=PRESENTATION_STYLE_ASSIGNMENT((#227));
#112=EDGE_CURVE('',#102,#88,#228,.T.);
#113=PRESENTATION_STYLE_ASSIGNMENT((#229));
#114=EDGE_CURVE('',#88,#110,#230,.T.);
#115=PRESENTATION_STYLE_ASSIGNMENT((#231));
#116=VERTEX_POINT('',#232);
#117=PRESENTATION_STYLE_ASSIGNMENT((#233));
#118=EDGE_CURVE('',#82,#116,#234,.T.);
#119=PRESENTATION_STYLE_ASSIGNMENT((#235));
#120=VERTEX_POINT('',#236);
#121=PRESENTATION_STYLE_ASSIGNMENT((#237));
#122=VERTEX_POINT('',#238);
#123=PRESENTATION_STYLE_ASSIGNMENT((#239));
#124=MANIFOLD_SOLID_BREP('2',#240);
#125=PRESENTATION_STYLE_ASSIGNMENT((#241));
#126=ADVANCED_FACE('',(#242),#243,.T.);
#127=PRESENTATION_STYLE_ASSIGNMENT((#244));
#128=ADVANCED_FACE('',(#245),#246,.F.);
#129=PRESENTATION_STYLE_ASSIGNMENT((#247));
#130=VERTEX_POINT('',#248);
#131=PRESENTATION_STYLE_ASSIGNMENT((#249));
#132=EDGE_CURVE('',#94,#130,#250,.T.);
#133=PRESENTATION_STYLE_ASSIGNMENT((#251));
#134=EDGE_CURVE('',#82,#96,#252,.T.);
#135=PRESENTATION_STYLE_ASSIGNMENT((#253));
#136=ADVANCED_FACE('',(#254),#255,.T.);
#137=PRESENTATION_STYLE_ASSIGNMENT((#256));
#138=ADVANCED_FACE('',(#257),#258,.T.);
#139=PRESENTATION_STYLE_ASSIGNMENT((#259));
#140=ADVANCED_FACE('',(#260),#261,.T.);
#141=PRESENTATION_STYLE_ASSIGNMENT((#262));
#142=ADVANCED_FACE('',(#263),#264,.T.);
#143=PRESENTATION_STYLE_ASSIGNMENT((#265));
#144=VERTEX_POINT('',#266);
#145=PRESENTATION_STYLE_ASSIGNMENT((#267));
#146=VERTEX_POINT('',#268);
#147=PRESENTATION_STYLE_ASSIGNMENT((#269));
#148=EDGE_CURVE('',#146,#144,#270,.T.);
#149=PRESENTATION_STYLE_ASSIGNMENT((#271));
#150=EDGE_CURVE('',#130,#94,#272,.T.);
#151=PRESENTATION_STYLE_ASSIGNMENT((#273));
#152=EDGE_CURVE('',#116,#146,#274,.T.);
#153=PRESENTATION_STYLE_ASSIGNMENT((#275));
#154=ADVANCED_FACE('',(#276,#277),#278,.T.);
#155=PRESENTATION_STYLE_ASSIGNMENT((#279));
#156=VERTEX_POINT('',#280);
#157=PRESENTATION_STYLE_ASSIGNMENT((#281));
#158=EDGE_CURVE('',#144,#156,#282,.T.);
#159=PRESENTATION_STYLE_ASSIGNMENT((#283));
#160=ADVANCED_FACE('',(#284),#285,.T.);
#161=PRESENTATION_STYLE_ASSIGNMENT((#286));
#162=EDGE_CURVE('',#144,#146,#287,.T.);
#163=PRESENTATION_STYLE_ASSIGNMENT((#288));
#164=EDGE_CURVE('',#122,#130,#289,.T.);
#165=PRESENTATION_STYLE_ASSIGNMENT((#290));
#166=ADVANCED_FACE('',(#291),#292,.F.);
#167=PRESENTATION_STYLE_ASSIGNMENT((#293));
#168=EDGE_CURVE('',#120,#110,#294,.T.);
#169=PRESENTATION_STYLE_ASSIGNMENT((#295));
#170=EDGE_CURVE('',#120,#102,#296,.T.);
#171=PRESENTATION_STYLE_ASSIGNMENT((#297));
#172=MANIFOLD_SOLID_BREP('1',#298);
#173=PRODUCT('1','1','PART-1-DESC',(#299));
#174=PRODUCT_DEFINITION('NONE','NONE',#300,#2);
#175=AXIS2_PLACEMENT_3D('',#301,#302,#303);
#176=PRODUCT('2','2','PART-2-DESC',(#304));
#177=PRODUCT_DEFINITION('NONE','NONE',#305,#6);
#178=AXIS2_PLACEMENT_3D('',#306,#307,#308);
#181=LENGTH_MEASURE_WITH_UNIT(LENGTH_MEASURE(1.0),#309);
#184=DIMENSIONAL_EXPONENTS(1.0,0.0,0.0,0.0,0.0,0.0,0.0);
#186=DIMENSIONAL_EXPONENTS(0.0,0.0,0.0,0.0,0.0,0.0,0.0);
#192=SURFACE_STYLE_USAGE(.BOTH.,#310);
#193=FACE_OUTER_BOUND('',#311,.T.);
#194=PLANE('',#312);
#195=POINT_STYLE(' ',#313,POSITIVE_LENGTH_MEASURE(1.0E-006),#314);
#196=CARTESIAN_POINT('',(0.0,-4.7625,-44.39));
#197=CURVE_STYLE('',#315,POSITIVE_LENGTH_MEASURE(1.0E-006),#316);
#198=CIRCLE('',#317,4.7625);
#199=SURFACE_STYLE_USAGE(.BOTH.,#318);
#200=FACE_OUTER_BOUND('',#319,.T.);
#201=CONICAL_SURFACE('',#320,4.53329194313172,0.523598775598301);
#202=POINT_STYLE(' ',#321,POSITIVE_LENGTH_MEASURE(1.0E-006),#322);
#203=CARTESIAN_POINT('',(1.94406258669302E-016,-1.5875,-95.19));
#204=CURVE_STYLE('',#323,POSITIVE_LENGTH_MEASURE(1.0E-006),#324);
#205=LINE('',#325,#326);
#206=CURVE_STYLE('',#327,POSITIVE_LENGTH_MEASURE(1.0E-006),#328);
#207=CIRCLE('',#329,6.03182410711694);
#208=POINT_STYLE(' ',#330,POSITIVE_LENGTH_MEASURE(1.0E-006),#331);
#209=CARTESIAN_POINT('',(0.0,6.02682410711694,-44.39));
#210=POINT_STYLE(' ',#332,POSITIVE_LENGTH_MEASURE(1.0E-006),#333);
#211=CARTESIAN_POINT('',(-5.83218776007907E-016,4.7625,-44.39));
#212=CURVE_STYLE('',#334,POSITIVE_LENGTH_MEASURE(1.0E-006),#335);
#213=CIRCLE('',#336,4.7625);
#214=SURFACE_STYLE_USAGE(.BOTH.,#337);
#215=FACE_OUTER_BOUND('',#338,.T.);
#216=CYLINDRICAL_SURFACE('',#339,4.7625);
#217=POINT_STYLE(' ',#340,POSITIVE_LENGTH_MEASURE(1.0E-006),#341);
#218=CARTESIAN_POINT('',(0.0,1.5875,-95.19));
#219=CURVE_STYLE('',#342,POSITIVE_LENGTH_MEASURE(1.0E-006),#343);
#220=CIRCLE('',#344,1.5875);
#221=CURVE_STYLE('',#345,POSITIVE_LENGTH_MEASURE(1.0E-006),#346);
#222=LINE('',#347,#348);
#223=CURVE_STYLE('',#349,POSITIVE_LENGTH_MEASURE(1.0E-006),#350);
#224=CIRCLE('',#351,4.7625);
#225=POINT_STYLE(' ',#352,POSITIVE_LENGTH_MEASURE(1.0E-006),#353);
#226=CARTESIAN_POINT('',(7.38661012671439E-016,-6.03182410711694,-44.39));
#227=CURVE_STYLE('',#354,POSITIVE_LENGTH_MEASURE(1.0E-006),#355);
#228=CIRCLE('',#356,1.5875);
#229=CURVE_STYLE('',#357,POSITIVE_LENGTH_MEASURE(1.0E-006),#358);
#230=LINE('',#359,#360);
#231=POINT_STYLE(' ',#361,POSITIVE_LENGTH_MEASURE(1.0E-006),#362);
#232=CARTESIAN_POINT('',(5.83218776007907E-016,-4.7625,-0.783999999999999));
#233=CURVE_STYLE('',#363,POSITIVE_LENGTH_MEASURE(1.0E-006),#364);
#234=LINE('',#365,#366);
#235=POINT_STYLE(' ',#367,POSITIVE_LENGTH_MEASURE(1.0E-006),#368);
#236=CARTESIAN_POINT('',(0.0,6.03182410711694,-44.39));
#237=POINT_STYLE(' ',#369,POSITIVE_LENGTH_MEASURE(1.0E-006),#370);
#238=CARTESIAN_POINT('',(0.0,0.0,-44.4));
#239=SURFACE_STYLE_USAGE(.BOTH.,#371);
#240=CLOSED_SHELL('',(#100,#86,#140,#160,#142,#138));
#241=SURFACE_STYLE_USAGE(.BOTH.,#372);
#242=FACE_OUTER_BOUND('',#373,.T.);
#243=CONICAL_SURFACE('',#374,3.80966205355847,0.0872645090484446);
#244=SURFACE_STYLE_USAGE(.BOTH.,#375);
#245=FACE_OUTER_BOUND('',#376,.T.);
#246=CONICAL_SURFACE('',#377,3.01341205355847,1.56913707962835);
#247=POINT_STYLE(' ',#378,POSITIVE_LENGTH_MEASURE(1.0E-006),#379);
#248=CARTESIAN_POINT('',(7.38048709494528E-016,-6.02682410711694,-44.39));
#249=CURVE_STYLE('',#380,POSITIVE_LENGTH_MEASURE(1.0E-006),#381);
#250=CIRCLE('',#382,6.02682410711694);
#251=CURVE_STYLE('',#383,POSITIVE_LENGTH_MEASURE(1.0E-006),#384);
#252=CIRCLE('',#385,4.7625);
#253=SURFACE_STYLE_USAGE(.BOTH.,#386);
#254=FACE_OUTER_BOUND('',#387,.T.);
#255=CONICAL_SURFACE('',#388,3.80966205355847,0.0872645090484446);
#256=SURFACE_STYLE_USAGE(.BOTH.,#389);
#257=FACE_OUTER_BOUND('',#390,.T.);
#258=CYLINDRICAL_SURFACE('',#391,4.7625);
#259=SURFACE_STYLE_USAGE(.BOTH.,#392);
#260=FACE_OUTER_BOUND('',#393,.T.);
#261=PLANE('',#394);
#262=SURFACE_STYLE_USAGE(.BOTH.,#395);
#263=FACE_OUTER_BOUND('',#396,.T.);
#264=CONICAL_SURFACE('',#397,4.53329194313172,0.523598775598301);
#265=POINT_STYLE(' ',#398,POSITIVE_LENGTH_MEASURE(1.0E-006),#399);
#266=CARTESIAN_POINT('',(0.0,4.30408388626344,0.00999999999999801));
#267=POINT_STYLE(' ',#400,POSITIVE_LENGTH_MEASURE(1.0E-006),#401);
#268=CARTESIAN_POINT('',(5.27080847450271E-016,-4.30408388626344,0.00999999999999801));
#269=CURVE_STYLE('',#402,POSITIVE_LENGTH_MEASURE(1.0E-006),#403);
#270=CIRCLE('',#404,4.30408388626344);
#271=CURVE_STYLE('',#405,POSITIVE_LENGTH_MEASURE(1.0E-006),#406);
#272=CIRCLE('',#407,6.02682410711694);
#273=CURVE_STYLE('',#408,POSITIVE_LENGTH_MEASURE(1.0E-006),#409);
#274=LINE('',#410,#411);
#275=SURFACE_STYLE_USAGE(.BOTH.,#412);
#276=FACE_OUTER_BOUND('',#413,.T.);
#277=FACE_BOUND('',#414,.T.);
#278=PLANE('',#415);
#279=POINT_STYLE(' ',#416,POSITIVE_LENGTH_MEASURE(1.0E-006),#417);
#280=CARTESIAN_POINT('',(0.0,4.7625,-0.783999999999999));
#281=CURVE_STYLE('',#418,POSITIVE_LENGTH_MEASURE(1.0E-006),#419);
#282=LINE('',#420,#421);
#283=SURFACE_STYLE_USAGE(.BOTH.,#422);
#284=FACE_OUTER_BOUND('',#423,.T.);
#285=PLANE('',#424);
#286=CURVE_STYLE('',#425,POSITIVE_LENGTH_MEASURE(1.0E-006),#426);
#287=CIRCLE('',#427,4.30408388626344);
#288=CURVE_STYLE('',#428,POSITIVE_LENGTH_MEASURE(1.0E-006),#429);
#289=LINE('',#430,#431);
#290=SURFACE_STYLE_USAGE(.BOTH.,#432);
#291=FACE_OUTER_BOUND('',#433,.T.);
#292=CONICAL_SURFACE('',#434,3.01341205355847,1.56913707962835);
#293=CURVE_STYLE('',#435,POSITIVE_LENGTH_MEASURE(1.0E-006),#436);
#294=CIRCLE('',#437,6.03182410711694);
#295=CURVE_STYLE('',#438,POSITIVE_LENGTH_MEASURE(1.0E-006),#439);
#296=LINE('',#440,#441);
#297=SURFACE_STYLE_USAGE(.BOTH.,#442);
#298=CLOSED_SHELL('',(#136,#166,#128,#154,#126,#80));
#299=PRODUCT_CONTEXT('',#61,'mechanical');
#300=PRODUCT_DEFINITION_FORMATION_WITH_SPECIFIED_SOURCE(' ','NONE',#173,.NOT_KNOWN.);
#301=CARTESIAN_POINT('',(0.0,0.0,0.0));
#302=DIRECTION('',(0.0,0.0,1.0));
#303=DIRECTION('',(1.0,0.0,0.0));
#304=PRODUCT_CONTEXT('',#66,'mechanical');
#305=PRODUCT_DEFINITION_FORMATION_WITH_SPECIFIED_SOURCE(' ','NONE',#176,.NOT_KNOWN.);
#306=CARTESIAN_POINT('',(0.0,0.0,0.0));
#307=DIRECTION('',(0.0,0.0,1.0));
#308=DIRECTION('',(1.0,0.0,0.0));
#309= (NAMED_UNIT(#184)LENGTH_UNIT()SI_UNIT(.MILLI.,.METRE.));
#310=SURFACE_SIDE_STYLE('',(#444));
#311=EDGE_LOOP('',(#445,#446));
#312=AXIS2_PLACEMENT_3D('',#447,#448,#449);
#313=PRE_DEFINED_MARKER('');
#314=COLOUR_RGB('',0.498039215803146,0.498039215803146,0.498039215803146);
#315=DRAUGHTING_PRE_DEFINED_CURVE_FONT('continuous');
#316=COLOUR_RGB('',0.498039215803146,0.498039215803146,0.498039215803146);
#317=AXIS2_PLACEMENT_3D('',#450,#451,#452);
#318=SURFACE_SIDE_STYLE('',(#453));
#319=EDGE_LOOP('',(#454,#455,#456,#457));
#320=AXIS2_PLACEMENT_3D('',#458,#459,#460);
#321=PRE_DEFINED_MARKER('');
#322=COLOUR_RGB('',0.800000011920929,0.800000011920929,0.800000011920929);
#323=DRAUGHTING_PRE_DEFINED_CURVE_FONT('continuous');
#324=COLOUR_RGB('',0.800000011920929,0.800000011920929,0.800000011920929);
#325=CARTESIAN_POINT('',(-3.69024354747264E-016,3.01341205355847,-44.395));
#326=VECTOR('',#461,1.0);
#327=DRAUGHTING_PRE_DEFINED_CURVE_FONT('continuous');
#328=COLOUR_RGB('',0.800000011920929,0.800000011920929,0.800000011920929);
#329=AXIS2_PLACEMENT_3D('',#462,#463,#464);
#330=PRE_DEFINED_MARKER('');
#331=COLOUR_RGB('',0.800000011920929,0.800000011920929,0.800000011920929);
#332=PRE_DEFINED_MARKER('');
#333=COLOUR_RGB('',0.498039215803146,0.498039215803146,0.498039215803146);
#334=DRAUGHTING_PRE_DEFINED_CURVE_FONT('continuous');
#335=COLOUR_RGB('',0.498039215803146,0.498039215803146,0.498039215803146);
#336=AXIS2_PLACEMENT_3D('',#465,#466,#467);
#337=SURFACE_SIDE_STYLE('',(#468));
#338=EDGE_LOOP('',(#469,#470,#471,#472));
#339=AXIS2_PLACEMENT_3D('',#473,#474,#475);
#340=PRE_DEFINED_MARKER('');
#341=COLOUR_RGB('',0.800000011920929,0.800000011920929,0.800000011920929);
#342=DRAUGHTING_PRE_DEFINED_CURVE_FONT('continuous');
#343=COLOUR_RGB('',0.800000011920929,0.800000011920929,0.800000011920929);
#344=AXIS2_PLACEMENT_3D('',#476,#477,#478);
#345=DRAUGHTING_PRE_DEFINED_CURVE_FONT('continuous');
#346=COLOUR_RGB('',0.498039215803146,0.498039215803146,0.498039215803146);
#347=CARTESIAN_POINT('',(-5.83218776007907E-016,4.7625,-20.9995));
#348=VECTOR('',#479,1.0);
#349=DRAUGHTING_PRE_DEFINED_CURVE_FONT('continuous');
#350=COLOUR_RGB('',0.498039215803146,0.498039215803146,0.498039215803146);
#351=AXIS2_PLACEMENT_3D('',#480,#481,#482);
#352=PRE_DEFINED_MARKER('');
#353=COLOUR_RGB('',0.800000011920929,0.800000011920929,0.800000011920929);
#354=DRAUGHTING_PRE_DEFINED_CURVE_FONT('continuous');
#355=COLOUR_RGB('',0.800000011920929,0.800000011920929,0.800000011920929);
#356=AXIS2_PLACEMENT_3D('',#483,#484,#485);
#357=DRAUGHTING_PRE_DEFINED_CURVE_FONT('continuous');
#358=COLOUR_RGB('',0.800000011920929,0.800000011920929,0.800000011920929);
#359=CARTESIAN_POINT('',(4.66533635670371E-016,-3.80966205355847,-69.79));
#360=VECTOR('',#486,1.0);
#361=PRE_DEFINED_MARKER('');
#362=COLOUR_RGB('',0.498039215803146,0.498039215803146,0.498039215803146);
#363=DRAUGHTING_PRE_DEFINED_CURVE_FONT('continuous');
#364=COLOUR_RGB('',0.498039215803146,0.498039215803146,0.498039215803146);
#365=CARTESIAN_POINT('',(5.83218776007907E-016,-4.7625,-20.9995));
#366=VECTOR('',#487,1.0);
#367=PRE_DEFINED_MARKER('');
#368=COLOUR_RGB('',0.800000011920929,0.800000011920929,0.800000011920929);
#369=PRE_DEFINED_MARKER('');
#370=COLOUR_RGB('',0.800000011920929,0.800000011920929,0.800000011920929);
#371=SURFACE_SIDE_STYLE('',(#488));
#372=SURFACE_SIDE_STYLE('',(#489));
#373=EDGE_LOOP('',(#490,#491,#492,#493));
#374=AXIS2_PLACEMENT_3D('',#494,#495,#496);
#375=SURFACE_SIDE_STYLE('',(#497));
#376=EDGE_LOOP('',(#498,#499,#500));
#377=AXIS2_PLACEMENT_3D('',#501,#502,#503);
#378=PRE_DEFINED_MARKER('');
#379=COLOUR_RGB('',0.800000011920929,0.800000011920929,0.800000011920929);
#380=DRAUGHTING_PRE_DEFINED_CURVE_FONT('continuous');
#381=COLOUR_RGB('',0.800000011920929,0.800000011920929,0.800000011920929);
#382=AXIS2_PLACEMENT_3D('',#504,#505,#506);
#383=DRAUGHTING_PRE_DEFINED_CURVE_FONT('continuous');
#384=COLOUR_RGB('',0.498039215803146,0.498039215803146,0.498039215803146);
#385=AXIS2_PLACEMENT_3D('',#507,#508,#509);
#386=SURFACE_SIDE_STYLE('',(#510));
#387=EDGE_LOOP('',(#511,#512,#513,#514));
#388=AXIS2_PLACEMENT_3D('',#515,#516,#517);
#389=SURFACE_SIDE_STYLE('',(#518));
#390=EDGE_LOOP('',(#519,#520,#521,#522));
#391=AXIS2_PLACEMENT_3D('',#523,#524,#525);
#392=SURFACE_SIDE_STYLE('',(#526));
#393=EDGE_LOOP('',(#527,#528));
#394=AXIS2_PLACEMENT_3D('',#529,#530,#531);
#395=SURFACE_SIDE_STYLE('',(#532));
#396=EDGE_LOOP('',(#533,#534,#535,#536));
#397=AXIS2_PLACEMENT_3D('',#537,#538,#539);
#398=PRE_DEFINED_MARKER('');
#399=COLOUR_RGB('',0.498039215803146,0.498039215803146,0.498039215803146);
#400=PRE_DEFINED_MARKER('');
#401=COLOUR_RGB('',0.498039215803146,0.498039215803146,0.498039215803146);
#402=DRAUGHTING_PRE_DEFINED_CURVE_FONT('continuous');
#403=COLOUR_RGB('',0.498039215803146,0.498039215803146,0.498039215803146);
#404=AXIS2_PLACEMENT_3D('',#540,#541,#542);
#405=DRAUGHTING_PRE_DEFINED_CURVE_FONT('continuous');
#406=COLOUR_RGB('',0.800000011920929,0.800000011920929,0.800000011920929);
#407=AXIS2_PLACEMENT_3D('',#543,#544,#545);
#408=DRAUGHTING_PRE_DEFINED_CURVE_FONT('continuous');
#409=COLOUR_RGB('',0.498039215803146,0.498039215803146,0.498039215803146);
#410=CARTESIAN_POINT('',(5.55149811729089E-016,-4.53329194313172,-0.387));
#411=VECTOR('',#546,1.0);
#412=SURFACE_SIDE_STYLE('',(#547));
#413=EDGE_LOOP('',(#548,#549));
#414=EDGE_LOOP('',(#550,#551));
#415=AXIS2_PLACEMENT_3D('',#552,#553,#554);
#416=PRE_DEFINED_MARKER('');
#417=COLOUR_RGB('',0.498039215803146,0.498039215803146,0.498039215803146);
#418=DRAUGHTING_PRE_DEFINED_CURVE_FONT('continuous');
#419=COLOUR_RGB('',0.498039215803146,0.498039215803146,0.498039215803146);
#420=CARTESIAN_POINT('',(-5.5514981172909E-016,4.53329194313172,-0.387));
#421=VECTOR('',#555,1.0);
#422=SURFACE_SIDE_STYLE('',(#556));
#423=EDGE_LOOP('',(#557,#558));
#424=AXIS2_PLACEMENT_3D('',#559,#560,#561);
#425=DRAUGHTING_PRE_DEFINED_CURVE_FONT('continuous');
#426=COLOUR_RGB('',0.498039215803146,0.498039215803146,0.498039215803146);
#427=AXIS2_PLACEMENT_3D('',#562,#563,#564);
#428=DRAUGHTING_PRE_DEFINED_CURVE_FONT('continuous');
#429=COLOUR_RGB('',0.800000011920929,0.800000011920929,0.800000011920929);
#430=CARTESIAN_POINT('',(3.69024354747264E-016,-3.01341205355847,-44.395));
#431=VECTOR('',#565,1.0);
#432=SURFACE_SIDE_STYLE('',(#566));
#433=EDGE_LOOP('',(#567,#568,#569));
#434=AXIS2_PLACEMENT_3D('',#570,#571,#572);
#435=DRAUGHTING_PRE_DEFINED_CURVE_FONT('continuous');
#436=COLOUR_RGB('',0.800000011920929,0.800000011920929,0.800000011920929);
#437=AXIS2_PLACEMENT_3D('',#573,#574,#575);
#438=DRAUGHTING_PRE_DEFINED_CURVE_FONT('continuous');
#439=COLOUR_RGB('',0.800000011920929,0.800000011920929,0.800000011920929);
#440=CARTESIAN_POINT('',(-4.66533635670371E-016,3.80966205355847,-69.79));
#441=VECTOR('',#576,1.0);
#442=SURFACE_SIDE_STYLE('',(#577));
#444=SURFACE_STYLE_FILL_AREA(#578);
#445=ORIENTED_EDGE('',*,*,#112,.T.);
#446=ORIENTED_EDGE('',*,*,#104,.T.);
#447=CARTESIAN_POINT('',(0.0,0.79125,-95.19));
#448=DIRECTION('',(0.0,0.0,-1.0));
#449=DIRECTION('',(0.0,1.0,0.0));
#450=CARTESIAN_POINT('',(0.0,0.0,-0.783999999999999));
#451=DIRECTION('',(0.0,0.0,-1.0));
#452=DIRECTION('',(0.0,1.0,0.0));
#453=SURFACE_STYLE_FILL_AREA(#579);
#454=ORIENTED_EDGE('',*,*,#158,.F.);
#455=ORIENTED_EDGE('',*,*,#162,.T.);
#456=ORIENTED_EDGE('',*,*,#152,.F.);
#457=ORIENTED_EDGE('',*,*,#98,.F.);
#458=CARTESIAN_POINT('',(0.0,0.0,-0.387));
#459=DIRECTION('',(0.0,-0.0,-1.0));
#460=DIRECTION('',(0.0,1.0,0.0));
#461=DIRECTION('',(1.22460466809018E-016,-0.999998623449736,-0.00165924640519759));
#462=CARTESIAN_POINT('',(0.0,0.0,-44.39));
#463=DIRECTION('',(0.0,0.0,-1.0));
#464=DIRECTION('',(0.0,1.0,0.0));
#465=CARTESIAN_POINT('',(0.0,0.0,-0.783999999999999));
#466=DIRECTION('',(0.0,0.0,-1.0));
#467=DIRECTION('',(0.0,1.0,0.0));
#468=SURFACE_STYLE_FILL_AREA(#580);
#469=ORIENTED_EDGE('',*,*,#106,.F.);
#470=ORIENTED_EDGE('',*,*,#98,.T.);
#471=ORIENTED_EDGE('',*,*,#118,.F.);
#472=ORIENTED_EDGE('',*,*,#108,.F.);
#473=CARTESIAN_POINT('',(0.0,0.0,-20.9995));
#474=DIRECTION('',(-0.0,-0.0,1.0));
#475=DIRECTION('',(0.0,1.0,0.0));
#476=CARTESIAN_POINT('',(0.0,0.0,-95.19));
#477=DIRECTION('',(0.0,0.0,-1.0));
#478=DIRECTION('',(0.0,1.0,0.0));
#479=DIRECTION('',(0.0,0.0,-1.0));
#480=CARTESIAN_POINT('',(0.0,0.0,-44.39));
#481=DIRECTION('',(0.0,0.0,-1.0));
#482=DIRECTION('',(0.0,-1.0,0.0));
#483=CARTESIAN_POINT('',(0.0,0.0,-95.19));
#484=DIRECTION('',(0.0,0.0,-1.0));
#485=DIRECTION('',(0.0,1.0,0.0));
#486=DIRECTION('',(1.0672909311293E-017,-0.0871537966300723,0.996194868353057));
#487=DIRECTION('',(-0.0,-0.0,1.0));
#488=SURFACE_STYLE_FILL_AREA(#581);
#489=SURFACE_STYLE_FILL_AREA(#582);
#490=ORIENTED_EDGE('',*,*,#170,.T.);
#491=ORIENTED_EDGE('',*,*,#104,.F.);
#492=ORIENTED_EDGE('',*,*,#114,.T.);
#493=ORIENTED_EDGE('',*,*,#92,.T.);
#494=CARTESIAN_POINT('',(0.0,0.0,-69.79));
#495=DIRECTION('',(-0.0,-0.0,1.0));
#496=DIRECTION('',(0.0,1.0,0.0));
#497=SURFACE_STYLE_FILL_AREA(#583);
#498=ORIENTED_EDGE('',*,*,#164,.T.);
#499=ORIENTED_EDGE('',*,*,#132,.F.);
#500=ORIENTED_EDGE('',*,*,#90,.T.);
#501=CARTESIAN_POINT('',(0.0,0.0,-44.395));
#502=DIRECTION('',(-0.0,-0.0,1.0));
#503=DIRECTION('',(0.0,1.0,0.0));
#504=CARTESIAN_POINT('',(0.0,0.0,-44.39));
#505=DIRECTION('',(0.0,0.0,-1.0));
#506=DIRECTION('',(0.0,1.0,0.0));
#507=CARTESIAN_POINT('',(0.0,0.0,-44.39));
#508=DIRECTION('',(0.0,0.0,-1.0));
#509=DIRECTION('',(0.0,-1.0,0.0));
#510=SURFACE_STYLE_FILL_AREA(#584);
#511=ORIENTED_EDGE('',*,*,#170,.F.);
#512=ORIENTED_EDGE('',*,*,#168,.T.);
#513=ORIENTED_EDGE('',*,*,#114,.F.);
#514=ORIENTED_EDGE('',*,*,#112,.F.);
#515=CARTESIAN_POINT('',(0.0,0.0,-69.79));
#516=DIRECTION('',(-0.0,-0.0,1.0));
#517=DIRECTION('',(0.0,1.0,0.0));
#518=SURFACE_STYLE_FILL_AREA(#585);
#519=ORIENTED_EDGE('',*,*,#106,.T.);
#520=ORIENTED_EDGE('',*,*,#134,.F.);
#521=ORIENTED_EDGE('',*,*,#118,.T.);
#522=ORIENTED_EDGE('',*,*,#84,.T.);
#523=CARTESIAN_POINT('',(0.0,0.0,-20.9995));
#524=DIRECTION('',(-0.0,-0.0,1.0));
#525=DIRECTION('',(0.0,1.0,0.0));
#526=SURFACE_STYLE_FILL_AREA(#586);
#527=ORIENTED_EDGE('',*,*,#134,.T.);
#528=ORIENTED_EDGE('',*,*,#108,.T.);
#529=CARTESIAN_POINT('',(0.0,0.0,-44.39));
#530=DIRECTION('',(0.0,0.0,-1.0));
#531=DIRECTION('',(0.0,-1.0,0.0));
#532=SURFACE_STYLE_FILL_AREA(#587);
#533=ORIENTED_EDGE('',*,*,#158,.T.);
#534=ORIENTED_EDGE('',*,*,#84,.F.);
#535=ORIENTED_EDGE('',*,*,#152,.T.);
#536=ORIENTED_EDGE('',*,*,#148,.T.);
#537=CARTESIAN_POINT('',(0.0,0.0,-0.387));
#538=DIRECTION('',(0.0,-0.0,-1.0));
#539=DIRECTION('',(0.0,1.0,0.0));
#540=CARTESIAN_POINT('',(0.0,0.0,0.00999999999999801));
#541=DIRECTION('',(0.0,0.0,-1.0));
#542=DIRECTION('',(0.0,1.0,0.0));
#543=CARTESIAN_POINT('',(0.0,0.0,-44.39));
#544=DIRECTION('',(0.0,0.0,-1.0));
#545=DIRECTION('',(0.0,1.0,0.0));
#546=DIRECTION('',(-6.12303176911191E-017,0.500000000000002,0.866025403784438));
#547=SURFACE_STYLE_FILL_AREA(#588);
#548=ORIENTED_EDGE('',*,*,#168,.F.);
#549=ORIENTED_EDGE('',*,*,#92,.F.);
#550=ORIENTED_EDGE('',*,*,#132,.T.);
#551=ORIENTED_EDGE('',*,*,#150,.T.);
#552=CARTESIAN_POINT('',(0.0,6.02932410711694,-44.39));
#553=DIRECTION('',(-0.0,0.0,1.0));
#554=DIRECTION('',(0.0,-1.0,0.0));
#555=DIRECTION('',(-6.12303176911191E-017,0.500000000000002,-0.866025403784438));
#556=SURFACE_STYLE_FILL_AREA(#589);
#557=ORIENTED_EDGE('',*,*,#162,.F.);
#558=ORIENTED_EDGE('',*,*,#148,.F.);
#559=CARTESIAN_POINT('',(0.0,2.15204194313172,0.00999999999999801));
#560=DIRECTION('',(-0.0,0.0,1.0));
#561=DIRECTION('',(0.0,-1.0,0.0));
#562=CARTESIAN_POINT('',(0.0,0.0,0.00999999999999801));
#563=DIRECTION('',(0.0,0.0,-1.0));
#564=DIRECTION('',(0.0,1.0,0.0));
#565=DIRECTION('',(1.22460466809018E-016,-0.999998623449736,0.00165924640519759));
#566=SURFACE_STYLE_FILL_AREA(#590);
#567=ORIENTED_EDGE('',*,*,#164,.F.);
#568=ORIENTED_EDGE('',*,*,#90,.F.);
#569=ORIENTED_EDGE('',*,*,#150,.F.);
#570=CARTESIAN_POINT('',(0.0,0.0,-44.395));
#571=DIRECTION('',(-0.0,-0.0,1.0));
#572=DIRECTION('',(0.0,1.0,0.0));
#573=CARTESIAN_POINT('',(0.0,0.0,-44.39));
#574=DIRECTION('',(0.0,0.0,-1.0));
#575=DIRECTION('',(0.0,1.0,0.0));
#576=DIRECTION('',(1.0672909311293E-017,-0.0871537966300723,-0.996194868353057));
#577=SURFACE_STYLE_FILL_AREA(#591);
#578=FILL_AREA_STYLE('',(#592));
#579=FILL_AREA_STYLE('',(#593));
#580=FILL_AREA_STYLE('',(#594));
#581=FILL_AREA_STYLE('',(#595));
#582=FILL_AREA_STYLE('',(#596));
#583=FILL_AREA_STYLE('',(#597));
#584=FILL_AREA_STYLE('',(#598));
#585=FILL_AREA_STYLE('',(#599));
#586=FILL_AREA_STYLE('',(#600));
#587=FILL_AREA_STYLE('',(#601));
#588=FILL_AREA_STYLE('',(#602));
#589=FILL_AREA_STYLE('',(#603));
#590=FILL_AREA_STYLE('',(#604));
#591=FILL_AREA_STYLE('',(#605));
#592=FILL_AREA_STYLE_COLOUR('',#606);
#593=FILL_AREA_STYLE_COLOUR('',#607);
#594=FILL_AREA_STYLE_COLOUR('',#608);
#595=FILL_AREA_STYLE_COLOUR('',#609);
#596=FILL_AREA_STYLE_COLOUR('',#610);
#597=FILL_AREA_STYLE_COLOUR('',#611);
#598=FILL_AREA_STYLE_COLOUR('',#612);
#599=FILL_AREA_STYLE_COLOUR('',#613);
#600=FILL_AREA_STYLE_COLOUR('',#614);
#601=FILL_AREA_STYLE_COLOUR('',#615);
#602=FILL_AREA_STYLE_COLOUR('',#616);
#603=FILL_AREA_STYLE_COLOUR('',#617);
#604=FILL_AREA_STYLE_COLOUR('',#618);
#605=FILL_AREA_STYLE_COLOUR('',#619);
#606=COLOUR_RGB('',0.800000011920929,0.800000011920929,0.800000011920929);
#607=COLOUR_RGB('',0.498039215803146,0.498039215803146,0.498039215803146);
#608=COLOUR_RGB('',0.498039215803146,0.498039215803146,0.498039215803146);
#609=COLOUR_RGB('',0.800000011920929,0.800000011920929,0.800000011920929);
#610=COLOUR_RGB('',0.800000011920929,0.800000011920929,0.800000011920929);
#611=COLOUR_RGB('',0.800000011920929,0.800000011920929,0.800000011920929);
#612=COLOUR_RGB('',0.800000011920929,0.800000011920929,0.800000011920929);
#613=COLOUR_RGB('',0.498039215803146,0.498039215803146,0.498039215803146);
#614=COLOUR_RGB('',0.498039215803146,0.498039215803146,0.498039215803146);
#615=COLOUR_RGB('',0.498039215803146,0.498039215803146,0.498039215803146);
#616=COLOUR_RGB('',0.800000011920929,0.800000011920929,0.800000011920929);
#617=COLOUR_RGB('',0.498039215803146,0.498039215803146,0.498039215803146);
#618=COLOUR_RGB('',0.800000011920929,0.800000011920929,0.800000011920929);
#619=COLOUR_RGB('',0.800000011920929,0.800000011920929,0.800000011920929);
#620=AXIS2_PLACEMENT_3D('PCS',#621,#622,#623);
#621=CARTESIAN_POINT('',(0.0,0.0,0.0));
#622=DIRECTION('',(0.0,0.0,1.0));
#623=DIRECTION('',(1.0,0.0,0.0));
#624=AXIS2_PLACEMENT_3D('CIP',#625,#626,#627);
#625=CARTESIAN_POINT('',(0.0,0.0,-95.2));
#626=DIRECTION('',(0.0,0.0,1.0));
#627=DIRECTION('',(1.0,0.0,0.0));
#628=AXIS2_PLACEMENT_3D('CRP',#629,#630,#631);
#629=CARTESIAN_POINT('',(-1.5875,0.0,-95.2));
#630=DIRECTION('',(0.0,0.0,1.0));
#631=DIRECTION('',(1.0,0.0,0.0));
#632=AXIS2_PLACEMENT_3D('MCS',#633,#634,#635);
#633=CARTESIAN_POINT('',(0.0,0.0,-41.225));
#634=DIRECTION('',(0.0,0.0,1.0));
#635=DIRECTION('',(1.0,0.0,0.0));
#636=CONSTRUCTIVE_GEOMETRY_REPRESENTATION_RELATIONSHIP('coordinate systems',$,#65,#637);
#637=CONSTRUCTIVE_GEOMETRY_REPRESENTATION('coordinate systems',(#620,#624,#628,#632),#10);
ENDSEC;
END-ISO-10303-21;
