ISO-10303-21;
HEADER;
FILE_DESCRIPTION(('no description'),'unknown implementation level');
FILE_NAME('solidVTcqDmYgt8OgeTMJMQpaMcNnWvw_1.STP','  ',('CIMSOURCE GmbH'),('CADClick - KiM GmbH - www.kimweb.de'),'unknown preprocess','ACIS','unknown authorization');
FILE_SCHEMA(('automotive_design'));
ENDSEC;
DATA;
#1=MECHANICAL_DESIGN_GEOMETRIC_PRESENTATION_REPRESENTATION(' ',(#14,#15,#16,#17,#18,#19,#20,#21,#22,#23,#24,#25,#26,#27,#28,#29,#30,#31,#32,#33,#34,#35,#36,#37,#38,#39,#40,#41,#42,#43,#44,#45,#46,#47,#48,#49,#50,#51,#52,#53,#54,#55,#56,#57,#58,#59,#60),#10);
#2=PRODUCT_DEFINITION_CONTEXT('',#61,'design');
#3=APPLICATION_PROTOCOL_DEFINITION('INTERNATIONAL STANDARD','automotive_design',1994,#61);
#4=PRODUCT_CATEGORY_RELATIONSHIP('NONE','NONE',#62,#63);
#5=SHAPE_DEFINITION_REPRESENTATION(#64,#65);
#6=PRODUCT_DEFINITION_CONTEXT('',#66,'design');
#7=APPLICATION_PROTOCOL_DEFINITION('INTERNATIONAL STANDARD','automotive_design',1994,#66);
#8=PRODUCT_CATEGORY_RELATIONSHIP('NONE','NONE',#67,#68);
#9=SHAPE_DEFINITION_REPRESENTATION(#69,#70);
#10= (GEOMETRIC_REPRESENTATION_CONTEXT(3)GLOBAL_UNCERTAINTY_ASSIGNED_CONTEXT((#73))GLOBAL_UNIT_ASSIGNED_CONTEXT((#75,#76,#77))REPRESENTATION_CONTEXT('NONE','WORKSPACE'));
#14=STYLED_ITEM('',(#79),#80);
#15=STYLED_ITEM('',(#81),#82);
#16=STYLED_ITEM('',(#83),#84);
#17=STYLED_ITEM('',(#85),#86);
#18=STYLED_ITEM('',(#87),#88);
#19=STYLED_ITEM('',(#89),#90);
#20=STYLED_ITEM('',(#91),#92);
#21=STYLED_ITEM('',(#93),#94);
#22=STYLED_ITEM('',(#95),#96);
#23=STYLED_ITEM('',(#97),#98);
#24=STYLED_ITEM('',(#99),#100);
#25=STYLED_ITEM('',(#101),#102);
#26=STYLED_ITEM('',(#103),#104);
#27=STYLED_ITEM('',(#105),#106);
#28=STYLED_ITEM('',(#107),#108);
#29=STYLED_ITEM('',(#109),#110);
#30=STYLED_ITEM('',(#111),#112);
#31=STYLED_ITEM('',(#113),#114);
#32=STYLED_ITEM('',(#115),#116);
#33=STYLED_ITEM('',(#117),#118);
#34=STYLED_ITEM('',(#119),#120);
#35=STYLED_ITEM('',(#121),#122);
#36=STYLED_ITEM('',(#123),#124);
#37=STYLED_ITEM('',(#125),#126);
#38=STYLED_ITEM('',(#127),#128);
#39=STYLED_ITEM('',(#129),#130);
#40=STYLED_ITEM('',(#131),#132);
#41=STYLED_ITEM('',(#133),#134);
#42=STYLED_ITEM('',(#135),#136);
#43=STYLED_ITEM('',(#137),#138);
#44=STYLED_ITEM('',(#139),#140);
#45=STYLED_ITEM('',(#141),#142);
#46=STYLED_ITEM('',(#143),#144);
#47=STYLED_ITEM('',(#145),#146);
#48=STYLED_ITEM('',(#147),#148);
#49=STYLED_ITEM('',(#149),#150);
#50=STYLED_ITEM('',(#151),#152);
#51=STYLED_ITEM('',(#153),#154);
#52=STYLED_ITEM('',(#155),#156);
#53=STYLED_ITEM('',(#157),#158);
#54=STYLED_ITEM('',(#159),#160);
#55=STYLED_ITEM('',(#161),#162);
#56=STYLED_ITEM('',(#163),#164);
#57=STYLED_ITEM('',(#165),#166);
#58=STYLED_ITEM('',(#167),#168);
#59=STYLED_ITEM('',(#169),#170);
#60=STYLED_ITEM('',(#171),#172);
#61=APPLICATION_CONTEXT(' ');
#62=PRODUCT_CATEGORY('part','NONE');
#63=PRODUCT_RELATED_PRODUCT_CATEGORY('detail',' ',(#173));
#64=PRODUCT_DEFINITION_SHAPE('NONE','NONE',#174);
#65=ADVANCED_BREP_SHAPE_REPRESENTATION('1',(#160,#175),#10);
#66=APPLICATION_CONTEXT(' ');
#67=PRODUCT_CATEGORY('part','NONE');
#68=PRODUCT_RELATED_PRODUCT_CATEGORY('detail',' ',(#176));
#69=PRODUCT_DEFINITION_SHAPE('NONE','NONE',#177);
#70=ADVANCED_BREP_SHAPE_REPRESENTATION('2',(#150,#178),#10);
#73=UNCERTAINTY_MEASURE_WITH_UNIT(LENGTH_MEASURE(1.0E-006),#75,'','');
#75= (CONVERSION_BASED_UNIT('MILLIMETRE',#181)LENGTH_UNIT()NAMED_UNIT(#184));
#76= (NAMED_UNIT(#186)PLANE_ANGLE_UNIT()SI_UNIT($,.RADIAN.));
#77= (NAMED_UNIT(#186)SOLID_ANGLE_UNIT()SI_UNIT($,.STERADIAN.));
#79=PRESENTATION_STYLE_ASSIGNMENT((#192));
#80=VERTEX_POINT('',#193);
#81=PRESENTATION_STYLE_ASSIGNMENT((#194));
#82=ADVANCED_FACE('',(#195),#196,.F.);
#83=PRESENTATION_STYLE_ASSIGNMENT((#197));
#84=VERTEX_POINT('',#198);
#85=PRESENTATION_STYLE_ASSIGNMENT((#199));
#86=EDGE_CURVE('',#124,#138,#200,.T.);
#87=PRESENTATION_STYLE_ASSIGNMENT((#201));
#88=ADVANCED_FACE('',(#202),#203,.T.);
#89=PRESENTATION_STYLE_ASSIGNMENT((#204));
#90=EDGE_CURVE('',#84,#114,#205,.T.);
#91=PRESENTATION_STYLE_ASSIGNMENT((#206));
#92=EDGE_CURVE('',#158,#124,#207,.T.);
#93=PRESENTATION_STYLE_ASSIGNMENT((#208));
#94=EDGE_CURVE('',#172,#80,#209,.T.);
#95=PRESENTATION_STYLE_ASSIGNMENT((#210));
#96=ADVANCED_FACE('',(#211,#212),#213,.T.);
#97=PRESENTATION_STYLE_ASSIGNMENT((#214));
#98=EDGE_CURVE('',#122,#132,#215,.T.);
#99=PRESENTATION_STYLE_ASSIGNMENT((#216));
#100=ADVANCED_FACE('',(#217),#218,.F.);
#101=PRESENTATION_STYLE_ASSIGNMENT((#219));
#102=VERTEX_POINT('',#220);
#103=PRESENTATION_STYLE_ASSIGNMENT((#221));
#104=ADVANCED_FACE('',(#222),#223,.T.);
#105=PRESENTATION_STYLE_ASSIGNMENT((#224));
#106=EDGE_CURVE('',#102,#156,#225,.T.);
#107=PRESENTATION_STYLE_ASSIGNMENT((#226));
#108=EDGE_CURVE('',#132,#156,#227,.T.);
#109=PRESENTATION_STYLE_ASSIGNMENT((#228));
#110=EDGE_CURVE('',#112,#172,#229,.T.);
#111=PRESENTATION_STYLE_ASSIGNMENT((#230));
#112=VERTEX_POINT('',#231);
#113=PRESENTATION_STYLE_ASSIGNMENT((#232));
#114=VERTEX_POINT('',#233);
#115=PRESENTATION_STYLE_ASSIGNMENT((#234));
#116=EDGE_CURVE('',#132,#122,#235,.T.);
#117=PRESENTATION_STYLE_ASSIGNMENT((#236));
#118=EDGE_CURVE('',#130,#80,#237,.T.);
#119=PRESENTATION_STYLE_ASSIGNMENT((#238));
#120=ADVANCED_FACE('',(#239),#240,.T.);
#121=PRESENTATION_STYLE_ASSIGNMENT((#241));
#122=VERTEX_POINT('',#242);
#123=PRESENTATION_STYLE_ASSIGNMENT((#243));
#124=VERTEX_POINT('',#244);
#125=PRESENTATION_STYLE_ASSIGNMENT((#245));
#126=EDGE_CURVE('',#80,#114,#246,.T.);
#127=PRESENTATION_STYLE_ASSIGNMENT((#247));
#128=EDGE_CURVE('',#80,#130,#248,.T.);
#129=PRESENTATION_STYLE_ASSIGNMENT((#249));
#130=VERTEX_POINT('',#250);
#131=PRESENTATION_STYLE_ASSIGNMENT((#251));
#132=VERTEX_POINT('',#252);
#133=PRESENTATION_STYLE_ASSIGNMENT((#253));
#134=ADVANCED_FACE('',(#254),#255,.T.);
#135=PRESENTATION_STYLE_ASSIGNMENT((#256));
#136=ADVANCED_FACE('',(#257),#258,.T.);
#137=PRESENTATION_STYLE_ASSIGNMENT((#259));
#138=VERTEX_POINT('',#260);
#139=PRESENTATION_STYLE_ASSIGNMENT((#261));
#140=EDGE_CURVE('',#124,#158,#262,.T.);
#141=PRESENTATION_STYLE_ASSIGNMENT((#263));
#142=EDGE_CURVE('',#130,#112,#264,.T.);
#143=PRESENTATION_STYLE_ASSIGNMENT((#265));
#144=ADVANCED_FACE('',(#266),#267,.T.);
#145=PRESENTATION_STYLE_ASSIGNMENT((#268));
#146=EDGE_CURVE('',#102,#122,#269,.T.);
#147=PRESENTATION_STYLE_ASSIGNMENT((#270));
#148=EDGE_CURVE('',#172,#112,#271,.T.);
#149=PRESENTATION_STYLE_ASSIGNMENT((#272));
#150=MANIFOLD_SOLID_BREP('2',#273);
#151=PRESENTATION_STYLE_ASSIGNMENT((#274));
#152=EDGE_CURVE('',#84,#130,#275,.T.);
#153=PRESENTATION_STYLE_ASSIGNMENT((#276));
#154=EDGE_CURVE('',#114,#84,#277,.T.);
#155=PRESENTATION_STYLE_ASSIGNMENT((#278));
#156=VERTEX_POINT('',#279);
#157=PRESENTATION_STYLE_ASSIGNMENT((#280));
#158=VERTEX_POINT('',#281);
#159=PRESENTATION_STYLE_ASSIGNMENT((#282));
#160=MANIFOLD_SOLID_BREP('1',#283);
#161=PRESENTATION_STYLE_ASSIGNMENT((#284));
#162=ADVANCED_FACE('',(#285),#286,.T.);
#163=PRESENTATION_STYLE_ASSIGNMENT((#287));
#164=EDGE_CURVE('',#138,#158,#288,.T.);
#165=PRESENTATION_STYLE_ASSIGNMENT((#289));
#166=ADVANCED_FACE('',(#290),#291,.T.);
#167=PRESENTATION_STYLE_ASSIGNMENT((#292));
#168=EDGE_CURVE('',#156,#102,#293,.T.);
#169=PRESENTATION_STYLE_ASSIGNMENT((#294));
#170=ADVANCED_FACE('',(#295),#296,.T.);
#171=PRESENTATION_STYLE_ASSIGNMENT((#297));
#172=VERTEX_POINT('',#298);
#173=PRODUCT('1','1','PART-1-DESC',(#299));
#174=PRODUCT_DEFINITION('NONE','NONE',#300,#2);
#175=AXIS2_PLACEMENT_3D('',#301,#302,#303);
#176=PRODUCT('2','2','PART-2-DESC',(#304));
#177=PRODUCT_DEFINITION('NONE','NONE',#305,#6);
#178=AXIS2_PLACEMENT_3D('',#306,#307,#308);
#181=LENGTH_MEASURE_WITH_UNIT(LENGTH_MEASURE(1.0),#309);
#184=DIMENSIONAL_EXPONENTS(1.0,0.0,0.0,0.0,0.0,0.0,0.0);
#186=DIMENSIONAL_EXPONENTS(0.0,0.0,0.0,0.0,0.0,0.0,0.0);
#192=POINT_STYLE(' ',#310,POSITIVE_LENGTH_MEASURE(1.0E-006),#311);
#193=CARTESIAN_POINT('',(7.7762503467721E-016,-6.35,-0.783999999999999));
#194=SURFACE_STYLE_USAGE(.BOTH.,#312);
#195=FACE_OUTER_BOUND('',#313,.T.);
#196=CONICAL_SURFACE('',#314,3.56896506694809,1.56939536135112);
#197=POINT_STYLE(' ',#315,POSITIVE_LENGTH_MEASURE(1.0E-006),#316);
#198=CARTESIAN_POINT('',(0.0,5.89158388626344,0.00999999999999801));
#199=CURVE_STYLE('',#317,POSITIVE_LENGTH_MEASURE(1.0E-006),#318);
#200=LINE('',#319,#320);
#201=SURFACE_STYLE_USAGE(.BOTH.,#321);
#202=FACE_OUTER_BOUND('',#322,.T.);
#203=CYLINDRICAL_SURFACE('',#323,6.35);
#204=CURVE_STYLE('',#324,POSITIVE_LENGTH_MEASURE(1.0E-006),#325);
#205=CIRCLE('',#326,5.89158388626344);
#206=CURVE_STYLE('',#327,POSITIVE_LENGTH_MEASURE(1.0E-006),#328);
#207=CIRCLE('',#329,7.13793013389617);
#208=CURVE_STYLE('',#330,POSITIVE_LENGTH_MEASURE(1.0E-006),#331);
#209=LINE('',#332,#333);
#210=SURFACE_STYLE_USAGE(.BOTH.,#334);
#211=FACE_OUTER_BOUND('',#335,.T.);
#212=FACE_BOUND('',#336,.T.);
#213=PLANE('',#337);
#214=CURVE_STYLE('',#338,POSITIVE_LENGTH_MEASURE(1.0E-006),#339);
#215=CIRCLE('',#340,1.5875);
#216=SURFACE_STYLE_USAGE(.BOTH.,#341);
#217=FACE_OUTER_BOUND('',#342,.T.);
#218=CONICAL_SURFACE('',#343,3.56896506694809,1.56939536135112);
#219=POINT_STYLE(' ',#344,POSITIVE_LENGTH_MEASURE(1.0E-006),#345);
#220=CARTESIAN_POINT('',(0.0,7.14293013389617,-50.79));
#221=SURFACE_STYLE_USAGE(.BOTH.,#346);
#222=FACE_OUTER_BOUND('',#347,.T.);
#223=PLANE('',#348);
#224=CURVE_STYLE('',#349,POSITIVE_LENGTH_MEASURE(1.0E-006),#350);
#225=CIRCLE('',#351,7.14293013389617);
#226=CURVE_STYLE('',#352,POSITIVE_LENGTH_MEASURE(1.0E-006),#353);
#227=LINE('',#354,#355);
#228=CURVE_STYLE('',#356,POSITIVE_LENGTH_MEASURE(1.0E-006),#357);
#229=CIRCLE('',#358,6.35);
#230=POINT_STYLE(' ',#359,POSITIVE_LENGTH_MEASURE(1.0E-006),#360);
#231=CARTESIAN_POINT('',(-7.7762503467721E-016,6.35,-50.79));
#232=POINT_STYLE(' ',#361,POSITIVE_LENGTH_MEASURE(1.0E-006),#362);
#233=CARTESIAN_POINT('',(7.21487106119574E-016,-5.89158388626344,0.00999999999999801));
#234=CURVE_STYLE('',#363,POSITIVE_LENGTH_MEASURE(1.0E-006),#364);
#235=CIRCLE('',#365,1.5875);
#236=CURVE_STYLE('',#366,POSITIVE_LENGTH_MEASURE(1.0E-006),#367);
#237=CIRCLE('',#368,6.35);
#238=SURFACE_STYLE_USAGE(.BOTH.,#369);
#239=FACE_OUTER_BOUND('',#370,.T.);
#240=CONICAL_SURFACE('',#371,4.36521506694809,0.0872648997587524);
#241=POINT_STYLE(' ',#372,POSITIVE_LENGTH_MEASURE(1.0E-006),#373);
#242=CARTESIAN_POINT('',(0.0,1.5875,-114.29));
#243=POINT_STYLE(' ',#374,POSITIVE_LENGTH_MEASURE(1.0E-006),#375);
#244=CARTESIAN_POINT('',(0.0,7.13793013389617,-50.79));
#245=CURVE_STYLE('',#376,POSITIVE_LENGTH_MEASURE(1.0E-006),#377);
#246=LINE('',#378,#379);
#247=CURVE_STYLE('',#380,POSITIVE_LENGTH_MEASURE(1.0E-006),#381);
#248=CIRCLE('',#382,6.35);
#249=POINT_STYLE(' ',#383,POSITIVE_LENGTH_MEASURE(1.0E-006),#384);
#250=CARTESIAN_POINT('',(0.0,6.35,-0.783999999999999));
#251=POINT_STYLE(' ',#385,POSITIVE_LENGTH_MEASURE(1.0E-006),#386);
#252=CARTESIAN_POINT('',(1.94406258669302E-016,-1.5875,-114.29));
#253=SURFACE_STYLE_USAGE(.BOTH.,#387);
#254=FACE_OUTER_BOUND('',#388,.T.);
#255=CONICAL_SURFACE('',#389,6.12079194313172,0.523598775598301);
#256=SURFACE_STYLE_USAGE(.BOTH.,#390);
#257=FACE_OUTER_BOUND('',#391,.T.);
#258=CYLINDRICAL_SURFACE('',#392,6.35);
#259=POINT_STYLE(' ',#393,POSITIVE_LENGTH_MEASURE(1.0E-006),#394);
#260=CARTESIAN_POINT('',(0.0,0.0,-50.8));
#261=CURVE_STYLE('',#395,POSITIVE_LENGTH_MEASURE(1.0E-006),#396);
#262=CIRCLE('',#397,7.13793013389617);
#263=CURVE_STYLE('',#398,POSITIVE_LENGTH_MEASURE(1.0E-006),#399);
#264=LINE('',#400,#401);
#265=SURFACE_STYLE_USAGE(.BOTH.,#402);
#266=FACE_OUTER_BOUND('',#403,.T.);
#267=PLANE('',#404);
#268=CURVE_STYLE('',#405,POSITIVE_LENGTH_MEASURE(1.0E-006),#406);
#269=LINE('',#407,#408);
#270=CURVE_STYLE('',#409,POSITIVE_LENGTH_MEASURE(1.0E-006),#410);
#271=CIRCLE('',#411,6.35);
#272=SURFACE_STYLE_USAGE(.BOTH.,#412);
#273=CLOSED_SHELL('',(#136,#134,#144,#166,#162,#88));
#274=CURVE_STYLE('',#413,POSITIVE_LENGTH_MEASURE(1.0E-006),#414);
#275=LINE('',#415,#416);
#276=CURVE_STYLE('',#417,POSITIVE_LENGTH_MEASURE(1.0E-006),#418);
#277=CIRCLE('',#419,5.89158388626344);
#278=POINT_STYLE(' ',#420,POSITIVE_LENGTH_MEASURE(1.0E-006),#421);
#279=CARTESIAN_POINT('',(8.74727762687857E-016,-7.14293013389617,-50.79));
#280=POINT_STYLE(' ',#422,POSITIVE_LENGTH_MEASURE(1.0E-006),#423);
#281=CARTESIAN_POINT('',(8.74115459510946E-016,-7.13793013389617,-50.79));
#282=SURFACE_STYLE_USAGE(.BOTH.,#424);
#283=CLOSED_SHELL('',(#120,#100,#82,#96,#170,#104));
#284=SURFACE_STYLE_USAGE(.BOTH.,#425);
#285=FACE_OUTER_BOUND('',#426,.T.);
#286=CONICAL_SURFACE('',#427,6.12079194313172,0.523598775598301);
#287=CURVE_STYLE('',#428,POSITIVE_LENGTH_MEASURE(1.0E-006),#429);
#288=LINE('',#430,#431);
#289=SURFACE_STYLE_USAGE(.BOTH.,#432);
#290=FACE_OUTER_BOUND('',#433,.T.);
#291=PLANE('',#434);
#292=CURVE_STYLE('',#435,POSITIVE_LENGTH_MEASURE(1.0E-006),#436);
#293=CIRCLE('',#437,7.14293013389617);
#294=SURFACE_STYLE_USAGE(.BOTH.,#438);
#295=FACE_OUTER_BOUND('',#439,.T.);
#296=CONICAL_SURFACE('',#440,4.36521506694809,0.0872648997587524);
#297=POINT_STYLE(' ',#441,POSITIVE_LENGTH_MEASURE(1.0E-006),#442);
#298=CARTESIAN_POINT('',(0.0,-6.35,-50.79));
#299=PRODUCT_CONTEXT('',#61,'mechanical');
#300=PRODUCT_DEFINITION_FORMATION_WITH_SPECIFIED_SOURCE(' ','NONE',#173,.NOT_KNOWN.);
#301=CARTESIAN_POINT('',(0.0,0.0,0.0));
#302=DIRECTION('',(0.0,0.0,1.0));
#303=DIRECTION('',(1.0,0.0,0.0));
#304=PRODUCT_CONTEXT('',#66,'mechanical');
#305=PRODUCT_DEFINITION_FORMATION_WITH_SPECIFIED_SOURCE(' ','NONE',#176,.NOT_KNOWN.);
#306=CARTESIAN_POINT('',(0.0,0.0,0.0));
#307=DIRECTION('',(0.0,0.0,1.0));
#308=DIRECTION('',(1.0,0.0,0.0));
#309= (NAMED_UNIT(#184)LENGTH_UNIT()SI_UNIT(.MILLI.,.METRE.));
#310=PRE_DEFINED_MARKER('');
#311=COLOUR_RGB('',0.498039215803146,0.498039215803146,0.498039215803146);
#312=SURFACE_SIDE_STYLE('',(#444));
#313=EDGE_LOOP('',(#445,#446,#447));
#314=AXIS2_PLACEMENT_3D('',#448,#449,#450);
#315=PRE_DEFINED_MARKER('');
#316=COLOUR_RGB('',0.498039215803146,0.498039215803146,0.498039215803146);
#317=DRAUGHTING_PRE_DEFINED_CURVE_FONT('continuous');
#318=COLOUR_RGB('',0.800000011920929,0.800000011920929,0.800000011920929);
#319=CARTESIAN_POINT('',(-4.37057729755473E-016,3.56896506694809,-50.795));
#320=VECTOR('',#451,1.0);
#321=SURFACE_SIDE_STYLE('',(#452));
#322=EDGE_LOOP('',(#453,#454,#455,#456));
#323=AXIS2_PLACEMENT_3D('',#457,#458,#459);
#324=DRAUGHTING_PRE_DEFINED_CURVE_FONT('continuous');
#325=COLOUR_RGB('',0.498039215803146,0.498039215803146,0.498039215803146);
#326=AXIS2_PLACEMENT_3D('',#460,#461,#462);
#327=DRAUGHTING_PRE_DEFINED_CURVE_FONT('continuous');
#328=COLOUR_RGB('',0.800000011920929,0.800000011920929,0.800000011920929);
#329=AXIS2_PLACEMENT_3D('',#463,#464,#465);
#330=DRAUGHTING_PRE_DEFINED_CURVE_FONT('continuous');
#331=COLOUR_RGB('',0.498039215803146,0.498039215803146,0.498039215803146);
#332=CARTESIAN_POINT('',(7.7762503467721E-016,-6.35,-24.1995));
#333=VECTOR('',#466,1.0);
#334=SURFACE_SIDE_STYLE('',(#467));
#335=EDGE_LOOP('',(#468,#469));
#336=EDGE_LOOP('',(#470,#471));
#337=AXIS2_PLACEMENT_3D('',#472,#473,#474);
#338=DRAUGHTING_PRE_DEFINED_CURVE_FONT('continuous');
#339=COLOUR_RGB('',0.800000011920929,0.800000011920929,0.800000011920929);
#340=AXIS2_PLACEMENT_3D('',#475,#476,#477);
#341=SURFACE_SIDE_STYLE('',(#478));
#342=EDGE_LOOP('',(#479,#480,#481));
#343=AXIS2_PLACEMENT_3D('',#482,#483,#484);
#344=PRE_DEFINED_MARKER('');
#345=COLOUR_RGB('',0.800000011920929,0.800000011920929,0.800000011920929);
#346=SURFACE_SIDE_STYLE('',(#485));
#347=EDGE_LOOP('',(#486,#487));
#348=AXIS2_PLACEMENT_3D('',#488,#489,#490);
#349=DRAUGHTING_PRE_DEFINED_CURVE_FONT('continuous');
#350=COLOUR_RGB('',0.800000011920929,0.800000011920929,0.800000011920929);
#351=AXIS2_PLACEMENT_3D('',#491,#492,#493);
#352=DRAUGHTING_PRE_DEFINED_CURVE_FONT('continuous');
#353=COLOUR_RGB('',0.800000011920929,0.800000011920929,0.800000011920929);
#354=CARTESIAN_POINT('',(5.3456701067858E-016,-4.36521506694809,-82.54));
#355=VECTOR('',#494,1.0);
#356=DRAUGHTING_PRE_DEFINED_CURVE_FONT('continuous');
#357=COLOUR_RGB('',0.498039215803146,0.498039215803146,0.498039215803146);
#358=AXIS2_PLACEMENT_3D('',#495,#496,#497);
#359=PRE_DEFINED_MARKER('');
#360=COLOUR_RGB('',0.498039215803146,0.498039215803146,0.498039215803146);
#361=PRE_DEFINED_MARKER('');
#362=COLOUR_RGB('',0.498039215803146,0.498039215803146,0.498039215803146);
#363=DRAUGHTING_PRE_DEFINED_CURVE_FONT('continuous');
#364=COLOUR_RGB('',0.800000011920929,0.800000011920929,0.800000011920929);
#365=AXIS2_PLACEMENT_3D('',#498,#499,#500);
#366=DRAUGHTING_PRE_DEFINED_CURVE_FONT('continuous');
#367=COLOUR_RGB('',0.498039215803146,0.498039215803146,0.498039215803146);
#368=AXIS2_PLACEMENT_3D('',#501,#502,#503);
#369=SURFACE_SIDE_STYLE('',(#504));
#370=EDGE_LOOP('',(#505,#506,#507,#508));
#371=AXIS2_PLACEMENT_3D('',#509,#510,#511);
#372=PRE_DEFINED_MARKER('');
#373=COLOUR_RGB('',0.800000011920929,0.800000011920929,0.800000011920929);
#374=PRE_DEFINED_MARKER('');
#375=COLOUR_RGB('',0.800000011920929,0.800000011920929,0.800000011920929);
#376=DRAUGHTING_PRE_DEFINED_CURVE_FONT('continuous');
#377=COLOUR_RGB('',0.498039215803146,0.498039215803146,0.498039215803146);
#378=CARTESIAN_POINT('',(7.49556070398392E-016,-6.12079194313172,-0.387));
#379=VECTOR('',#512,1.0);
#380=DRAUGHTING_PRE_DEFINED_CURVE_FONT('continuous');
#381=COLOUR_RGB('',0.498039215803146,0.498039215803146,0.498039215803146);
#382=AXIS2_PLACEMENT_3D('',#513,#514,#515);
#383=PRE_DEFINED_MARKER('');
#384=COLOUR_RGB('',0.498039215803146,0.498039215803146,0.498039215803146);
#385=PRE_DEFINED_MARKER('');
#386=COLOUR_RGB('',0.800000011920929,0.800000011920929,0.800000011920929);
#387=SURFACE_SIDE_STYLE('',(#516));
#388=EDGE_LOOP('',(#517,#518,#519,#520));
#389=AXIS2_PLACEMENT_3D('',#521,#522,#523);
#390=SURFACE_SIDE_STYLE('',(#524));
#391=EDGE_LOOP('',(#525,#526,#527,#528));
#392=AXIS2_PLACEMENT_3D('',#529,#530,#531);
#393=PRE_DEFINED_MARKER('');
#394=COLOUR_RGB('',0.800000011920929,0.800000011920929,0.800000011920929);
#395=DRAUGHTING_PRE_DEFINED_CURVE_FONT('continuous');
#396=COLOUR_RGB('',0.800000011920929,0.800000011920929,0.800000011920929);
#397=AXIS2_PLACEMENT_3D('',#532,#533,#534);
#398=DRAUGHTING_PRE_DEFINED_CURVE_FONT('continuous');
#399=COLOUR_RGB('',0.498039215803146,0.498039215803146,0.498039215803146);
#400=CARTESIAN_POINT('',(-7.7762503467721E-016,6.35,-24.1995));
#401=VECTOR('',#535,1.0);
#402=SURFACE_SIDE_STYLE('',(#536));
#403=EDGE_LOOP('',(#537,#538));
#404=AXIS2_PLACEMENT_3D('',#539,#540,#541);
#405=DRAUGHTING_PRE_DEFINED_CURVE_FONT('continuous');
#406=COLOUR_RGB('',0.800000011920929,0.800000011920929,0.800000011920929);
#407=CARTESIAN_POINT('',(-5.3456701067858E-016,4.36521506694809,-82.54));
#408=VECTOR('',#542,1.0);
#409=DRAUGHTING_PRE_DEFINED_CURVE_FONT('continuous');
#410=COLOUR_RGB('',0.498039215803146,0.498039215803146,0.498039215803146);
#411=AXIS2_PLACEMENT_3D('',#543,#544,#545);
#412=SURFACE_SIDE_STYLE('',(#546));
#413=DRAUGHTING_PRE_DEFINED_CURVE_FONT('continuous');
#414=COLOUR_RGB('',0.498039215803146,0.498039215803146,0.498039215803146);
#415=CARTESIAN_POINT('',(-7.49556070398392E-016,6.12079194313172,-0.387));
#416=VECTOR('',#547,1.0);
#417=DRAUGHTING_PRE_DEFINED_CURVE_FONT('continuous');
#418=COLOUR_RGB('',0.498039215803146,0.498039215803146,0.498039215803146);
#419=AXIS2_PLACEMENT_3D('',#548,#549,#550);
#420=PRE_DEFINED_MARKER('');
#421=COLOUR_RGB('',0.800000011920929,0.800000011920929,0.800000011920929);
#422=PRE_DEFINED_MARKER('');
#423=COLOUR_RGB('',0.800000011920929,0.800000011920929,0.800000011920929);
#424=SURFACE_SIDE_STYLE('',(#551));
#425=SURFACE_SIDE_STYLE('',(#552));
#426=EDGE_LOOP('',(#553,#554,#555,#556));
#427=AXIS2_PLACEMENT_3D('',#557,#558,#559);
#428=DRAUGHTING_PRE_DEFINED_CURVE_FONT('continuous');
#429=COLOUR_RGB('',0.800000011920929,0.800000011920929,0.800000011920929);
#430=CARTESIAN_POINT('',(4.37057729755473E-016,-3.56896506694809,-50.795));
#431=VECTOR('',#560,1.0);
#432=SURFACE_SIDE_STYLE('',(#561));
#433=EDGE_LOOP('',(#562,#563));
#434=AXIS2_PLACEMENT_3D('',#564,#565,#566);
#435=DRAUGHTING_PRE_DEFINED_CURVE_FONT('continuous');
#436=COLOUR_RGB('',0.800000011920929,0.800000011920929,0.800000011920929);
#437=AXIS2_PLACEMENT_3D('',#567,#568,#569);
#438=SURFACE_SIDE_STYLE('',(#570));
#439=EDGE_LOOP('',(#571,#572,#573,#574));
#440=AXIS2_PLACEMENT_3D('',#575,#576,#577);
#441=PRE_DEFINED_MARKER('');
#442=COLOUR_RGB('',0.498039215803146,0.498039215803146,0.498039215803146);
#444=SURFACE_STYLE_FILL_AREA(#578);
#445=ORIENTED_EDGE('',*,*,#164,.T.);
#446=ORIENTED_EDGE('',*,*,#140,.F.);
#447=ORIENTED_EDGE('',*,*,#86,.T.);
#448=CARTESIAN_POINT('',(0.0,0.0,-50.795));
#449=DIRECTION('',(-0.0,-0.0,1.0));
#450=DIRECTION('',(0.0,1.0,0.0));
#451=DIRECTION('',(1.22460515205257E-016,-0.999999018648073,-0.00140096498549187));
#452=SURFACE_STYLE_FILL_AREA(#579);
#453=ORIENTED_EDGE('',*,*,#142,.T.);
#454=ORIENTED_EDGE('',*,*,#148,.F.);
#455=ORIENTED_EDGE('',*,*,#94,.T.);
#456=ORIENTED_EDGE('',*,*,#128,.T.);
#457=CARTESIAN_POINT('',(0.0,0.0,-24.1995));
#458=DIRECTION('',(-0.0,-0.0,1.0));
#459=DIRECTION('',(0.0,1.0,0.0));
#460=CARTESIAN_POINT('',(0.0,0.0,0.00999999999999801));
#461=DIRECTION('',(0.0,0.0,-1.0));
#462=DIRECTION('',(0.0,1.0,0.0));
#463=CARTESIAN_POINT('',(0.0,0.0,-50.79));
#464=DIRECTION('',(0.0,0.0,-1.0));
#465=DIRECTION('',(0.0,1.0,0.0));
#466=DIRECTION('',(-0.0,-0.0,1.0));
#467=SURFACE_STYLE_FILL_AREA(#580);
#468=ORIENTED_EDGE('',*,*,#106,.F.);
#469=ORIENTED_EDGE('',*,*,#168,.F.);
#470=ORIENTED_EDGE('',*,*,#140,.T.);
#471=ORIENTED_EDGE('',*,*,#92,.T.);
#472=CARTESIAN_POINT('',(0.0,7.14043013389617,-50.79));
#473=DIRECTION('',(-0.0,0.0,1.0));
#474=DIRECTION('',(0.0,-1.0,0.0));
#475=CARTESIAN_POINT('',(0.0,0.0,-114.29));
#476=DIRECTION('',(0.0,0.0,-1.0));
#477=DIRECTION('',(0.0,1.0,0.0));
#478=SURFACE_STYLE_FILL_AREA(#581);
#479=ORIENTED_EDGE('',*,*,#164,.F.);
#480=ORIENTED_EDGE('',*,*,#86,.F.);
#481=ORIENTED_EDGE('',*,*,#92,.F.);
#482=CARTESIAN_POINT('',(0.0,0.0,-50.795));
#483=DIRECTION('',(-0.0,-0.0,1.0));
#484=DIRECTION('',(0.0,1.0,0.0));
#485=SURFACE_STYLE_FILL_AREA(#582);
#486=ORIENTED_EDGE('',*,*,#98,.T.);
#487=ORIENTED_EDGE('',*,*,#116,.T.);
#488=CARTESIAN_POINT('',(0.0,0.79125,-114.29));
#489=DIRECTION('',(0.0,0.0,-1.0));
#490=DIRECTION('',(0.0,1.0,0.0));
#491=CARTESIAN_POINT('',(0.0,0.0,-50.79));
#492=DIRECTION('',(0.0,0.0,-1.0));
#493=DIRECTION('',(0.0,1.0,0.0));
#494=DIRECTION('',(1.0672956975862E-017,-0.0871541858536693,0.996194834301094));
#495=CARTESIAN_POINT('',(0.0,0.0,-50.79));
#496=DIRECTION('',(0.0,0.0,-1.0));
#497=DIRECTION('',(0.0,-1.0,0.0));
#498=CARTESIAN_POINT('',(0.0,0.0,-114.29));
#499=DIRECTION('',(0.0,0.0,-1.0));
#500=DIRECTION('',(0.0,1.0,0.0));
#501=CARTESIAN_POINT('',(0.0,0.0,-0.783999999999999));
#502=DIRECTION('',(0.0,0.0,-1.0));
#503=DIRECTION('',(0.0,1.0,0.0));
#504=SURFACE_STYLE_FILL_AREA(#583);
#505=ORIENTED_EDGE('',*,*,#146,.F.);
#506=ORIENTED_EDGE('',*,*,#106,.T.);
#507=ORIENTED_EDGE('',*,*,#108,.F.);
#508=ORIENTED_EDGE('',*,*,#98,.F.);
#509=CARTESIAN_POINT('',(0.0,0.0,-82.54));
#510=DIRECTION('',(-0.0,-0.0,1.0));
#511=DIRECTION('',(0.0,1.0,0.0));
#512=DIRECTION('',(-6.12303176911191E-017,0.500000000000002,0.866025403784438));
#513=CARTESIAN_POINT('',(0.0,0.0,-0.783999999999999));
#514=DIRECTION('',(0.0,0.0,-1.0));
#515=DIRECTION('',(0.0,1.0,0.0));
#516=SURFACE_STYLE_FILL_AREA(#584);
#517=ORIENTED_EDGE('',*,*,#152,.F.);
#518=ORIENTED_EDGE('',*,*,#90,.T.);
#519=ORIENTED_EDGE('',*,*,#126,.F.);
#520=ORIENTED_EDGE('',*,*,#118,.F.);
#521=CARTESIAN_POINT('',(0.0,0.0,-0.387));
#522=DIRECTION('',(0.0,-0.0,-1.0));
#523=DIRECTION('',(0.0,1.0,0.0));
#524=SURFACE_STYLE_FILL_AREA(#585);
#525=ORIENTED_EDGE('',*,*,#142,.F.);
#526=ORIENTED_EDGE('',*,*,#118,.T.);
#527=ORIENTED_EDGE('',*,*,#94,.F.);
#528=ORIENTED_EDGE('',*,*,#110,.F.);
#529=CARTESIAN_POINT('',(0.0,0.0,-24.1995));
#530=DIRECTION('',(-0.0,-0.0,1.0));
#531=DIRECTION('',(0.0,1.0,0.0));
#532=CARTESIAN_POINT('',(0.0,0.0,-50.79));
#533=DIRECTION('',(0.0,0.0,-1.0));
#534=DIRECTION('',(0.0,1.0,0.0));
#535=DIRECTION('',(0.0,0.0,-1.0));
#536=SURFACE_STYLE_FILL_AREA(#586);
#537=ORIENTED_EDGE('',*,*,#148,.T.);
#538=ORIENTED_EDGE('',*,*,#110,.T.);
#539=CARTESIAN_POINT('',(0.0,0.0,-50.79));
#540=DIRECTION('',(0.0,0.0,-1.0));
#541=DIRECTION('',(0.0,-1.0,0.0));
#542=DIRECTION('',(1.0672956975862E-017,-0.0871541858536693,-0.996194834301094));
#543=CARTESIAN_POINT('',(0.0,0.0,-50.79));
#544=DIRECTION('',(0.0,0.0,-1.0));
#545=DIRECTION('',(0.0,-1.0,0.0));
#546=SURFACE_STYLE_FILL_AREA(#587);
#547=DIRECTION('',(-6.12303176911191E-017,0.500000000000002,-0.866025403784438));
#548=CARTESIAN_POINT('',(0.0,0.0,0.00999999999999801));
#549=DIRECTION('',(0.0,0.0,-1.0));
#550=DIRECTION('',(0.0,1.0,0.0));
#551=SURFACE_STYLE_FILL_AREA(#588);
#552=SURFACE_STYLE_FILL_AREA(#589);
#553=ORIENTED_EDGE('',*,*,#152,.T.);
#554=ORIENTED_EDGE('',*,*,#128,.F.);
#555=ORIENTED_EDGE('',*,*,#126,.T.);
#556=ORIENTED_EDGE('',*,*,#154,.T.);
#557=CARTESIAN_POINT('',(0.0,0.0,-0.387));
#558=DIRECTION('',(0.0,-0.0,-1.0));
#559=DIRECTION('',(0.0,1.0,0.0));
#560=DIRECTION('',(1.22460515205257E-016,-0.999999018648073,0.00140096498549187));
#561=SURFACE_STYLE_FILL_AREA(#590);
#562=ORIENTED_EDGE('',*,*,#90,.F.);
#563=ORIENTED_EDGE('',*,*,#154,.F.);
#564=CARTESIAN_POINT('',(0.0,2.94579194313172,0.00999999999999801));
#565=DIRECTION('',(-0.0,0.0,1.0));
#566=DIRECTION('',(0.0,-1.0,0.0));
#567=CARTESIAN_POINT('',(0.0,0.0,-50.79));
#568=DIRECTION('',(0.0,0.0,-1.0));
#569=DIRECTION('',(0.0,1.0,0.0));
#570=SURFACE_STYLE_FILL_AREA(#591);
#571=ORIENTED_EDGE('',*,*,#146,.T.);
#572=ORIENTED_EDGE('',*,*,#116,.F.);
#573=ORIENTED_EDGE('',*,*,#108,.T.);
#574=ORIENTED_EDGE('',*,*,#168,.T.);
#575=CARTESIAN_POINT('',(0.0,0.0,-82.54));
#576=DIRECTION('',(-0.0,-0.0,1.0));
#577=DIRECTION('',(0.0,1.0,0.0));
#578=FILL_AREA_STYLE('',(#592));
#579=FILL_AREA_STYLE('',(#593));
#580=FILL_AREA_STYLE('',(#594));
#581=FILL_AREA_STYLE('',(#595));
#582=FILL_AREA_STYLE('',(#596));
#583=FILL_AREA_STYLE('',(#597));
#584=FILL_AREA_STYLE('',(#598));
#585=FILL_AREA_STYLE('',(#599));
#586=FILL_AREA_STYLE('',(#600));
#587=FILL_AREA_STYLE('',(#601));
#588=FILL_AREA_STYLE('',(#602));
#589=FILL_AREA_STYLE('',(#603));
#590=FILL_AREA_STYLE('',(#604));
#591=FILL_AREA_STYLE('',(#605));
#592=FILL_AREA_STYLE_COLOUR('',#606);
#593=FILL_AREA_STYLE_COLOUR('',#607);
#594=FILL_AREA_STYLE_COLOUR('',#608);
#595=FILL_AREA_STYLE_COLOUR('',#609);
#596=FILL_AREA_STYLE_COLOUR('',#610);
#597=FILL_AREA_STYLE_COLOUR('',#611);
#598=FILL_AREA_STYLE_COLOUR('',#612);
#599=FILL_AREA_STYLE_COLOUR('',#613);
#600=FILL_AREA_STYLE_COLOUR('',#614);
#601=FILL_AREA_STYLE_COLOUR('',#615);
#602=FILL_AREA_STYLE_COLOUR('',#616);
#603=FILL_AREA_STYLE_COLOUR('',#617);
#604=FILL_AREA_STYLE_COLOUR('',#618);
#605=FILL_AREA_STYLE_COLOUR('',#619);
#606=COLOUR_RGB('',0.800000011920929,0.800000011920929,0.800000011920929);
#607=COLOUR_RGB('',0.498039215803146,0.498039215803146,0.498039215803146);
#608=COLOUR_RGB('',0.800000011920929,0.800000011920929,0.800000011920929);
#609=COLOUR_RGB('',0.800000011920929,0.800000011920929,0.800000011920929);
#610=COLOUR_RGB('',0.800000011920929,0.800000011920929,0.800000011920929);
#611=COLOUR_RGB('',0.800000011920929,0.800000011920929,0.800000011920929);
#612=COLOUR_RGB('',0.498039215803146,0.498039215803146,0.498039215803146);
#613=COLOUR_RGB('',0.498039215803146,0.498039215803146,0.498039215803146);
#614=COLOUR_RGB('',0.498039215803146,0.498039215803146,0.498039215803146);
#615=COLOUR_RGB('',0.800000011920929,0.800000011920929,0.800000011920929);
#616=COLOUR_RGB('',0.800000011920929,0.800000011920929,0.800000011920929);
#617=COLOUR_RGB('',0.498039215803146,0.498039215803146,0.498039215803146);
#618=COLOUR_RGB('',0.498039215803146,0.498039215803146,0.498039215803146);
#619=COLOUR_RGB('',0.800000011920929,0.800000011920929,0.800000011920929);
#620=AXIS2_PLACEMENT_3D('PCS',#621,#622,#623);
#621=CARTESIAN_POINT('',(0.0,0.0,0.0));
#622=DIRECTION('',(0.0,0.0,1.0));
#623=DIRECTION('',(1.0,0.0,0.0));
#624=AXIS2_PLACEMENT_3D('CIP',#625,#626,#627);
#625=CARTESIAN_POINT('',(0.0,0.0,-114.3));
#626=DIRECTION('',(0.0,0.0,1.0));
#627=DIRECTION('',(1.0,0.0,0.0));
#628=AXIS2_PLACEMENT_3D('CRP',#629,#630,#631);
#629=CARTESIAN_POINT('',(-1.5875,0.0,-114.3));
#630=DIRECTION('',(0.0,0.0,1.0));
#631=DIRECTION('',(1.0,0.0,0.0));
#632=AXIS2_PLACEMENT_3D('MCS',#633,#634,#635);
#633=CARTESIAN_POINT('',(0.0,0.0,-47.625));
#634=DIRECTION('',(0.0,0.0,1.0));
#635=DIRECTION('',(1.0,0.0,0.0));
#636=CONSTRUCTIVE_GEOMETRY_REPRESENTATION_RELATIONSHIP('coordinate systems',$,#65,#637);
#637=CONSTRUCTIVE_GEOMETRY_REPRESENTATION('coordinate systems',(#620,#624,#628,#632),#10);
ENDSEC;
END-ISO-10303-21;
