ISO-10303-21;
HEADER;
FILE_DESCRIPTION(('no description'),'unknown implementation level');
FILE_NAME('solidPKVldX_azsmsakYmHpBNsXd_Lm0_1.STP','  ',('CIMSOURCE GmbH'),('CADClick - KiM GmbH - www.kimweb.de'),'unknown preprocess','ACIS','unknown authorization');
FILE_SCHEMA(('automotive_design'));
ENDSEC;
DATA;
#1=MECHANICAL_DESIGN_GEOMETRIC_PRESENTATION_REPRESENTATION(' ',(#14,#15,#16,#17,#18,#19,#20,#21,#22,#23,#24,#25,#26,#27,#28,#29,#30,#31,#32,#33,#34,#35,#36,#37,#38,#39,#40,#41,#42,#43,#44,#45,#46,#47,#48,#49,#50,#51,#52,#53,#54,#55,#56,#57,#58,#59,#60),#10);
#2=PRODUCT_DEFINITION_CONTEXT('',#61,'design');
#3=APPLICATION_PROTOCOL_DEFINITION('INTERNATIONAL STANDARD','automotive_design',1994,#61);
#4=PRODUCT_CATEGORY_RELATIONSHIP('NONE','NONE',#62,#63);
#5=SHAPE_DEFINITION_REPRESENTATION(#64,#65);
#6=PRODUCT_DEFINITION_CONTEXT('',#66,'design');
#7=APPLICATION_PROTOCOL_DEFINITION('INTERNATIONAL STANDARD','automotive_design',1994,#66);
#8=PRODUCT_CATEGORY_RELATIONSHIP('NONE','NONE',#67,#68);
#9=SHAPE_DEFINITION_REPRESENTATION(#69,#70);
#10= (GEOMETRIC_REPRESENTATION_CONTEXT(3)GLOBAL_UNCERTAINTY_ASSIGNED_CONTEXT((#73))GLOBAL_UNIT_ASSIGNED_CONTEXT((#75,#76,#77))REPRESENTATION_CONTEXT('NONE','WORKSPACE'));
#14=STYLED_ITEM('',(#79),#80);
#15=STYLED_ITEM('',(#81),#82);
#16=STYLED_ITEM('',(#83),#84);
#17=STYLED_ITEM('',(#85),#86);
#18=STYLED_ITEM('',(#87),#88);
#19=STYLED_ITEM('',(#89),#90);
#20=STYLED_ITEM('',(#91),#92);
#21=STYLED_ITEM('',(#93),#94);
#22=STYLED_ITEM('',(#95),#96);
#23=STYLED_ITEM('',(#97),#98);
#24=STYLED_ITEM('',(#99),#100);
#25=STYLED_ITEM('',(#101),#102);
#26=STYLED_ITEM('',(#103),#104);
#27=STYLED_ITEM('',(#105),#106);
#28=STYLED_ITEM('',(#107),#108);
#29=STYLED_ITEM('',(#109),#110);
#30=STYLED_ITEM('',(#111),#112);
#31=STYLED_ITEM('',(#113),#114);
#32=STYLED_ITEM('',(#115),#116);
#33=STYLED_ITEM('',(#117),#118);
#34=STYLED_ITEM('',(#119),#120);
#35=STYLED_ITEM('',(#121),#122);
#36=STYLED_ITEM('',(#123),#124);
#37=STYLED_ITEM('',(#125),#126);
#38=STYLED_ITEM('',(#127),#128);
#39=STYLED_ITEM('',(#129),#130);
#40=STYLED_ITEM('',(#131),#132);
#41=STYLED_ITEM('',(#133),#134);
#42=STYLED_ITEM('',(#135),#136);
#43=STYLED_ITEM('',(#137),#138);
#44=STYLED_ITEM('',(#139),#140);
#45=STYLED_ITEM('',(#141),#142);
#46=STYLED_ITEM('',(#143),#144);
#47=STYLED_ITEM('',(#145),#146);
#48=STYLED_ITEM('',(#147),#148);
#49=STYLED_ITEM('',(#149),#150);
#50=STYLED_ITEM('',(#151),#152);
#51=STYLED_ITEM('',(#153),#154);
#52=STYLED_ITEM('',(#155),#156);
#53=STYLED_ITEM('',(#157),#158);
#54=STYLED_ITEM('',(#159),#160);
#55=STYLED_ITEM('',(#161),#162);
#56=STYLED_ITEM('',(#163),#164);
#57=STYLED_ITEM('',(#165),#166);
#58=STYLED_ITEM('',(#167),#168);
#59=STYLED_ITEM('',(#169),#170);
#60=STYLED_ITEM('',(#171),#172);
#61=APPLICATION_CONTEXT(' ');
#62=PRODUCT_CATEGORY('part','NONE');
#63=PRODUCT_RELATED_PRODUCT_CATEGORY('detail',' ',(#173));
#64=PRODUCT_DEFINITION_SHAPE('NONE','NONE',#174);
#65=ADVANCED_BREP_SHAPE_REPRESENTATION('1',(#168,#175),#10);
#66=APPLICATION_CONTEXT(' ');
#67=PRODUCT_CATEGORY('part','NONE');
#68=PRODUCT_RELATED_PRODUCT_CATEGORY('detail',' ',(#176));
#69=PRODUCT_DEFINITION_SHAPE('NONE','NONE',#177);
#70=ADVANCED_BREP_SHAPE_REPRESENTATION('2',(#170,#178),#10);
#73=UNCERTAINTY_MEASURE_WITH_UNIT(LENGTH_MEASURE(1.0E-006),#75,'','');
#75= (CONVERSION_BASED_UNIT('MILLIMETRE',#181)LENGTH_UNIT()NAMED_UNIT(#184));
#76= (NAMED_UNIT(#186)PLANE_ANGLE_UNIT()SI_UNIT($,.RADIAN.));
#77= (NAMED_UNIT(#186)SOLID_ANGLE_UNIT()SI_UNIT($,.STERADIAN.));
#79=PRESENTATION_STYLE_ASSIGNMENT((#192));
#80=EDGE_CURVE('',#114,#164,#193,.T.);
#81=PRESENTATION_STYLE_ASSIGNMENT((#194));
#82=EDGE_CURVE('',#126,#96,#195,.T.);
#83=PRESENTATION_STYLE_ASSIGNMENT((#196));
#84=ADVANCED_FACE('',(#197),#198,.T.);
#85=PRESENTATION_STYLE_ASSIGNMENT((#199));
#86=EDGE_CURVE('',#96,#114,#200,.T.);
#87=PRESENTATION_STYLE_ASSIGNMENT((#201));
#88=EDGE_CURVE('',#144,#172,#202,.T.);
#89=PRESENTATION_STYLE_ASSIGNMENT((#203));
#90=EDGE_CURVE('',#126,#164,#204,.T.);
#91=PRESENTATION_STYLE_ASSIGNMENT((#205));
#92=EDGE_CURVE('',#100,#112,#206,.T.);
#93=PRESENTATION_STYLE_ASSIGNMENT((#207));
#94=EDGE_CURVE('',#112,#144,#208,.T.);
#95=PRESENTATION_STYLE_ASSIGNMENT((#209));
#96=VERTEX_POINT('',#210);
#97=PRESENTATION_STYLE_ASSIGNMENT((#211));
#98=EDGE_CURVE('',#172,#100,#212,.T.);
#99=PRESENTATION_STYLE_ASSIGNMENT((#213));
#100=VERTEX_POINT('',#214);
#101=PRESENTATION_STYLE_ASSIGNMENT((#215));
#102=VERTEX_POINT('',#216);
#103=PRESENTATION_STYLE_ASSIGNMENT((#217));
#104=EDGE_CURVE('',#134,#130,#218,.T.);
#105=PRESENTATION_STYLE_ASSIGNMENT((#219));
#106=ADVANCED_FACE('',(#220),#221,.F.);
#107=PRESENTATION_STYLE_ASSIGNMENT((#222));
#108=ADVANCED_FACE('',(#223,#224),#225,.T.);
#109=PRESENTATION_STYLE_ASSIGNMENT((#226));
#110=ADVANCED_FACE('',(#227),#228,.T.);
#111=PRESENTATION_STYLE_ASSIGNMENT((#229));
#112=VERTEX_POINT('',#230);
#113=PRESENTATION_STYLE_ASSIGNMENT((#231));
#114=VERTEX_POINT('',#232);
#115=PRESENTATION_STYLE_ASSIGNMENT((#233));
#116=EDGE_CURVE('',#114,#96,#234,.T.);
#117=PRESENTATION_STYLE_ASSIGNMENT((#235));
#118=EDGE_CURVE('',#148,#128,#236,.T.);
#119=PRESENTATION_STYLE_ASSIGNMENT((#237));
#120=ADVANCED_FACE('',(#238),#239,.T.);
#121=PRESENTATION_STYLE_ASSIGNMENT((#240));
#122=EDGE_CURVE('',#128,#102,#241,.T.);
#123=PRESENTATION_STYLE_ASSIGNMENT((#242));
#124=EDGE_CURVE('',#102,#148,#243,.T.);
#125=PRESENTATION_STYLE_ASSIGNMENT((#244));
#126=VERTEX_POINT('',#245);
#127=PRESENTATION_STYLE_ASSIGNMENT((#246));
#128=VERTEX_POINT('',#247);
#129=PRESENTATION_STYLE_ASSIGNMENT((#248));
#130=VERTEX_POINT('',#249);
#131=PRESENTATION_STYLE_ASSIGNMENT((#250));
#132=EDGE_CURVE('',#144,#112,#251,.T.);
#133=PRESENTATION_STYLE_ASSIGNMENT((#252));
#134=VERTEX_POINT('',#253);
#135=PRESENTATION_STYLE_ASSIGNMENT((#254));
#136=ADVANCED_FACE('',(#255),#256,.F.);
#137=PRESENTATION_STYLE_ASSIGNMENT((#257));
#138=EDGE_CURVE('',#148,#102,#258,.T.);
#139=PRESENTATION_STYLE_ASSIGNMENT((#259));
#140=EDGE_CURVE('',#130,#134,#260,.T.);
#141=PRESENTATION_STYLE_ASSIGNMENT((#261));
#142=EDGE_CURVE('',#96,#134,#262,.T.);
#143=PRESENTATION_STYLE_ASSIGNMENT((#263));
#144=VERTEX_POINT('',#264);
#145=PRESENTATION_STYLE_ASSIGNMENT((#265));
#146=ADVANCED_FACE('',(#266),#267,.T.);
#147=PRESENTATION_STYLE_ASSIGNMENT((#268));
#148=VERTEX_POINT('',#269);
#149=PRESENTATION_STYLE_ASSIGNMENT((#270));
#150=ADVANCED_FACE('',(#271),#272,.T.);
#151=PRESENTATION_STYLE_ASSIGNMENT((#273));
#152=ADVANCED_FACE('',(#274),#275,.T.);
#153=PRESENTATION_STYLE_ASSIGNMENT((#276));
#154=EDGE_CURVE('',#164,#126,#277,.T.);
#155=PRESENTATION_STYLE_ASSIGNMENT((#278));
#156=EDGE_CURVE('',#130,#114,#279,.T.);
#157=PRESENTATION_STYLE_ASSIGNMENT((#280));
#158=ADVANCED_FACE('',(#281),#282,.T.);
#159=PRESENTATION_STYLE_ASSIGNMENT((#283));
#160=EDGE_CURVE('',#100,#172,#284,.T.);
#161=PRESENTATION_STYLE_ASSIGNMENT((#285));
#162=ADVANCED_FACE('',(#286),#287,.T.);
#163=PRESENTATION_STYLE_ASSIGNMENT((#288));
#164=VERTEX_POINT('',#289);
#165=PRESENTATION_STYLE_ASSIGNMENT((#290));
#166=ADVANCED_FACE('',(#291),#292,.T.);
#167=PRESENTATION_STYLE_ASSIGNMENT((#293));
#168=MANIFOLD_SOLID_BREP('1',#294);
#169=PRESENTATION_STYLE_ASSIGNMENT((#295));
#170=MANIFOLD_SOLID_BREP('2',#296);
#171=PRESENTATION_STYLE_ASSIGNMENT((#297));
#172=VERTEX_POINT('',#298);
#173=PRODUCT('1','1','PART-1-DESC',(#299));
#174=PRODUCT_DEFINITION('NONE','NONE',#300,#2);
#175=AXIS2_PLACEMENT_3D('',#301,#302,#303);
#176=PRODUCT('2','2','PART-2-DESC',(#304));
#177=PRODUCT_DEFINITION('NONE','NONE',#305,#6);
#178=AXIS2_PLACEMENT_3D('',#306,#307,#308);
#181=LENGTH_MEASURE_WITH_UNIT(LENGTH_MEASURE(1.0),#309);
#184=DIMENSIONAL_EXPONENTS(1.0,0.0,0.0,0.0,0.0,0.0,0.0);
#186=DIMENSIONAL_EXPONENTS(0.0,0.0,0.0,0.0,0.0,0.0,0.0);
#192=CURVE_STYLE('',#310,POSITIVE_LENGTH_MEASURE(1.0E-006),#311);
#193=LINE('',#312,#313);
#194=CURVE_STYLE('',#314,POSITIVE_LENGTH_MEASURE(1.0E-006),#315);
#195=LINE('',#316,#317);
#196=SURFACE_STYLE_USAGE(.BOTH.,#318);
#197=FACE_OUTER_BOUND('',#319,.T.);
#198=PLANE('',#320);
#199=CURVE_STYLE('',#321,POSITIVE_LENGTH_MEASURE(1.0E-006),#322);
#200=CIRCLE('',#323,9.525);
#201=CURVE_STYLE('',#324,POSITIVE_LENGTH_MEASURE(1.0E-006),#325);
#202=LINE('',#326,#327);
#203=CURVE_STYLE('',#328,POSITIVE_LENGTH_MEASURE(1.0E-006),#329);
#204=CIRCLE('',#330,9.525);
#205=CURVE_STYLE('',#331,POSITIVE_LENGTH_MEASURE(1.0E-006),#332);
#206=LINE('',#333,#334);
#207=CURVE_STYLE('',#335,POSITIVE_LENGTH_MEASURE(1.0E-006),#336);
#208=CIRCLE('',#337,11.2697482142339);
#209=POINT_STYLE(' ',#338,POSITIVE_LENGTH_MEASURE(1.0E-006),#339);
#210=CARTESIAN_POINT('',(1.16643755201581E-015,-9.525,-1.18100000000002));
#211=CURVE_STYLE('',#340,POSITIVE_LENGTH_MEASURE(1.0E-006),#341);
#212=CIRCLE('',#342,2.381);
#213=POINT_STYLE(' ',#343,POSITIVE_LENGTH_MEASURE(1.0E-006),#344);
#214=CARTESIAN_POINT('',(2.91578772845108E-016,-2.381,-158.79));
#215=POINT_STYLE(' ',#345,POSITIVE_LENGTH_MEASURE(1.0E-006),#346);
#216=CARTESIAN_POINT('',(1.37948822373601E-015,-11.2647482142339,-57.19));
#217=CURVE_STYLE('',#347,POSITIVE_LENGTH_MEASURE(1.0E-006),#348);
#218=CIRCLE('',#349,8.83737582939516);
#219=SURFACE_STYLE_USAGE(.BOTH.,#350);
#220=FACE_OUTER_BOUND('',#351,.T.);
#221=CONICAL_SURFACE('',#352,5.63237410711694,1.56990860190456);
#222=SURFACE_STYLE_USAGE(.BOTH.,#353);
#223=FACE_OUTER_BOUND('',#354,.T.);
#224=FACE_BOUND('',#355,.T.);
#225=PLANE('',#356);
#226=SURFACE_STYLE_USAGE(.BOTH.,#357);
#227=FACE_OUTER_BOUND('',#358,.T.);
#228=PLANE('',#359);
#229=POINT_STYLE(' ',#360,POSITIVE_LENGTH_MEASURE(1.0E-006),#361);
#230=CARTESIAN_POINT('',(1.38010052691292E-015,-11.2697482142339,-57.19));
#231=POINT_STYLE(' ',#362,POSITIVE_LENGTH_MEASURE(1.0E-006),#363);
#232=CARTESIAN_POINT('',(0.0,9.525,-1.18100000000002));
#233=CURVE_STYLE('',#364,POSITIVE_LENGTH_MEASURE(1.0E-006),#365);
#234=CIRCLE('',#366,9.525);
#235=CURVE_STYLE('',#367,POSITIVE_LENGTH_MEASURE(1.0E-006),#368);
#236=LINE('',#369,#370);
#237=SURFACE_STYLE_USAGE(.BOTH.,#371);
#238=FACE_OUTER_BOUND('',#372,.T.);
#239=CYLINDRICAL_SURFACE('',#373,9.525);
#240=CURVE_STYLE('',#374,POSITIVE_LENGTH_MEASURE(1.0E-006),#375);
#241=LINE('',#376,#377);
#242=CURVE_STYLE('',#378,POSITIVE_LENGTH_MEASURE(1.0E-006),#379);
#243=CIRCLE('',#380,11.2647482142339);
#244=POINT_STYLE(' ',#381,POSITIVE_LENGTH_MEASURE(1.0E-006),#382);
#245=CARTESIAN_POINT('',(0.0,-9.525,-57.19));
#246=POINT_STYLE(' ',#383,POSITIVE_LENGTH_MEASURE(1.0E-006),#384);
#247=CARTESIAN_POINT('',(0.0,0.0,-57.2));
#248=POINT_STYLE(' ',#385,POSITIVE_LENGTH_MEASURE(1.0E-006),#386);
#249=CARTESIAN_POINT('',(0.0,8.83737582939516,0.0099999999999838));
#250=CURVE_STYLE('',#387,POSITIVE_LENGTH_MEASURE(1.0E-006),#388);
#251=CIRCLE('',#389,11.2697482142339);
#252=POINT_STYLE(' ',#390,POSITIVE_LENGTH_MEASURE(1.0E-006),#391);
#253=CARTESIAN_POINT('',(1.08223065917936E-015,-8.83737582939516,0.0099999999999838));
#254=SURFACE_STYLE_USAGE(.BOTH.,#392);
#255=FACE_OUTER_BOUND('',#393,.T.);
#256=CONICAL_SURFACE('',#394,5.63237410711694,1.56990860190456);
#257=CURVE_STYLE('',#395,POSITIVE_LENGTH_MEASURE(1.0E-006),#396);
#258=CIRCLE('',#397,11.2647482142339);
#259=CURVE_STYLE('',#398,POSITIVE_LENGTH_MEASURE(1.0E-006),#399);
#260=CIRCLE('',#400,8.83737582939516);
#261=CURVE_STYLE('',#401,POSITIVE_LENGTH_MEASURE(1.0E-006),#402);
#262=LINE('',#403,#404);
#263=POINT_STYLE(' ',#405,POSITIVE_LENGTH_MEASURE(1.0E-006),#406);
#264=CARTESIAN_POINT('',(0.0,11.2697482142339,-57.19));
#265=SURFACE_STYLE_USAGE(.BOTH.,#407);
#266=FACE_OUTER_BOUND('',#408,.T.);
#267=PLANE('',#409);
#268=POINT_STYLE(' ',#410,POSITIVE_LENGTH_MEASURE(1.0E-006),#411);
#269=CARTESIAN_POINT('',(0.0,11.2647482142339,-57.19));
#270=SURFACE_STYLE_USAGE(.BOTH.,#412);
#271=FACE_OUTER_BOUND('',#413,.T.);
#272=CYLINDRICAL_SURFACE('',#414,9.525);
#273=SURFACE_STYLE_USAGE(.BOTH.,#415);
#274=FACE_OUTER_BOUND('',#416,.T.);
#275=CONICAL_SURFACE('',#417,9.18118791469758,0.523598775598298);
#276=CURVE_STYLE('',#418,POSITIVE_LENGTH_MEASURE(1.0E-006),#419);
#277=CIRCLE('',#420,9.525);
#278=CURVE_STYLE('',#421,POSITIVE_LENGTH_MEASURE(1.0E-006),#422);
#279=LINE('',#423,#424);
#280=SURFACE_STYLE_USAGE(.BOTH.,#425);
#281=FACE_OUTER_BOUND('',#426,.T.);
#282=CONICAL_SURFACE('',#427,6.82537410711694,0.087265485824164);
#283=CURVE_STYLE('',#428,POSITIVE_LENGTH_MEASURE(1.0E-006),#429);
#284=CIRCLE('',#430,2.381);
#285=SURFACE_STYLE_USAGE(.BOTH.,#431);
#286=FACE_OUTER_BOUND('',#432,.T.);
#287=CONICAL_SURFACE('',#433,9.18118791469758,0.523598775598298);
#288=POINT_STYLE(' ',#434,POSITIVE_LENGTH_MEASURE(1.0E-006),#435);
#289=CARTESIAN_POINT('',(-1.16643755201581E-015,9.525,-57.19));
#290=SURFACE_STYLE_USAGE(.BOTH.,#436);
#291=FACE_OUTER_BOUND('',#437,.T.);
#292=CONICAL_SURFACE('',#438,6.82537410711694,0.087265485824164);
#293=SURFACE_STYLE_USAGE(.BOTH.,#439);
#294=CLOSED_SHELL('',(#158,#106,#136,#108,#166,#110));
#295=SURFACE_STYLE_USAGE(.BOTH.,#440);
#296=CLOSED_SHELL('',(#120,#162,#84,#146,#152,#150));
#297=POINT_STYLE(' ',#441,POSITIVE_LENGTH_MEASURE(1.0E-006),#442);
#298=CARTESIAN_POINT('',(0.0,2.381,-158.79));
#299=PRODUCT_CONTEXT('',#61,'mechanical');
#300=PRODUCT_DEFINITION_FORMATION_WITH_SPECIFIED_SOURCE(' ','NONE',#173,.NOT_KNOWN.);
#301=CARTESIAN_POINT('',(0.0,0.0,0.0));
#302=DIRECTION('',(0.0,0.0,1.0));
#303=DIRECTION('',(1.0,0.0,0.0));
#304=PRODUCT_CONTEXT('',#66,'mechanical');
#305=PRODUCT_DEFINITION_FORMATION_WITH_SPECIFIED_SOURCE(' ','NONE',#176,.NOT_KNOWN.);
#306=CARTESIAN_POINT('',(0.0,0.0,0.0));
#307=DIRECTION('',(0.0,0.0,1.0));
#308=DIRECTION('',(1.0,0.0,0.0));
#309= (NAMED_UNIT(#184)LENGTH_UNIT()SI_UNIT(.MILLI.,.METRE.));
#310=DRAUGHTING_PRE_DEFINED_CURVE_FONT('continuous');
#311=COLOUR_RGB('',0.498039215803146,0.498039215803146,0.498039215803146);
#312=CARTESIAN_POINT('',(-1.16643755201581E-015,9.525,-26.8045));
#313=VECTOR('',#444,1.0);
#314=DRAUGHTING_PRE_DEFINED_CURVE_FONT('continuous');
#315=COLOUR_RGB('',0.498039215803146,0.498039215803146,0.498039215803146);
#316=CARTESIAN_POINT('',(1.16643755201581E-015,-9.525,-26.8045));
#317=VECTOR('',#445,1.0);
#318=SURFACE_SIDE_STYLE('',(#446));
#319=EDGE_LOOP('',(#447,#448));
#320=AXIS2_PLACEMENT_3D('',#449,#450,#451);
#321=DRAUGHTING_PRE_DEFINED_CURVE_FONT('continuous');
#322=COLOUR_RGB('',0.498039215803146,0.498039215803146,0.498039215803146);
#323=AXIS2_PLACEMENT_3D('',#452,#453,#454);
#324=DRAUGHTING_PRE_DEFINED_CURVE_FONT('continuous');
#325=COLOUR_RGB('',0.800000011920929,0.800000011920929,0.800000011920929);
#326=CARTESIAN_POINT('',(-8.35839649879013E-016,6.82537410711694,-107.99));
#327=VECTOR('',#455,1.0);
#328=DRAUGHTING_PRE_DEFINED_CURVE_FONT('continuous');
#329=COLOUR_RGB('',0.498039215803146,0.498039215803146,0.498039215803146);
#330=AXIS2_PLACEMENT_3D('',#456,#457,#458);
#331=DRAUGHTING_PRE_DEFINED_CURVE_FONT('continuous');
#332=COLOUR_RGB('',0.800000011920929,0.800000011920929,0.800000011920929);
#333=CARTESIAN_POINT('',(8.35839649879014E-016,-6.82537410711694,-107.99));
#334=VECTOR('',#459,1.0);
#335=DRAUGHTING_PRE_DEFINED_CURVE_FONT('continuous');
#336=COLOUR_RGB('',0.800000011920929,0.800000011920929,0.800000011920929);
#337=AXIS2_PLACEMENT_3D('',#460,#461,#462);
#338=PRE_DEFINED_MARKER('');
#339=COLOUR_RGB('',0.498039215803146,0.498039215803146,0.498039215803146);
#340=DRAUGHTING_PRE_DEFINED_CURVE_FONT('continuous');
#341=COLOUR_RGB('',0.800000011920929,0.800000011920929,0.800000011920929);
#342=AXIS2_PLACEMENT_3D('',#463,#464,#465);
#343=PRE_DEFINED_MARKER('');
#344=COLOUR_RGB('',0.800000011920929,0.800000011920929,0.800000011920929);
#345=PRE_DEFINED_MARKER('');
#346=COLOUR_RGB('',0.800000011920929,0.800000011920929,0.800000011920929);
#347=DRAUGHTING_PRE_DEFINED_CURVE_FONT('continuous');
#348=COLOUR_RGB('',0.498039215803146,0.498039215803146,0.498039215803146);
#349=AXIS2_PLACEMENT_3D('',#466,#467,#468);
#350=SURFACE_SIDE_STYLE('',(#469));
#351=EDGE_LOOP('',(#470,#471,#472));
#352=AXIS2_PLACEMENT_3D('',#473,#474,#475);
#353=SURFACE_SIDE_STYLE('',(#476));
#354=EDGE_LOOP('',(#477,#478));
#355=EDGE_LOOP('',(#479,#480));
#356=AXIS2_PLACEMENT_3D('',#481,#482,#483);
#357=SURFACE_SIDE_STYLE('',(#484));
#358=EDGE_LOOP('',(#485,#486));
#359=AXIS2_PLACEMENT_3D('',#487,#488,#489);
#360=PRE_DEFINED_MARKER('');
#361=COLOUR_RGB('',0.800000011920929,0.800000011920929,0.800000011920929);
#362=PRE_DEFINED_MARKER('');
#363=COLOUR_RGB('',0.498039215803146,0.498039215803146,0.498039215803146);
#364=DRAUGHTING_PRE_DEFINED_CURVE_FONT('continuous');
#365=COLOUR_RGB('',0.498039215803146,0.498039215803146,0.498039215803146);
#366=AXIS2_PLACEMENT_3D('',#490,#491,#492);
#367=DRAUGHTING_PRE_DEFINED_CURVE_FONT('continuous');
#368=COLOUR_RGB('',0.800000011920929,0.800000011920929,0.800000011920929);
#369=CARTESIAN_POINT('',(-6.89744111868003E-016,5.63237410711694,-57.195));
#370=VECTOR('',#493,1.0);
#371=SURFACE_SIDE_STYLE('',(#494));
#372=EDGE_LOOP('',(#495,#496,#497,#498));
#373=AXIS2_PLACEMENT_3D('',#499,#500,#501);
#374=DRAUGHTING_PRE_DEFINED_CURVE_FONT('continuous');
#375=COLOUR_RGB('',0.800000011920929,0.800000011920929,0.800000011920929);
#376=CARTESIAN_POINT('',(6.89744111868004E-016,-5.63237410711694,-57.195));
#377=VECTOR('',#502,1.0);
#378=DRAUGHTING_PRE_DEFINED_CURVE_FONT('continuous');
#379=COLOUR_RGB('',0.800000011920929,0.800000011920929,0.800000011920929);
#380=AXIS2_PLACEMENT_3D('',#503,#504,#505);
#381=PRE_DEFINED_MARKER('');
#382=COLOUR_RGB('',0.498039215803146,0.498039215803146,0.498039215803146);
#383=PRE_DEFINED_MARKER('');
#384=COLOUR_RGB('',0.800000011920929,0.800000011920929,0.800000011920929);
#385=PRE_DEFINED_MARKER('');
#386=COLOUR_RGB('',0.498039215803146,0.498039215803146,0.498039215803146);
#387=DRAUGHTING_PRE_DEFINED_CURVE_FONT('continuous');
#388=COLOUR_RGB('',0.800000011920929,0.800000011920929,0.800000011920929);
#389=AXIS2_PLACEMENT_3D('',#506,#507,#508);
#390=PRE_DEFINED_MARKER('');
#391=COLOUR_RGB('',0.498039215803146,0.498039215803146,0.498039215803146);
#392=SURFACE_SIDE_STYLE('',(#509));
#393=EDGE_LOOP('',(#510,#511,#512));
#394=AXIS2_PLACEMENT_3D('',#513,#514,#515);
#395=DRAUGHTING_PRE_DEFINED_CURVE_FONT('continuous');
#396=COLOUR_RGB('',0.800000011920929,0.800000011920929,0.800000011920929);
#397=AXIS2_PLACEMENT_3D('',#516,#517,#518);
#398=DRAUGHTING_PRE_DEFINED_CURVE_FONT('continuous');
#399=COLOUR_RGB('',0.498039215803146,0.498039215803146,0.498039215803146);
#400=AXIS2_PLACEMENT_3D('',#519,#520,#521);
#401=DRAUGHTING_PRE_DEFINED_CURVE_FONT('continuous');
#402=COLOUR_RGB('',0.498039215803146,0.498039215803146,0.498039215803146);
#403=CARTESIAN_POINT('',(1.12433410559759E-015,-9.18118791469758,-0.585500000000017));
#404=VECTOR('',#522,1.0);
#405=PRE_DEFINED_MARKER('');
#406=COLOUR_RGB('',0.800000011920929,0.800000011920929,0.800000011920929);
#407=SURFACE_SIDE_STYLE('',(#523));
#408=EDGE_LOOP('',(#524,#525));
#409=AXIS2_PLACEMENT_3D('',#526,#527,#528);
#410=PRE_DEFINED_MARKER('');
#411=COLOUR_RGB('',0.800000011920929,0.800000011920929,0.800000011920929);
#412=SURFACE_SIDE_STYLE('',(#529));
#413=EDGE_LOOP('',(#530,#531,#532,#533));
#414=AXIS2_PLACEMENT_3D('',#534,#535,#536);
#415=SURFACE_SIDE_STYLE('',(#537));
#416=EDGE_LOOP('',(#538,#539,#540,#541));
#417=AXIS2_PLACEMENT_3D('',#542,#543,#544);
#418=DRAUGHTING_PRE_DEFINED_CURVE_FONT('continuous');
#419=COLOUR_RGB('',0.498039215803146,0.498039215803146,0.498039215803146);
#420=AXIS2_PLACEMENT_3D('',#545,#546,#547);
#421=DRAUGHTING_PRE_DEFINED_CURVE_FONT('continuous');
#422=COLOUR_RGB('',0.498039215803146,0.498039215803146,0.498039215803146);
#423=CARTESIAN_POINT('',(-1.12433410559759E-015,9.18118791469758,-0.585500000000017));
#424=VECTOR('',#548,1.0);
#425=SURFACE_SIDE_STYLE('',(#549));
#426=EDGE_LOOP('',(#550,#551,#552,#553));
#427=AXIS2_PLACEMENT_3D('',#554,#555,#556);
#428=DRAUGHTING_PRE_DEFINED_CURVE_FONT('continuous');
#429=COLOUR_RGB('',0.800000011920929,0.800000011920929,0.800000011920929);
#430=AXIS2_PLACEMENT_3D('',#557,#558,#559);
#431=SURFACE_SIDE_STYLE('',(#560));
#432=EDGE_LOOP('',(#561,#562,#563,#564));
#433=AXIS2_PLACEMENT_3D('',#565,#566,#567);
#434=PRE_DEFINED_MARKER('');
#435=COLOUR_RGB('',0.498039215803146,0.498039215803146,0.498039215803146);
#436=SURFACE_SIDE_STYLE('',(#568));
#437=EDGE_LOOP('',(#569,#570,#571,#572));
#438=AXIS2_PLACEMENT_3D('',#573,#574,#575);
#439=SURFACE_SIDE_STYLE('',(#576));
#440=SURFACE_SIDE_STYLE('',(#577));
#441=PRE_DEFINED_MARKER('');
#442=COLOUR_RGB('',0.800000011920929,0.800000011920929,0.800000011920929);
#444=DIRECTION('',(0.0,0.0,-1.0));
#445=DIRECTION('',(-0.0,-0.0,1.0));
#446=SURFACE_STYLE_FILL_AREA(#578);
#447=ORIENTED_EDGE('',*,*,#90,.T.);
#448=ORIENTED_EDGE('',*,*,#154,.T.);
#449=CARTESIAN_POINT('',(0.0,0.0,-57.19));
#450=DIRECTION('',(0.0,0.0,-1.0));
#451=DIRECTION('',(0.0,-1.0,0.0));
#452=CARTESIAN_POINT('',(0.0,0.0,-1.18100000000002));
#453=DIRECTION('',(0.0,0.0,-1.0));
#454=DIRECTION('',(0.0,1.0,0.0));
#455=DIRECTION('',(1.06730284727063E-017,-0.08715476968899,-0.996194783222869));
#456=CARTESIAN_POINT('',(0.0,0.0,-57.19));
#457=DIRECTION('',(0.0,0.0,-1.0));
#458=DIRECTION('',(0.0,-1.0,0.0));
#459=DIRECTION('',(1.06730284727063E-017,-0.08715476968899,0.996194783222869));
#460=CARTESIAN_POINT('',(0.0,0.0,-57.19));
#461=DIRECTION('',(0.0,0.0,-1.0));
#462=DIRECTION('',(0.0,1.0,0.0));
#463=CARTESIAN_POINT('',(0.0,0.0,-158.79));
#464=DIRECTION('',(0.0,0.0,-1.0));
#465=DIRECTION('',(0.0,1.0,0.0));
#466=CARTESIAN_POINT('',(0.0,0.0,0.0099999999999838));
#467=DIRECTION('',(0.0,0.0,-1.0));
#468=DIRECTION('',(0.0,1.0,0.0));
#469=SURFACE_STYLE_FILL_AREA(#579);
#470=ORIENTED_EDGE('',*,*,#122,.F.);
#471=ORIENTED_EDGE('',*,*,#118,.F.);
#472=ORIENTED_EDGE('',*,*,#124,.F.);
#473=CARTESIAN_POINT('',(0.0,0.0,-57.195));
#474=DIRECTION('',(-0.0,-0.0,1.0));
#475=DIRECTION('',(0.0,1.0,0.0));
#476=SURFACE_STYLE_FILL_AREA(#580);
#477=ORIENTED_EDGE('',*,*,#132,.F.);
#478=ORIENTED_EDGE('',*,*,#94,.F.);
#479=ORIENTED_EDGE('',*,*,#138,.T.);
#480=ORIENTED_EDGE('',*,*,#124,.T.);
#481=CARTESIAN_POINT('',(0.0,11.2672482142339,-57.19));
#482=DIRECTION('',(-0.0,0.0,1.0));
#483=DIRECTION('',(0.0,-1.0,0.0));
#484=SURFACE_STYLE_FILL_AREA(#581);
#485=ORIENTED_EDGE('',*,*,#98,.T.);
#486=ORIENTED_EDGE('',*,*,#160,.T.);
#487=CARTESIAN_POINT('',(0.0,1.188,-158.79));
#488=DIRECTION('',(0.0,0.0,-1.0));
#489=DIRECTION('',(0.0,1.0,0.0));
#490=CARTESIAN_POINT('',(0.0,0.0,-1.18100000000002));
#491=DIRECTION('',(0.0,0.0,-1.0));
#492=DIRECTION('',(0.0,1.0,0.0));
#493=DIRECTION('',(1.22460587129353E-016,-0.999999605972285,-0.000887724773739898));
#494=SURFACE_STYLE_FILL_AREA(#582);
#495=ORIENTED_EDGE('',*,*,#80,.F.);
#496=ORIENTED_EDGE('',*,*,#116,.T.);
#497=ORIENTED_EDGE('',*,*,#82,.F.);
#498=ORIENTED_EDGE('',*,*,#154,.F.);
#499=CARTESIAN_POINT('',(0.0,0.0,-26.8045));
#500=DIRECTION('',(-0.0,-0.0,1.0));
#501=DIRECTION('',(0.0,1.0,0.0));
#502=DIRECTION('',(1.22460587129353E-016,-0.999999605972285,0.000887724773739898));
#503=CARTESIAN_POINT('',(0.0,0.0,-57.19));
#504=DIRECTION('',(0.0,0.0,-1.0));
#505=DIRECTION('',(0.0,1.0,0.0));
#506=CARTESIAN_POINT('',(0.0,0.0,-57.19));
#507=DIRECTION('',(0.0,0.0,-1.0));
#508=DIRECTION('',(0.0,1.0,0.0));
#509=SURFACE_STYLE_FILL_AREA(#583);
#510=ORIENTED_EDGE('',*,*,#122,.T.);
#511=ORIENTED_EDGE('',*,*,#138,.F.);
#512=ORIENTED_EDGE('',*,*,#118,.T.);
#513=CARTESIAN_POINT('',(0.0,0.0,-57.195));
#514=DIRECTION('',(-0.0,-0.0,1.0));
#515=DIRECTION('',(0.0,1.0,0.0));
#516=CARTESIAN_POINT('',(0.0,0.0,-57.19));
#517=DIRECTION('',(0.0,0.0,-1.0));
#518=DIRECTION('',(0.0,1.0,0.0));
#519=CARTESIAN_POINT('',(0.0,0.0,0.0099999999999838));
#520=DIRECTION('',(0.0,0.0,-1.0));
#521=DIRECTION('',(0.0,1.0,0.0));
#522=DIRECTION('',(-6.12303176911187E-017,0.499999999999999,0.866025403784439));
#523=SURFACE_STYLE_FILL_AREA(#584);
#524=ORIENTED_EDGE('',*,*,#140,.F.);
#525=ORIENTED_EDGE('',*,*,#104,.F.);
#526=CARTESIAN_POINT('',(0.0,4.41868791469758,0.0099999999999838));
#527=DIRECTION('',(-0.0,0.0,1.0));
#528=DIRECTION('',(0.0,-1.0,0.0));
#529=SURFACE_STYLE_FILL_AREA(#585);
#530=ORIENTED_EDGE('',*,*,#80,.T.);
#531=ORIENTED_EDGE('',*,*,#90,.F.);
#532=ORIENTED_EDGE('',*,*,#82,.T.);
#533=ORIENTED_EDGE('',*,*,#86,.T.);
#534=CARTESIAN_POINT('',(0.0,0.0,-26.8045));
#535=DIRECTION('',(-0.0,-0.0,1.0));
#536=DIRECTION('',(0.0,1.0,0.0));
#537=SURFACE_STYLE_FILL_AREA(#586);
#538=ORIENTED_EDGE('',*,*,#156,.T.);
#539=ORIENTED_EDGE('',*,*,#86,.F.);
#540=ORIENTED_EDGE('',*,*,#142,.T.);
#541=ORIENTED_EDGE('',*,*,#104,.T.);
#542=CARTESIAN_POINT('',(0.0,0.0,-0.585500000000017));
#543=DIRECTION('',(0.0,-0.0,-1.0));
#544=DIRECTION('',(0.0,1.0,0.0));
#545=CARTESIAN_POINT('',(0.0,0.0,-57.19));
#546=DIRECTION('',(0.0,0.0,-1.0));
#547=DIRECTION('',(0.0,-1.0,0.0));
#548=DIRECTION('',(-6.12303176911187E-017,0.499999999999999,-0.866025403784439));
#549=SURFACE_STYLE_FILL_AREA(#587);
#550=ORIENTED_EDGE('',*,*,#88,.F.);
#551=ORIENTED_EDGE('',*,*,#132,.T.);
#552=ORIENTED_EDGE('',*,*,#92,.F.);
#553=ORIENTED_EDGE('',*,*,#98,.F.);
#554=CARTESIAN_POINT('',(0.0,0.0,-107.99));
#555=DIRECTION('',(-0.0,-0.0,1.0));
#556=DIRECTION('',(0.0,1.0,0.0));
#557=CARTESIAN_POINT('',(0.0,0.0,-158.79));
#558=DIRECTION('',(0.0,0.0,-1.0));
#559=DIRECTION('',(0.0,1.0,0.0));
#560=SURFACE_STYLE_FILL_AREA(#588);
#561=ORIENTED_EDGE('',*,*,#156,.F.);
#562=ORIENTED_EDGE('',*,*,#140,.T.);
#563=ORIENTED_EDGE('',*,*,#142,.F.);
#564=ORIENTED_EDGE('',*,*,#116,.F.);
#565=CARTESIAN_POINT('',(0.0,0.0,-0.585500000000017));
#566=DIRECTION('',(0.0,-0.0,-1.0));
#567=DIRECTION('',(0.0,1.0,0.0));
#568=SURFACE_STYLE_FILL_AREA(#589);
#569=ORIENTED_EDGE('',*,*,#88,.T.);
#570=ORIENTED_EDGE('',*,*,#160,.F.);
#571=ORIENTED_EDGE('',*,*,#92,.T.);
#572=ORIENTED_EDGE('',*,*,#94,.T.);
#573=CARTESIAN_POINT('',(0.0,0.0,-107.99));
#574=DIRECTION('',(-0.0,-0.0,1.0));
#575=DIRECTION('',(0.0,1.0,0.0));
#576=SURFACE_STYLE_FILL_AREA(#590);
#577=SURFACE_STYLE_FILL_AREA(#591);
#578=FILL_AREA_STYLE('',(#592));
#579=FILL_AREA_STYLE('',(#593));
#580=FILL_AREA_STYLE('',(#594));
#581=FILL_AREA_STYLE('',(#595));
#582=FILL_AREA_STYLE('',(#596));
#583=FILL_AREA_STYLE('',(#597));
#584=FILL_AREA_STYLE('',(#598));
#585=FILL_AREA_STYLE('',(#599));
#586=FILL_AREA_STYLE('',(#600));
#587=FILL_AREA_STYLE('',(#601));
#588=FILL_AREA_STYLE('',(#602));
#589=FILL_AREA_STYLE('',(#603));
#590=FILL_AREA_STYLE('',(#604));
#591=FILL_AREA_STYLE('',(#605));
#592=FILL_AREA_STYLE_COLOUR('',#606);
#593=FILL_AREA_STYLE_COLOUR('',#607);
#594=FILL_AREA_STYLE_COLOUR('',#608);
#595=FILL_AREA_STYLE_COLOUR('',#609);
#596=FILL_AREA_STYLE_COLOUR('',#610);
#597=FILL_AREA_STYLE_COLOUR('',#611);
#598=FILL_AREA_STYLE_COLOUR('',#612);
#599=FILL_AREA_STYLE_COLOUR('',#613);
#600=FILL_AREA_STYLE_COLOUR('',#614);
#601=FILL_AREA_STYLE_COLOUR('',#615);
#602=FILL_AREA_STYLE_COLOUR('',#616);
#603=FILL_AREA_STYLE_COLOUR('',#617);
#604=FILL_AREA_STYLE_COLOUR('',#618);
#605=FILL_AREA_STYLE_COLOUR('',#619);
#606=COLOUR_RGB('',0.498039215803146,0.498039215803146,0.498039215803146);
#607=COLOUR_RGB('',0.800000011920929,0.800000011920929,0.800000011920929);
#608=COLOUR_RGB('',0.800000011920929,0.800000011920929,0.800000011920929);
#609=COLOUR_RGB('',0.800000011920929,0.800000011920929,0.800000011920929);
#610=COLOUR_RGB('',0.498039215803146,0.498039215803146,0.498039215803146);
#611=COLOUR_RGB('',0.800000011920929,0.800000011920929,0.800000011920929);
#612=COLOUR_RGB('',0.498039215803146,0.498039215803146,0.498039215803146);
#613=COLOUR_RGB('',0.498039215803146,0.498039215803146,0.498039215803146);
#614=COLOUR_RGB('',0.498039215803146,0.498039215803146,0.498039215803146);
#615=COLOUR_RGB('',0.800000011920929,0.800000011920929,0.800000011920929);
#616=COLOUR_RGB('',0.498039215803146,0.498039215803146,0.498039215803146);
#617=COLOUR_RGB('',0.800000011920929,0.800000011920929,0.800000011920929);
#618=COLOUR_RGB('',0.800000011920929,0.800000011920929,0.800000011920929);
#619=COLOUR_RGB('',0.800000011920929,0.800000011920929,0.800000011920929);
#620=AXIS2_PLACEMENT_3D('PCS',#621,#622,#623);
#621=CARTESIAN_POINT('',(0.0,0.0,0.0));
#622=DIRECTION('',(0.0,0.0,1.0));
#623=DIRECTION('',(1.0,0.0,0.0));
#624=AXIS2_PLACEMENT_3D('CIP',#625,#626,#627);
#625=CARTESIAN_POINT('',(0.0,0.0,-158.8));
#626=DIRECTION('',(0.0,0.0,1.0));
#627=DIRECTION('',(1.0,0.0,0.0));
#628=AXIS2_PLACEMENT_3D('CRP',#629,#630,#631);
#629=CARTESIAN_POINT('',(-2.381,0.0,-158.8));
#630=DIRECTION('',(0.0,0.0,1.0));
#631=DIRECTION('',(1.0,0.0,0.0));
#632=AXIS2_PLACEMENT_3D('MCS',#633,#634,#635);
#633=CARTESIAN_POINT('',(0.0,0.0,-52.438));
#634=DIRECTION('',(0.0,0.0,1.0));
#635=DIRECTION('',(1.0,0.0,0.0));
#636=CONSTRUCTIVE_GEOMETRY_REPRESENTATION_RELATIONSHIP('coordinate systems',$,#65,#637);
#637=CONSTRUCTIVE_GEOMETRY_REPRESENTATION('coordinate systems',(#620,#624,#628,#632),#10);
ENDSEC;
END-ISO-10303-21;
