ISO-10303-21;
HEADER;
FILE_DESCRIPTION(('no description'),'unknown implementation level');
FILE_NAME('solidajLgulOSmD6goZZEKfpantmFVY0_1.STP','  ',('CIMSOURCE GmbH'),('CADClick - KiM GmbH - www.kimweb.de'),'unknown preprocess','ACIS','unknown authorization');
FILE_SCHEMA(('automotive_design'));
ENDSEC;
DATA;
#1=MECHANICAL_DESIGN_GEOMETRIC_PRESENTATION_REPRESENTATION(' ',(#14,#15,#16,#17,#18,#19,#20,#21,#22,#23,#24,#25,#26,#27,#28,#29,#30,#31,#32,#33,#34,#35,#36,#37,#38,#39,#40,#41,#42,#43,#44,#45,#46,#47,#48,#49,#50,#51,#52,#53,#54,#55,#56,#57,#58,#59,#60),#10);
#2=PRODUCT_DEFINITION_CONTEXT('',#61,'design');
#3=APPLICATION_PROTOCOL_DEFINITION('INTERNATIONAL STANDARD','automotive_design',1994,#61);
#4=PRODUCT_CATEGORY_RELATIONSHIP('NONE','NONE',#62,#63);
#5=SHAPE_DEFINITION_REPRESENTATION(#64,#65);
#6=PRODUCT_DEFINITION_CONTEXT('',#66,'design');
#7=APPLICATION_PROTOCOL_DEFINITION('INTERNATIONAL STANDARD','automotive_design',1994,#66);
#8=PRODUCT_CATEGORY_RELATIONSHIP('NONE','NONE',#67,#68);
#9=SHAPE_DEFINITION_REPRESENTATION(#69,#70);
#10= (GEOMETRIC_REPRESENTATION_CONTEXT(3)GLOBAL_UNCERTAINTY_ASSIGNED_CONTEXT((#73))GLOBAL_UNIT_ASSIGNED_CONTEXT((#75,#76,#77))REPRESENTATION_CONTEXT('NONE','WORKSPACE'));
#14=STYLED_ITEM('',(#79),#80);
#15=STYLED_ITEM('',(#81),#82);
#16=STYLED_ITEM('',(#83),#84);
#17=STYLED_ITEM('',(#85),#86);
#18=STYLED_ITEM('',(#87),#88);
#19=STYLED_ITEM('',(#89),#90);
#20=STYLED_ITEM('',(#91),#92);
#21=STYLED_ITEM('',(#93),#94);
#22=STYLED_ITEM('',(#95),#96);
#23=STYLED_ITEM('',(#97),#98);
#24=STYLED_ITEM('',(#99),#100);
#25=STYLED_ITEM('',(#101),#102);
#26=STYLED_ITEM('',(#103),#104);
#27=STYLED_ITEM('',(#105),#106);
#28=STYLED_ITEM('',(#107),#108);
#29=STYLED_ITEM('',(#109),#110);
#30=STYLED_ITEM('',(#111),#112);
#31=STYLED_ITEM('',(#113),#114);
#32=STYLED_ITEM('',(#115),#116);
#33=STYLED_ITEM('',(#117),#118);
#34=STYLED_ITEM('',(#119),#120);
#35=STYLED_ITEM('',(#121),#122);
#36=STYLED_ITEM('',(#123),#124);
#37=STYLED_ITEM('',(#125),#126);
#38=STYLED_ITEM('',(#127),#128);
#39=STYLED_ITEM('',(#129),#130);
#40=STYLED_ITEM('',(#131),#132);
#41=STYLED_ITEM('',(#133),#134);
#42=STYLED_ITEM('',(#135),#136);
#43=STYLED_ITEM('',(#137),#138);
#44=STYLED_ITEM('',(#139),#140);
#45=STYLED_ITEM('',(#141),#142);
#46=STYLED_ITEM('',(#143),#144);
#47=STYLED_ITEM('',(#145),#146);
#48=STYLED_ITEM('',(#147),#148);
#49=STYLED_ITEM('',(#149),#150);
#50=STYLED_ITEM('',(#151),#152);
#51=STYLED_ITEM('',(#153),#154);
#52=STYLED_ITEM('',(#155),#156);
#53=STYLED_ITEM('',(#157),#158);
#54=STYLED_ITEM('',(#159),#160);
#55=STYLED_ITEM('',(#161),#162);
#56=STYLED_ITEM('',(#163),#164);
#57=STYLED_ITEM('',(#165),#166);
#58=STYLED_ITEM('',(#167),#168);
#59=STYLED_ITEM('',(#169),#170);
#60=STYLED_ITEM('',(#171),#172);
#61=APPLICATION_CONTEXT(' ');
#62=PRODUCT_CATEGORY('part','NONE');
#63=PRODUCT_RELATED_PRODUCT_CATEGORY('detail',' ',(#173));
#64=PRODUCT_DEFINITION_SHAPE('NONE','NONE',#174);
#65=ADVANCED_BREP_SHAPE_REPRESENTATION('1',(#144,#175),#10);
#66=APPLICATION_CONTEXT(' ');
#67=PRODUCT_CATEGORY('part','NONE');
#68=PRODUCT_RELATED_PRODUCT_CATEGORY('detail',' ',(#176));
#69=PRODUCT_DEFINITION_SHAPE('NONE','NONE',#177);
#70=ADVANCED_BREP_SHAPE_REPRESENTATION('2',(#80,#178),#10);
#73=UNCERTAINTY_MEASURE_WITH_UNIT(LENGTH_MEASURE(1.0E-006),#75,'','');
#75= (CONVERSION_BASED_UNIT('MILLIMETRE',#181)LENGTH_UNIT()NAMED_UNIT(#184));
#76= (NAMED_UNIT(#186)PLANE_ANGLE_UNIT()SI_UNIT($,.RADIAN.));
#77= (NAMED_UNIT(#186)SOLID_ANGLE_UNIT()SI_UNIT($,.STERADIAN.));
#79=PRESENTATION_STYLE_ASSIGNMENT((#192));
#80=MANIFOLD_SOLID_BREP('2',#193);
#81=PRESENTATION_STYLE_ASSIGNMENT((#194));
#82=EDGE_CURVE('',#90,#156,#195,.T.);
#83=PRESENTATION_STYLE_ASSIGNMENT((#196));
#84=VERTEX_POINT('',#197);
#85=PRESENTATION_STYLE_ASSIGNMENT((#198));
#86=EDGE_CURVE('',#150,#170,#199,.T.);
#87=PRESENTATION_STYLE_ASSIGNMENT((#200));
#88=ADVANCED_FACE('',(#201),#202,.T.);
#89=PRESENTATION_STYLE_ASSIGNMENT((#203));
#90=VERTEX_POINT('',#204);
#91=PRESENTATION_STYLE_ASSIGNMENT((#205));
#92=VERTEX_POINT('',#206);
#93=PRESENTATION_STYLE_ASSIGNMENT((#207));
#94=EDGE_CURVE('',#156,#168,#208,.T.);
#95=PRESENTATION_STYLE_ASSIGNMENT((#209));
#96=ADVANCED_FACE('',(#210),#211,.T.);
#97=PRESENTATION_STYLE_ASSIGNMENT((#212));
#98=EDGE_CURVE('',#122,#146,#213,.T.);
#99=PRESENTATION_STYLE_ASSIGNMENT((#214));
#100=ADVANCED_FACE('',(#215),#216,.T.);
#101=PRESENTATION_STYLE_ASSIGNMENT((#217));
#102=ADVANCED_FACE('',(#218),#219,.T.);
#103=PRESENTATION_STYLE_ASSIGNMENT((#220));
#104=EDGE_CURVE('',#150,#112,#221,.T.);
#105=PRESENTATION_STYLE_ASSIGNMENT((#222));
#106=ADVANCED_FACE('',(#223),#224,.T.);
#107=PRESENTATION_STYLE_ASSIGNMENT((#225));
#108=EDGE_CURVE('',#112,#84,#226,.T.);
#109=PRESENTATION_STYLE_ASSIGNMENT((#227));
#110=EDGE_CURVE('',#84,#170,#228,.T.);
#111=PRESENTATION_STYLE_ASSIGNMENT((#229));
#112=VERTEX_POINT('',#230);
#113=PRESENTATION_STYLE_ASSIGNMENT((#231));
#114=EDGE_CURVE('',#122,#130,#232,.T.);
#115=PRESENTATION_STYLE_ASSIGNMENT((#233));
#116=ADVANCED_FACE('',(#234),#235,.T.);
#117=PRESENTATION_STYLE_ASSIGNMENT((#236));
#118=ADVANCED_FACE('',(#237),#238,.F.);
#119=PRESENTATION_STYLE_ASSIGNMENT((#239));
#120=ADVANCED_FACE('',(#240,#241),#242,.T.);
#121=PRESENTATION_STYLE_ASSIGNMENT((#243));
#122=VERTEX_POINT('',#244);
#123=PRESENTATION_STYLE_ASSIGNMENT((#245));
#124=EDGE_CURVE('',#84,#112,#246,.T.);
#125=PRESENTATION_STYLE_ASSIGNMENT((#247));
#126=ADVANCED_FACE('',(#248),#249,.F.);
#127=PRESENTATION_STYLE_ASSIGNMENT((#250));
#128=VERTEX_POINT('',#251);
#129=PRESENTATION_STYLE_ASSIGNMENT((#252));
#130=VERTEX_POINT('',#253);
#131=PRESENTATION_STYLE_ASSIGNMENT((#254));
#132=EDGE_CURVE('',#138,#92,#255,.T.);
#133=PRESENTATION_STYLE_ASSIGNMENT((#256));
#134=EDGE_CURVE('',#170,#150,#257,.T.);
#135=PRESENTATION_STYLE_ASSIGNMENT((#258));
#136=EDGE_CURVE('',#92,#138,#259,.T.);
#137=PRESENTATION_STYLE_ASSIGNMENT((#260));
#138=VERTEX_POINT('',#261);
#139=PRESENTATION_STYLE_ASSIGNMENT((#262));
#140=ADVANCED_FACE('',(#263),#264,.T.);
#141=PRESENTATION_STYLE_ASSIGNMENT((#265));
#142=ADVANCED_FACE('',(#266),#267,.T.);
#143=PRESENTATION_STYLE_ASSIGNMENT((#268));
#144=MANIFOLD_SOLID_BREP('1',#269);
#145=PRESENTATION_STYLE_ASSIGNMENT((#270));
#146=VERTEX_POINT('',#271);
#147=PRESENTATION_STYLE_ASSIGNMENT((#272));
#148=EDGE_CURVE('',#146,#128,#273,.T.);
#149=PRESENTATION_STYLE_ASSIGNMENT((#274));
#150=VERTEX_POINT('',#275);
#151=PRESENTATION_STYLE_ASSIGNMENT((#276));
#152=EDGE_CURVE('',#128,#130,#277,.T.);
#153=PRESENTATION_STYLE_ASSIGNMENT((#278));
#154=EDGE_CURVE('',#138,#150,#279,.T.);
#155=PRESENTATION_STYLE_ASSIGNMENT((#280));
#156=VERTEX_POINT('',#281);
#157=PRESENTATION_STYLE_ASSIGNMENT((#282));
#158=EDGE_CURVE('',#156,#90,#283,.T.);
#159=PRESENTATION_STYLE_ASSIGNMENT((#284));
#160=EDGE_CURVE('',#170,#92,#285,.T.);
#161=PRESENTATION_STYLE_ASSIGNMENT((#286));
#162=EDGE_CURVE('',#128,#146,#287,.T.);
#163=PRESENTATION_STYLE_ASSIGNMENT((#288));
#164=EDGE_CURVE('',#130,#122,#289,.T.);
#165=PRESENTATION_STYLE_ASSIGNMENT((#290));
#166=EDGE_CURVE('',#168,#90,#291,.T.);
#167=PRESENTATION_STYLE_ASSIGNMENT((#292));
#168=VERTEX_POINT('',#293);
#169=PRESENTATION_STYLE_ASSIGNMENT((#294));
#170=VERTEX_POINT('',#295);
#171=PRESENTATION_STYLE_ASSIGNMENT((#296));
#172=ADVANCED_FACE('',(#297),#298,.T.);
#173=PRODUCT('1','1','PART-1-DESC',(#299));
#174=PRODUCT_DEFINITION('NONE','NONE',#300,#2);
#175=AXIS2_PLACEMENT_3D('',#301,#302,#303);
#176=PRODUCT('2','2','PART-2-DESC',(#304));
#177=PRODUCT_DEFINITION('NONE','NONE',#305,#6);
#178=AXIS2_PLACEMENT_3D('',#306,#307,#308);
#181=LENGTH_MEASURE_WITH_UNIT(LENGTH_MEASURE(1.0),#309);
#184=DIMENSIONAL_EXPONENTS(1.0,0.0,0.0,0.0,0.0,0.0,0.0);
#186=DIMENSIONAL_EXPONENTS(0.0,0.0,0.0,0.0,0.0,0.0,0.0);
#192=SURFACE_STYLE_USAGE(.BOTH.,#310);
#193=CLOSED_SHELL('',(#88,#96,#142,#172,#106,#102));
#194=CURVE_STYLE('',#311,POSITIVE_LENGTH_MEASURE(1.0E-006),#312);
#195=CIRCLE('',#313,8.17425155368285);
#196=POINT_STYLE(' ',#314,POSITIVE_LENGTH_MEASURE(1.0E-006),#315);
#197=CARTESIAN_POINT('',(0.0,-7.9375,-53.89));
#198=CURVE_STYLE('',#316,POSITIVE_LENGTH_MEASURE(1.0E-006),#317);
#199=CIRCLE('',#318,7.9375);
#200=SURFACE_STYLE_USAGE(.BOTH.,#319);
#201=FACE_OUTER_BOUND('',#320,.T.);
#202=CYLINDRICAL_SURFACE('',#321,7.9375);
#203=POINT_STYLE(' ',#322,POSITIVE_LENGTH_MEASURE(1.0E-006),#323);
#204=CARTESIAN_POINT('',(1.00102403903825E-015,-8.17425155368285,-53.89));
#205=POINT_STYLE(' ',#324,POSITIVE_LENGTH_MEASURE(1.0E-006),#325);
#206=CARTESIAN_POINT('',(9.15893364788876E-016,-7.47908388626344,0.00999999999999801));
#207=CURVE_STYLE('',#326,POSITIVE_LENGTH_MEASURE(1.0E-006),#327);
#208=LINE('',#328,#329);
#209=SURFACE_STYLE_USAGE(.BOTH.,#330);
#210=FACE_OUTER_BOUND('',#331,.T.);
#211=CONICAL_SURFACE('',#332,7.70829194313172,0.523598775598301);
#212=CURVE_STYLE('',#333,POSITIVE_LENGTH_MEASURE(1.0E-006),#334);
#213=LINE('',#335,#336);
#214=SURFACE_STYLE_USAGE(.BOTH.,#337);
#215=FACE_OUTER_BOUND('',#338,.T.);
#216=PLANE('',#339);
#217=SURFACE_STYLE_USAGE(.BOTH.,#340);
#218=FACE_OUTER_BOUND('',#341,.T.);
#219=CYLINDRICAL_SURFACE('',#342,7.9375);
#220=CURVE_STYLE('',#343,POSITIVE_LENGTH_MEASURE(1.0E-006),#344);
#221=LINE('',#345,#346);
#222=SURFACE_STYLE_USAGE(.BOTH.,#347);
#223=FACE_OUTER_BOUND('',#348,.T.);
#224=CONICAL_SURFACE('',#349,7.70829194313172,0.523598775598301);
#225=CURVE_STYLE('',#350,POSITIVE_LENGTH_MEASURE(1.0E-006),#351);
#226=CIRCLE('',#352,7.9375);
#227=CURVE_STYLE('',#353,POSITIVE_LENGTH_MEASURE(1.0E-006),#354);
#228=LINE('',#355,#356);
#229=POINT_STYLE(' ',#357,POSITIVE_LENGTH_MEASURE(1.0E-006),#358);
#230=CARTESIAN_POINT('',(-9.72031293346512E-016,7.9375,-53.89));
#231=CURVE_STYLE('',#359,POSITIVE_LENGTH_MEASURE(1.0E-006),#360);
#232=CIRCLE('',#361,3.175);
#233=SURFACE_STYLE_USAGE(.BOTH.,#362);
#234=FACE_OUTER_BOUND('',#363,.T.);
#235=CONICAL_SURFACE('',#364,5.67712577684143,0.087264727627641);
#236=SURFACE_STYLE_USAGE(.BOTH.,#365);
#237=FACE_OUTER_BOUND('',#366,.T.);
#238=CONICAL_SURFACE('',#367,4.08712577684143,1.5695729738132);
#239=SURFACE_STYLE_USAGE(.BOTH.,#368);
#240=FACE_OUTER_BOUND('',#369,.T.);
#241=FACE_BOUND('',#370,.T.);
#242=PLANE('',#371);
#243=POINT_STYLE(' ',#372,POSITIVE_LENGTH_MEASURE(1.0E-006),#373);
#244=CARTESIAN_POINT('',(3.88812517338605E-016,-3.175,-111.09));
#245=CURVE_STYLE('',#374,POSITIVE_LENGTH_MEASURE(1.0E-006),#375);
#246=CIRCLE('',#376,7.9375);
#247=SURFACE_STYLE_USAGE(.BOTH.,#377);
#248=FACE_OUTER_BOUND('',#378,.T.);
#249=CONICAL_SURFACE('',#379,4.08712577684143,1.5695729738132);
#250=POINT_STYLE(' ',#380,POSITIVE_LENGTH_MEASURE(1.0E-006),#381);
#251=CARTESIAN_POINT('',(0.0,8.17925155368285,-53.89));
#252=POINT_STYLE(' ',#382,POSITIVE_LENGTH_MEASURE(1.0E-006),#383);
#253=CARTESIAN_POINT('',(0.0,3.175,-111.09));
#254=CURVE_STYLE('',#384,POSITIVE_LENGTH_MEASURE(1.0E-006),#385);
#255=CIRCLE('',#386,7.47908388626344);
#256=CURVE_STYLE('',#387,POSITIVE_LENGTH_MEASURE(1.0E-006),#388);
#257=CIRCLE('',#389,7.9375);
#258=CURVE_STYLE('',#390,POSITIVE_LENGTH_MEASURE(1.0E-006),#391);
#259=CIRCLE('',#392,7.47908388626344);
#260=POINT_STYLE(' ',#393,POSITIVE_LENGTH_MEASURE(1.0E-006),#394);
#261=CARTESIAN_POINT('',(0.0,7.47908388626344,0.00999999999999801));
#262=SURFACE_STYLE_USAGE(.BOTH.,#395);
#263=FACE_OUTER_BOUND('',#396,.T.);
#264=CONICAL_SURFACE('',#397,5.67712577684143,0.087264727627641);
#265=SURFACE_STYLE_USAGE(.BOTH.,#398);
#266=FACE_OUTER_BOUND('',#399,.T.);
#267=PLANE('',#400);
#268=SURFACE_STYLE_USAGE(.BOTH.,#401);
#269=CLOSED_SHELL('',(#140,#118,#126,#120,#116,#100));
#270=POINT_STYLE(' ',#402,POSITIVE_LENGTH_MEASURE(1.0E-006),#403);
#271=CARTESIAN_POINT('',(1.00163634221516E-015,-8.17925155368285,-53.89));
#272=CURVE_STYLE('',#404,POSITIVE_LENGTH_MEASURE(1.0E-006),#405);
#273=CIRCLE('',#406,8.17925155368285);
#274=POINT_STYLE(' ',#407,POSITIVE_LENGTH_MEASURE(1.0E-006),#408);
#275=CARTESIAN_POINT('',(0.0,7.9375,-0.783999999999999));
#276=CURVE_STYLE('',#409,POSITIVE_LENGTH_MEASURE(1.0E-006),#410);
#277=LINE('',#411,#412);
#278=CURVE_STYLE('',#413,POSITIVE_LENGTH_MEASURE(1.0E-006),#414);
#279=LINE('',#415,#416);
#280=POINT_STYLE(' ',#417,POSITIVE_LENGTH_MEASURE(1.0E-006),#418);
#281=CARTESIAN_POINT('',(0.0,8.17425155368285,-53.89));
#282=CURVE_STYLE('',#419,POSITIVE_LENGTH_MEASURE(1.0E-006),#420);
#283=CIRCLE('',#421,8.17425155368285);
#284=CURVE_STYLE('',#422,POSITIVE_LENGTH_MEASURE(1.0E-006),#423);
#285=LINE('',#424,#425);
#286=CURVE_STYLE('',#426,POSITIVE_LENGTH_MEASURE(1.0E-006),#427);
#287=CIRCLE('',#428,8.17925155368285);
#288=CURVE_STYLE('',#429,POSITIVE_LENGTH_MEASURE(1.0E-006),#430);
#289=CIRCLE('',#431,3.175);
#290=CURVE_STYLE('',#432,POSITIVE_LENGTH_MEASURE(1.0E-006),#433);
#291=LINE('',#434,#435);
#292=POINT_STYLE(' ',#436,POSITIVE_LENGTH_MEASURE(1.0E-006),#437);
#293=CARTESIAN_POINT('',(0.0,0.0,-53.9));
#294=POINT_STYLE(' ',#438,POSITIVE_LENGTH_MEASURE(1.0E-006),#439);
#295=CARTESIAN_POINT('',(9.72031293346512E-016,-7.9375,-0.783999999999999));
#296=SURFACE_STYLE_USAGE(.BOTH.,#440);
#297=FACE_OUTER_BOUND('',#441,.T.);
#298=PLANE('',#442);
#299=PRODUCT_CONTEXT('',#61,'mechanical');
#300=PRODUCT_DEFINITION_FORMATION_WITH_SPECIFIED_SOURCE(' ','NONE',#173,.NOT_KNOWN.);
#301=CARTESIAN_POINT('',(0.0,0.0,0.0));
#302=DIRECTION('',(0.0,0.0,1.0));
#303=DIRECTION('',(1.0,0.0,0.0));
#304=PRODUCT_CONTEXT('',#66,'mechanical');
#305=PRODUCT_DEFINITION_FORMATION_WITH_SPECIFIED_SOURCE(' ','NONE',#176,.NOT_KNOWN.);
#306=CARTESIAN_POINT('',(0.0,0.0,0.0));
#307=DIRECTION('',(0.0,0.0,1.0));
#308=DIRECTION('',(1.0,0.0,0.0));
#309= (NAMED_UNIT(#184)LENGTH_UNIT()SI_UNIT(.MILLI.,.METRE.));
#310=SURFACE_SIDE_STYLE('',(#444));
#311=DRAUGHTING_PRE_DEFINED_CURVE_FONT('continuous');
#312=COLOUR_RGB('',0.800000011920929,0.800000011920929,0.800000011920929);
#313=AXIS2_PLACEMENT_3D('',#445,#446,#447);
#314=PRE_DEFINED_MARKER('');
#315=COLOUR_RGB('',0.498039215803146,0.498039215803146,0.498039215803146);
#316=DRAUGHTING_PRE_DEFINED_CURVE_FONT('continuous');
#317=COLOUR_RGB('',0.498039215803146,0.498039215803146,0.498039215803146);
#318=AXIS2_PLACEMENT_3D('',#448,#449,#450);
#319=SURFACE_SIDE_STYLE('',(#451));
#320=EDGE_LOOP('',(#452,#453,#454,#455));
#321=AXIS2_PLACEMENT_3D('',#456,#457,#458);
#322=PRE_DEFINED_MARKER('');
#323=COLOUR_RGB('',0.800000011920929,0.800000011920929,0.800000011920929);
#324=PRE_DEFINED_MARKER('');
#325=COLOUR_RGB('',0.498039215803146,0.498039215803146,0.498039215803146);
#326=DRAUGHTING_PRE_DEFINED_CURVE_FONT('continuous');
#327=COLOUR_RGB('',0.800000011920929,0.800000011920929,0.800000011920929);
#328=CARTESIAN_POINT('',(-5.00512019519123E-016,4.08712577684143,-53.895));
#329=VECTOR('',#459,1.0);
#330=SURFACE_SIDE_STYLE('',(#460));
#331=EDGE_LOOP('',(#461,#462,#463,#464));
#332=AXIS2_PLACEMENT_3D('',#465,#466,#467);
#333=DRAUGHTING_PRE_DEFINED_CURVE_FONT('continuous');
#334=COLOUR_RGB('',0.800000011920929,0.800000011920929,0.800000011920929);
#335=CARTESIAN_POINT('',(6.95224429776881E-016,-5.67712577684143,-82.49));
#336=VECTOR('',#468,1.0);
#337=SURFACE_SIDE_STYLE('',(#469));
#338=EDGE_LOOP('',(#470,#471));
#339=AXIS2_PLACEMENT_3D('',#472,#473,#474);
#340=SURFACE_SIDE_STYLE('',(#475));
#341=EDGE_LOOP('',(#476,#477,#478,#479));
#342=AXIS2_PLACEMENT_3D('',#480,#481,#482);
#343=DRAUGHTING_PRE_DEFINED_CURVE_FONT('continuous');
#344=COLOUR_RGB('',0.498039215803146,0.498039215803146,0.498039215803146);
#345=CARTESIAN_POINT('',(-9.72031293346512E-016,7.9375,-24.162));
#346=VECTOR('',#483,1.0);
#347=SURFACE_SIDE_STYLE('',(#484));
#348=EDGE_LOOP('',(#485,#486,#487,#488));
#349=AXIS2_PLACEMENT_3D('',#489,#490,#491);
#350=DRAUGHTING_PRE_DEFINED_CURVE_FONT('continuous');
#351=COLOUR_RGB('',0.498039215803146,0.498039215803146,0.498039215803146);
#352=AXIS2_PLACEMENT_3D('',#492,#493,#494);
#353=DRAUGHTING_PRE_DEFINED_CURVE_FONT('continuous');
#354=COLOUR_RGB('',0.498039215803146,0.498039215803146,0.498039215803146);
#355=CARTESIAN_POINT('',(9.72031293346512E-016,-7.9375,-24.162));
#356=VECTOR('',#495,1.0);
#357=PRE_DEFINED_MARKER('');
#358=COLOUR_RGB('',0.498039215803146,0.498039215803146,0.498039215803146);
#359=DRAUGHTING_PRE_DEFINED_CURVE_FONT('continuous');
#360=COLOUR_RGB('',0.800000011920929,0.800000011920929,0.800000011920929);
#361=AXIS2_PLACEMENT_3D('',#496,#497,#498);
#362=SURFACE_SIDE_STYLE('',(#499));
#363=EDGE_LOOP('',(#500,#501,#502,#503));
#364=AXIS2_PLACEMENT_3D('',#504,#505,#506);
#365=SURFACE_SIDE_STYLE('',(#507));
#366=EDGE_LOOP('',(#508,#509,#510));
#367=AXIS2_PLACEMENT_3D('',#511,#512,#513);
#368=SURFACE_SIDE_STYLE('',(#514));
#369=EDGE_LOOP('',(#515,#516));
#370=EDGE_LOOP('',(#517,#518));
#371=AXIS2_PLACEMENT_3D('',#519,#520,#521);
#372=PRE_DEFINED_MARKER('');
#373=COLOUR_RGB('',0.800000011920929,0.800000011920929,0.800000011920929);
#374=DRAUGHTING_PRE_DEFINED_CURVE_FONT('continuous');
#375=COLOUR_RGB('',0.498039215803146,0.498039215803146,0.498039215803146);
#376=AXIS2_PLACEMENT_3D('',#522,#523,#524);
#377=SURFACE_SIDE_STYLE('',(#525));
#378=EDGE_LOOP('',(#526,#527,#528));
#379=AXIS2_PLACEMENT_3D('',#529,#530,#531);
#380=PRE_DEFINED_MARKER('');
#381=COLOUR_RGB('',0.800000011920929,0.800000011920929,0.800000011920929);
#382=PRE_DEFINED_MARKER('');
#383=COLOUR_RGB('',0.800000011920929,0.800000011920929,0.800000011920929);
#384=DRAUGHTING_PRE_DEFINED_CURVE_FONT('continuous');
#385=COLOUR_RGB('',0.498039215803146,0.498039215803146,0.498039215803146);
#386=AXIS2_PLACEMENT_3D('',#532,#533,#534);
#387=DRAUGHTING_PRE_DEFINED_CURVE_FONT('continuous');
#388=COLOUR_RGB('',0.498039215803146,0.498039215803146,0.498039215803146);
#389=AXIS2_PLACEMENT_3D('',#535,#536,#537);
#390=DRAUGHTING_PRE_DEFINED_CURVE_FONT('continuous');
#391=COLOUR_RGB('',0.498039215803146,0.498039215803146,0.498039215803146);
#392=AXIS2_PLACEMENT_3D('',#538,#539,#540);
#393=PRE_DEFINED_MARKER('');
#394=COLOUR_RGB('',0.498039215803146,0.498039215803146,0.498039215803146);
#395=SURFACE_SIDE_STYLE('',(#541));
#396=EDGE_LOOP('',(#542,#543,#544,#545));
#397=AXIS2_PLACEMENT_3D('',#546,#547,#548);
#398=SURFACE_SIDE_STYLE('',(#549));
#399=EDGE_LOOP('',(#550,#551));
#400=AXIS2_PLACEMENT_3D('',#552,#553,#554);
#401=SURFACE_SIDE_STYLE('',(#555));
#402=PRE_DEFINED_MARKER('');
#403=COLOUR_RGB('',0.800000011920929,0.800000011920929,0.800000011920929);
#404=DRAUGHTING_PRE_DEFINED_CURVE_FONT('continuous');
#405=COLOUR_RGB('',0.800000011920929,0.800000011920929,0.800000011920929);
#406=AXIS2_PLACEMENT_3D('',#556,#557,#558);
#407=PRE_DEFINED_MARKER('');
#408=COLOUR_RGB('',0.498039215803146,0.498039215803146,0.498039215803146);
#409=DRAUGHTING_PRE_DEFINED_CURVE_FONT('continuous');
#410=COLOUR_RGB('',0.800000011920929,0.800000011920929,0.800000011920929);
#411=CARTESIAN_POINT('',(-6.95224429776881E-016,5.67712577684143,-82.49));
#412=VECTOR('',#559,1.0);
#413=DRAUGHTING_PRE_DEFINED_CURVE_FONT('continuous');
#414=COLOUR_RGB('',0.498039215803146,0.498039215803146,0.498039215803146);
#415=CARTESIAN_POINT('',(-9.43962329067694E-016,7.70829194313172,-0.387));
#416=VECTOR('',#560,1.0);
#417=PRE_DEFINED_MARKER('');
#418=COLOUR_RGB('',0.800000011920929,0.800000011920929,0.800000011920929);
#419=DRAUGHTING_PRE_DEFINED_CURVE_FONT('continuous');
#420=COLOUR_RGB('',0.800000011920929,0.800000011920929,0.800000011920929);
#421=AXIS2_PLACEMENT_3D('',#561,#562,#563);
#422=DRAUGHTING_PRE_DEFINED_CURVE_FONT('continuous');
#423=COLOUR_RGB('',0.498039215803146,0.498039215803146,0.498039215803146);
#424=CARTESIAN_POINT('',(9.43962329067694E-016,-7.70829194313172,-0.387));
#425=VECTOR('',#564,1.0);
#426=DRAUGHTING_PRE_DEFINED_CURVE_FONT('continuous');
#427=COLOUR_RGB('',0.800000011920929,0.800000011920929,0.800000011920929);
#428=AXIS2_PLACEMENT_3D('',#565,#566,#567);
#429=DRAUGHTING_PRE_DEFINED_CURVE_FONT('continuous');
#430=COLOUR_RGB('',0.800000011920929,0.800000011920929,0.800000011920929);
#431=AXIS2_PLACEMENT_3D('',#568,#569,#570);
#432=DRAUGHTING_PRE_DEFINED_CURVE_FONT('continuous');
#433=COLOUR_RGB('',0.800000011920929,0.800000011920929,0.800000011920929);
#434=CARTESIAN_POINT('',(5.00512019519123E-016,-4.08712577684143,-53.895));
#435=VECTOR('',#571,1.0);
#436=PRE_DEFINED_MARKER('');
#437=COLOUR_RGB('',0.800000011920929,0.800000011920929,0.800000011920929);
#438=PRE_DEFINED_MARKER('');
#439=COLOUR_RGB('',0.498039215803146,0.498039215803146,0.498039215803146);
#440=SURFACE_SIDE_STYLE('',(#572));
#441=EDGE_LOOP('',(#573,#574));
#442=AXIS2_PLACEMENT_3D('',#575,#576,#577);
#444=SURFACE_STYLE_FILL_AREA(#578);
#445=CARTESIAN_POINT('',(0.0,0.0,-53.89));
#446=DIRECTION('',(0.0,0.0,-1.0));
#447=DIRECTION('',(0.0,1.0,0.0));
#448=CARTESIAN_POINT('',(0.0,0.0,-0.783999999999999));
#449=DIRECTION('',(0.0,0.0,-1.0));
#450=DIRECTION('',(0.0,1.0,0.0));
#451=SURFACE_STYLE_FILL_AREA(#579);
#452=ORIENTED_EDGE('',*,*,#104,.F.);
#453=ORIENTED_EDGE('',*,*,#86,.T.);
#454=ORIENTED_EDGE('',*,*,#110,.F.);
#455=ORIENTED_EDGE('',*,*,#108,.F.);
#456=CARTESIAN_POINT('',(0.0,0.0,-24.162));
#457=DIRECTION('',(-0.0,-0.0,1.0));
#458=DIRECTION('',(0.0,1.0,0.0));
#459=DIRECTION('',(1.22460543745414E-016,-0.999999251703834,-0.00122335267655511));
#460=SURFACE_STYLE_FILL_AREA(#580);
#461=ORIENTED_EDGE('',*,*,#154,.F.);
#462=ORIENTED_EDGE('',*,*,#132,.T.);
#463=ORIENTED_EDGE('',*,*,#160,.F.);
#464=ORIENTED_EDGE('',*,*,#86,.F.);
#465=CARTESIAN_POINT('',(0.0,0.0,-0.387));
#466=DIRECTION('',(0.0,-0.0,-1.0));
#467=DIRECTION('',(0.0,1.0,0.0));
#468=DIRECTION('',(1.06729359767867E-017,-0.0871540143775441,0.996194849303026));
#469=SURFACE_STYLE_FILL_AREA(#581);
#470=ORIENTED_EDGE('',*,*,#164,.T.);
#471=ORIENTED_EDGE('',*,*,#114,.T.);
#472=CARTESIAN_POINT('',(0.0,1.585,-111.09));
#473=DIRECTION('',(0.0,0.0,-1.0));
#474=DIRECTION('',(0.0,1.0,0.0));
#475=SURFACE_STYLE_FILL_AREA(#582);
#476=ORIENTED_EDGE('',*,*,#104,.T.);
#477=ORIENTED_EDGE('',*,*,#124,.F.);
#478=ORIENTED_EDGE('',*,*,#110,.T.);
#479=ORIENTED_EDGE('',*,*,#134,.T.);
#480=CARTESIAN_POINT('',(0.0,0.0,-24.162));
#481=DIRECTION('',(-0.0,-0.0,1.0));
#482=DIRECTION('',(0.0,1.0,0.0));
#483=DIRECTION('',(0.0,0.0,-1.0));
#484=SURFACE_STYLE_FILL_AREA(#583);
#485=ORIENTED_EDGE('',*,*,#154,.T.);
#486=ORIENTED_EDGE('',*,*,#134,.F.);
#487=ORIENTED_EDGE('',*,*,#160,.T.);
#488=ORIENTED_EDGE('',*,*,#136,.T.);
#489=CARTESIAN_POINT('',(0.0,0.0,-0.387));
#490=DIRECTION('',(0.0,-0.0,-1.0));
#491=DIRECTION('',(0.0,1.0,0.0));
#492=CARTESIAN_POINT('',(0.0,0.0,-53.89));
#493=DIRECTION('',(0.0,0.0,-1.0));
#494=DIRECTION('',(0.0,-1.0,0.0));
#495=DIRECTION('',(-0.0,-0.0,1.0));
#496=CARTESIAN_POINT('',(0.0,0.0,-111.09));
#497=DIRECTION('',(0.0,0.0,-1.0));
#498=DIRECTION('',(0.0,1.0,0.0));
#499=SURFACE_STYLE_FILL_AREA(#584);
#500=ORIENTED_EDGE('',*,*,#152,.T.);
#501=ORIENTED_EDGE('',*,*,#114,.F.);
#502=ORIENTED_EDGE('',*,*,#98,.T.);
#503=ORIENTED_EDGE('',*,*,#148,.T.);
#504=CARTESIAN_POINT('',(0.0,0.0,-82.49));
#505=DIRECTION('',(-0.0,-0.0,1.0));
#506=DIRECTION('',(0.0,1.0,0.0));
#507=SURFACE_STYLE_FILL_AREA(#585);
#508=ORIENTED_EDGE('',*,*,#166,.F.);
#509=ORIENTED_EDGE('',*,*,#94,.F.);
#510=ORIENTED_EDGE('',*,*,#82,.F.);
#511=CARTESIAN_POINT('',(0.0,0.0,-53.895));
#512=DIRECTION('',(-0.0,-0.0,1.0));
#513=DIRECTION('',(0.0,1.0,0.0));
#514=SURFACE_STYLE_FILL_AREA(#586);
#515=ORIENTED_EDGE('',*,*,#162,.F.);
#516=ORIENTED_EDGE('',*,*,#148,.F.);
#517=ORIENTED_EDGE('',*,*,#158,.T.);
#518=ORIENTED_EDGE('',*,*,#82,.T.);
#519=CARTESIAN_POINT('',(0.0,8.17675155368285,-53.89));
#520=DIRECTION('',(-0.0,0.0,1.0));
#521=DIRECTION('',(0.0,-1.0,0.0));
#522=CARTESIAN_POINT('',(0.0,0.0,-53.89));
#523=DIRECTION('',(0.0,0.0,-1.0));
#524=DIRECTION('',(0.0,-1.0,0.0));
#525=SURFACE_STYLE_FILL_AREA(#587);
#526=ORIENTED_EDGE('',*,*,#166,.T.);
#527=ORIENTED_EDGE('',*,*,#158,.F.);
#528=ORIENTED_EDGE('',*,*,#94,.T.);
#529=CARTESIAN_POINT('',(0.0,0.0,-53.895));
#530=DIRECTION('',(-0.0,-0.0,1.0));
#531=DIRECTION('',(0.0,1.0,0.0));
#532=CARTESIAN_POINT('',(0.0,0.0,0.00999999999999801));
#533=DIRECTION('',(0.0,0.0,-1.0));
#534=DIRECTION('',(0.0,1.0,0.0));
#535=CARTESIAN_POINT('',(0.0,0.0,-0.783999999999999));
#536=DIRECTION('',(0.0,0.0,-1.0));
#537=DIRECTION('',(0.0,1.0,0.0));
#538=CARTESIAN_POINT('',(0.0,0.0,0.00999999999999801));
#539=DIRECTION('',(0.0,0.0,-1.0));
#540=DIRECTION('',(0.0,1.0,0.0));
#541=SURFACE_STYLE_FILL_AREA(#588);
#542=ORIENTED_EDGE('',*,*,#152,.F.);
#543=ORIENTED_EDGE('',*,*,#162,.T.);
#544=ORIENTED_EDGE('',*,*,#98,.F.);
#545=ORIENTED_EDGE('',*,*,#164,.F.);
#546=CARTESIAN_POINT('',(0.0,0.0,-82.49));
#547=DIRECTION('',(-0.0,-0.0,1.0));
#548=DIRECTION('',(0.0,1.0,0.0));
#549=SURFACE_STYLE_FILL_AREA(#589);
#550=ORIENTED_EDGE('',*,*,#124,.T.);
#551=ORIENTED_EDGE('',*,*,#108,.T.);
#552=CARTESIAN_POINT('',(0.0,0.0,-53.89));
#553=DIRECTION('',(0.0,0.0,-1.0));
#554=DIRECTION('',(0.0,-1.0,0.0));
#555=SURFACE_STYLE_FILL_AREA(#590);
#556=CARTESIAN_POINT('',(0.0,0.0,-53.89));
#557=DIRECTION('',(0.0,0.0,-1.0));
#558=DIRECTION('',(0.0,1.0,0.0));
#559=DIRECTION('',(1.06729359767867E-017,-0.0871540143775441,-0.996194849303026));
#560=DIRECTION('',(-6.12303176911191E-017,0.500000000000002,-0.866025403784438));
#561=CARTESIAN_POINT('',(0.0,0.0,-53.89));
#562=DIRECTION('',(0.0,0.0,-1.0));
#563=DIRECTION('',(0.0,1.0,0.0));
#564=DIRECTION('',(-6.12303176911191E-017,0.500000000000002,0.866025403784438));
#565=CARTESIAN_POINT('',(0.0,0.0,-53.89));
#566=DIRECTION('',(0.0,0.0,-1.0));
#567=DIRECTION('',(0.0,1.0,0.0));
#568=CARTESIAN_POINT('',(0.0,0.0,-111.09));
#569=DIRECTION('',(0.0,0.0,-1.0));
#570=DIRECTION('',(0.0,1.0,0.0));
#571=DIRECTION('',(1.22460543745414E-016,-0.999999251703834,0.00122335267655511));
#572=SURFACE_STYLE_FILL_AREA(#591);
#573=ORIENTED_EDGE('',*,*,#132,.F.);
#574=ORIENTED_EDGE('',*,*,#136,.F.);
#575=CARTESIAN_POINT('',(0.0,3.73954194313172,0.00999999999999801));
#576=DIRECTION('',(-0.0,0.0,1.0));
#577=DIRECTION('',(0.0,-1.0,0.0));
#578=FILL_AREA_STYLE('',(#592));
#579=FILL_AREA_STYLE('',(#593));
#580=FILL_AREA_STYLE('',(#594));
#581=FILL_AREA_STYLE('',(#595));
#582=FILL_AREA_STYLE('',(#596));
#583=FILL_AREA_STYLE('',(#597));
#584=FILL_AREA_STYLE('',(#598));
#585=FILL_AREA_STYLE('',(#599));
#586=FILL_AREA_STYLE('',(#600));
#587=FILL_AREA_STYLE('',(#601));
#588=FILL_AREA_STYLE('',(#602));
#589=FILL_AREA_STYLE('',(#603));
#590=FILL_AREA_STYLE('',(#604));
#591=FILL_AREA_STYLE('',(#605));
#592=FILL_AREA_STYLE_COLOUR('',#606);
#593=FILL_AREA_STYLE_COLOUR('',#607);
#594=FILL_AREA_STYLE_COLOUR('',#608);
#595=FILL_AREA_STYLE_COLOUR('',#609);
#596=FILL_AREA_STYLE_COLOUR('',#610);
#597=FILL_AREA_STYLE_COLOUR('',#611);
#598=FILL_AREA_STYLE_COLOUR('',#612);
#599=FILL_AREA_STYLE_COLOUR('',#613);
#600=FILL_AREA_STYLE_COLOUR('',#614);
#601=FILL_AREA_STYLE_COLOUR('',#615);
#602=FILL_AREA_STYLE_COLOUR('',#616);
#603=FILL_AREA_STYLE_COLOUR('',#617);
#604=FILL_AREA_STYLE_COLOUR('',#618);
#605=FILL_AREA_STYLE_COLOUR('',#619);
#606=COLOUR_RGB('',0.800000011920929,0.800000011920929,0.800000011920929);
#607=COLOUR_RGB('',0.498039215803146,0.498039215803146,0.498039215803146);
#608=COLOUR_RGB('',0.498039215803146,0.498039215803146,0.498039215803146);
#609=COLOUR_RGB('',0.800000011920929,0.800000011920929,0.800000011920929);
#610=COLOUR_RGB('',0.498039215803146,0.498039215803146,0.498039215803146);
#611=COLOUR_RGB('',0.498039215803146,0.498039215803146,0.498039215803146);
#612=COLOUR_RGB('',0.800000011920929,0.800000011920929,0.800000011920929);
#613=COLOUR_RGB('',0.800000011920929,0.800000011920929,0.800000011920929);
#614=COLOUR_RGB('',0.800000011920929,0.800000011920929,0.800000011920929);
#615=COLOUR_RGB('',0.800000011920929,0.800000011920929,0.800000011920929);
#616=COLOUR_RGB('',0.800000011920929,0.800000011920929,0.800000011920929);
#617=COLOUR_RGB('',0.498039215803146,0.498039215803146,0.498039215803146);
#618=COLOUR_RGB('',0.800000011920929,0.800000011920929,0.800000011920929);
#619=COLOUR_RGB('',0.498039215803146,0.498039215803146,0.498039215803146);
#620=AXIS2_PLACEMENT_3D('PCS',#621,#622,#623);
#621=CARTESIAN_POINT('',(0.0,0.0,0.0));
#622=DIRECTION('',(0.0,0.0,1.0));
#623=DIRECTION('',(1.0,0.0,0.0));
#624=AXIS2_PLACEMENT_3D('CIP',#625,#626,#627);
#625=CARTESIAN_POINT('',(0.0,0.0,-111.1));
#626=DIRECTION('',(0.0,0.0,1.0));
#627=DIRECTION('',(1.0,0.0,0.0));
#628=AXIS2_PLACEMENT_3D('CRP',#629,#630,#631);
#629=CARTESIAN_POINT('',(-3.175,0.0,-111.1));
#630=DIRECTION('',(0.0,0.0,1.0));
#631=DIRECTION('',(1.0,0.0,0.0));
#632=AXIS2_PLACEMENT_3D('MCS',#633,#634,#635);
#633=CARTESIAN_POINT('',(0.0,0.0,-47.55));
#634=DIRECTION('',(0.0,0.0,1.0));
#635=DIRECTION('',(1.0,0.0,0.0));
#636=CONSTRUCTIVE_GEOMETRY_REPRESENTATION_RELATIONSHIP('coordinate systems',$,#65,#637);
#637=CONSTRUCTIVE_GEOMETRY_REPRESENTATION('coordinate systems',(#620,#624,#628,#632),#10);
ENDSEC;
END-ISO-10303-21;
