ISO-10303-21;
HEADER;
FILE_DESCRIPTION(('no description'),'unknown implementation level');
FILE_NAME('solidvk6igAg__HttoLvR8nlCbAsi2fM_1.STP','  ',('CIMSOURCE GmbH'),('CADClick - KiM GmbH - www.kimweb.de'),'unknown preprocess','ACIS','unknown authorization');
FILE_SCHEMA(('automotive_design'));
ENDSEC;
DATA;
#1=MECHANICAL_DESIGN_GEOMETRIC_PRESENTATION_REPRESENTATION(' ',(#14,#15,#16,#17,#18,#19,#20,#21,#22,#23,#24,#25,#26,#27,#28,#29,#30,#31,#32,#33,#34,#35,#36,#37,#38,#39,#40,#41,#42,#43,#44,#45,#46,#47,#48,#49,#50,#51,#52,#53,#54,#55,#56,#57,#58,#59,#60),#10);
#2=PRODUCT_DEFINITION_CONTEXT('',#61,'design');
#3=APPLICATION_PROTOCOL_DEFINITION('INTERNATIONAL STANDARD','automotive_design',1994,#61);
#4=PRODUCT_CATEGORY_RELATIONSHIP('NONE','NONE',#62,#63);
#5=SHAPE_DEFINITION_REPRESENTATION(#64,#65);
#6=PRODUCT_DEFINITION_CONTEXT('',#66,'design');
#7=APPLICATION_PROTOCOL_DEFINITION('INTERNATIONAL STANDARD','automotive_design',1994,#66);
#8=PRODUCT_CATEGORY_RELATIONSHIP('NONE','NONE',#67,#68);
#9=SHAPE_DEFINITION_REPRESENTATION(#69,#70);
#10= (GEOMETRIC_REPRESENTATION_CONTEXT(3)GLOBAL_UNCERTAINTY_ASSIGNED_CONTEXT((#73))GLOBAL_UNIT_ASSIGNED_CONTEXT((#75,#76,#77))REPRESENTATION_CONTEXT('NONE','WORKSPACE'));
#14=STYLED_ITEM('',(#79),#80);
#15=STYLED_ITEM('',(#81),#82);
#16=STYLED_ITEM('',(#83),#84);
#17=STYLED_ITEM('',(#85),#86);
#18=STYLED_ITEM('',(#87),#88);
#19=STYLED_ITEM('',(#89),#90);
#20=STYLED_ITEM('',(#91),#92);
#21=STYLED_ITEM('',(#93),#94);
#22=STYLED_ITEM('',(#95),#96);
#23=STYLED_ITEM('',(#97),#98);
#24=STYLED_ITEM('',(#99),#100);
#25=STYLED_ITEM('',(#101),#102);
#26=STYLED_ITEM('',(#103),#104);
#27=STYLED_ITEM('',(#105),#106);
#28=STYLED_ITEM('',(#107),#108);
#29=STYLED_ITEM('',(#109),#110);
#30=STYLED_ITEM('',(#111),#112);
#31=STYLED_ITEM('',(#113),#114);
#32=STYLED_ITEM('',(#115),#116);
#33=STYLED_ITEM('',(#117),#118);
#34=STYLED_ITEM('',(#119),#120);
#35=STYLED_ITEM('',(#121),#122);
#36=STYLED_ITEM('',(#123),#124);
#37=STYLED_ITEM('',(#125),#126);
#38=STYLED_ITEM('',(#127),#128);
#39=STYLED_ITEM('',(#129),#130);
#40=STYLED_ITEM('',(#131),#132);
#41=STYLED_ITEM('',(#133),#134);
#42=STYLED_ITEM('',(#135),#136);
#43=STYLED_ITEM('',(#137),#138);
#44=STYLED_ITEM('',(#139),#140);
#45=STYLED_ITEM('',(#141),#142);
#46=STYLED_ITEM('',(#143),#144);
#47=STYLED_ITEM('',(#145),#146);
#48=STYLED_ITEM('',(#147),#148);
#49=STYLED_ITEM('',(#149),#150);
#50=STYLED_ITEM('',(#151),#152);
#51=STYLED_ITEM('',(#153),#154);
#52=STYLED_ITEM('',(#155),#156);
#53=STYLED_ITEM('',(#157),#158);
#54=STYLED_ITEM('',(#159),#160);
#55=STYLED_ITEM('',(#161),#162);
#56=STYLED_ITEM('',(#163),#164);
#57=STYLED_ITEM('',(#165),#166);
#58=STYLED_ITEM('',(#167),#168);
#59=STYLED_ITEM('',(#169),#170);
#60=STYLED_ITEM('',(#171),#172);
#61=APPLICATION_CONTEXT(' ');
#62=PRODUCT_CATEGORY('part','NONE');
#63=PRODUCT_RELATED_PRODUCT_CATEGORY('detail',' ',(#173));
#64=PRODUCT_DEFINITION_SHAPE('NONE','NONE',#174);
#65=ADVANCED_BREP_SHAPE_REPRESENTATION('1',(#118,#175),#10);
#66=APPLICATION_CONTEXT(' ');
#67=PRODUCT_CATEGORY('part','NONE');
#68=PRODUCT_RELATED_PRODUCT_CATEGORY('detail',' ',(#176));
#69=PRODUCT_DEFINITION_SHAPE('NONE','NONE',#177);
#70=ADVANCED_BREP_SHAPE_REPRESENTATION('2',(#86,#178),#10);
#73=UNCERTAINTY_MEASURE_WITH_UNIT(LENGTH_MEASURE(1.0E-006),#75,'','');
#75= (CONVERSION_BASED_UNIT('MILLIMETRE',#181)LENGTH_UNIT()NAMED_UNIT(#184));
#76= (NAMED_UNIT(#186)PLANE_ANGLE_UNIT()SI_UNIT($,.RADIAN.));
#77= (NAMED_UNIT(#186)SOLID_ANGLE_UNIT()SI_UNIT($,.STERADIAN.));
#79=PRESENTATION_STYLE_ASSIGNMENT((#192));
#80=ADVANCED_FACE('',(#193,#194),#195,.T.);
#81=PRESENTATION_STYLE_ASSIGNMENT((#196));
#82=ADVANCED_FACE('',(#197),#198,.T.);
#83=PRESENTATION_STYLE_ASSIGNMENT((#199));
#84=VERTEX_POINT('',#200);
#85=PRESENTATION_STYLE_ASSIGNMENT((#201));
#86=MANIFOLD_SOLID_BREP('2',#202);
#87=PRESENTATION_STYLE_ASSIGNMENT((#203));
#88=ADVANCED_FACE('',(#204),#205,.T.);
#89=PRESENTATION_STYLE_ASSIGNMENT((#206));
#90=EDGE_CURVE('',#112,#142,#207,.T.);
#91=PRESENTATION_STYLE_ASSIGNMENT((#208));
#92=ADVANCED_FACE('',(#209),#210,.T.);
#93=PRESENTATION_STYLE_ASSIGNMENT((#211));
#94=EDGE_CURVE('',#112,#166,#212,.T.);
#95=PRESENTATION_STYLE_ASSIGNMENT((#213));
#96=EDGE_CURVE('',#166,#112,#214,.T.);
#97=PRESENTATION_STYLE_ASSIGNMENT((#215));
#98=VERTEX_POINT('',#216);
#99=PRESENTATION_STYLE_ASSIGNMENT((#217));
#100=EDGE_CURVE('',#124,#98,#218,.T.);
#101=PRESENTATION_STYLE_ASSIGNMENT((#219));
#102=EDGE_CURVE('',#164,#126,#220,.T.);
#103=PRESENTATION_STYLE_ASSIGNMENT((#221));
#104=ADVANCED_FACE('',(#222),#223,.T.);
#105=PRESENTATION_STYLE_ASSIGNMENT((#224));
#106=EDGE_CURVE('',#134,#110,#225,.T.);
#107=PRESENTATION_STYLE_ASSIGNMENT((#226));
#108=EDGE_CURVE('',#84,#110,#227,.T.);
#109=PRESENTATION_STYLE_ASSIGNMENT((#228));
#110=VERTEX_POINT('',#229);
#111=PRESENTATION_STYLE_ASSIGNMENT((#230));
#112=VERTEX_POINT('',#231);
#113=PRESENTATION_STYLE_ASSIGNMENT((#232));
#114=ADVANCED_FACE('',(#233),#234,.T.);
#115=PRESENTATION_STYLE_ASSIGNMENT((#235));
#116=EDGE_CURVE('',#142,#128,#236,.T.);
#117=PRESENTATION_STYLE_ASSIGNMENT((#237));
#118=MANIFOLD_SOLID_BREP('1',#238);
#119=PRESENTATION_STYLE_ASSIGNMENT((#239));
#120=EDGE_CURVE('',#134,#146,#240,.T.);
#121=PRESENTATION_STYLE_ASSIGNMENT((#241));
#122=ADVANCED_FACE('',(#242),#243,.T.);
#123=PRESENTATION_STYLE_ASSIGNMENT((#244));
#124=VERTEX_POINT('',#245);
#125=PRESENTATION_STYLE_ASSIGNMENT((#246));
#126=VERTEX_POINT('',#247);
#127=PRESENTATION_STYLE_ASSIGNMENT((#248));
#128=VERTEX_POINT('',#249);
#129=PRESENTATION_STYLE_ASSIGNMENT((#250));
#130=EDGE_CURVE('',#124,#112,#251,.T.);
#131=PRESENTATION_STYLE_ASSIGNMENT((#252));
#132=ADVANCED_FACE('',(#253),#254,.F.);
#133=PRESENTATION_STYLE_ASSIGNMENT((#255));
#134=VERTEX_POINT('',#256);
#135=PRESENTATION_STYLE_ASSIGNMENT((#257));
#136=EDGE_CURVE('',#128,#166,#258,.T.);
#137=PRESENTATION_STYLE_ASSIGNMENT((#259));
#138=ADVANCED_FACE('',(#260),#261,.F.);
#139=PRESENTATION_STYLE_ASSIGNMENT((#262));
#140=EDGE_CURVE('',#110,#84,#263,.T.);
#141=PRESENTATION_STYLE_ASSIGNMENT((#264));
#142=VERTEX_POINT('',#265);
#143=PRESENTATION_STYLE_ASSIGNMENT((#266));
#144=ADVANCED_FACE('',(#267),#268,.T.);
#145=PRESENTATION_STYLE_ASSIGNMENT((#269));
#146=VERTEX_POINT('',#270);
#147=PRESENTATION_STYLE_ASSIGNMENT((#271));
#148=EDGE_CURVE('',#126,#160,#272,.T.);
#149=PRESENTATION_STYLE_ASSIGNMENT((#273));
#150=EDGE_CURVE('',#166,#98,#274,.T.);
#151=PRESENTATION_STYLE_ASSIGNMENT((#275));
#152=EDGE_CURVE('',#160,#126,#276,.T.);
#153=PRESENTATION_STYLE_ASSIGNMENT((#277));
#154=EDGE_CURVE('',#146,#134,#278,.T.);
#155=PRESENTATION_STYLE_ASSIGNMENT((#279));
#156=EDGE_CURVE('',#128,#142,#280,.T.);
#157=PRESENTATION_STYLE_ASSIGNMENT((#281));
#158=EDGE_CURVE('',#84,#146,#282,.T.);
#159=PRESENTATION_STYLE_ASSIGNMENT((#283));
#160=VERTEX_POINT('',#284);
#161=PRESENTATION_STYLE_ASSIGNMENT((#285));
#162=ADVANCED_FACE('',(#286),#287,.T.);
#163=PRESENTATION_STYLE_ASSIGNMENT((#288));
#164=VERTEX_POINT('',#289);
#165=PRESENTATION_STYLE_ASSIGNMENT((#290));
#166=VERTEX_POINT('',#291);
#167=PRESENTATION_STYLE_ASSIGNMENT((#292));
#168=EDGE_CURVE('',#98,#124,#293,.T.);
#169=PRESENTATION_STYLE_ASSIGNMENT((#294));
#170=ADVANCED_FACE('',(#295),#296,.T.);
#171=PRESENTATION_STYLE_ASSIGNMENT((#297));
#172=EDGE_CURVE('',#160,#164,#298,.T.);
#173=PRODUCT('1','1','PART-1-DESC',(#299));
#174=PRODUCT_DEFINITION('NONE','NONE',#300,#2);
#175=AXIS2_PLACEMENT_3D('',#301,#302,#303);
#176=PRODUCT('2','2','PART-2-DESC',(#304));
#177=PRODUCT_DEFINITION('NONE','NONE',#305,#6);
#178=AXIS2_PLACEMENT_3D('',#306,#307,#308);
#181=LENGTH_MEASURE_WITH_UNIT(LENGTH_MEASURE(1.0),#309);
#184=DIMENSIONAL_EXPONENTS(1.0,0.0,0.0,0.0,0.0,0.0,0.0);
#186=DIMENSIONAL_EXPONENTS(0.0,0.0,0.0,0.0,0.0,0.0,0.0);
#192=SURFACE_STYLE_USAGE(.BOTH.,#310);
#193=FACE_OUTER_BOUND('',#311,.T.);
#194=FACE_BOUND('',#312,.T.);
#195=PLANE('',#313);
#196=SURFACE_STYLE_USAGE(.BOTH.,#314);
#197=FACE_OUTER_BOUND('',#315,.T.);
#198=CYLINDRICAL_SURFACE('',#316,9.525);
#199=POINT_STYLE(' ',#317,POSITIVE_LENGTH_MEASURE(1.0E-006),#318);
#200=CARTESIAN_POINT('',(0.0,12.0637482142339,-57.19));
#201=SURFACE_STYLE_USAGE(.BOTH.,#319);
#202=CLOSED_SHELL('',(#92,#114,#122,#162,#170,#82));
#203=SURFACE_STYLE_USAGE(.BOTH.,#320);
#204=FACE_OUTER_BOUND('',#321,.T.);
#205=CONICAL_SURFACE('',#322,7.61937410711694,0.087265485824164);
#206=CURVE_STYLE('',#323,POSITIVE_LENGTH_MEASURE(1.0E-006),#324);
#207=LINE('',#325,#326);
#208=SURFACE_STYLE_USAGE(.BOTH.,#327);
#209=FACE_OUTER_BOUND('',#328,.T.);
#210=CYLINDRICAL_SURFACE('',#329,9.525);
#211=CURVE_STYLE('',#330,POSITIVE_LENGTH_MEASURE(1.0E-006),#331);
#212=CIRCLE('',#332,9.525);
#213=CURVE_STYLE('',#333,POSITIVE_LENGTH_MEASURE(1.0E-006),#334);
#214=CIRCLE('',#335,9.525);
#215=POINT_STYLE(' ',#336,POSITIVE_LENGTH_MEASURE(1.0E-006),#337);
#216=CARTESIAN_POINT('',(1.08223065917936E-015,-8.83737582939516,0.00999999999999091));
#217=CURVE_STYLE('',#338,POSITIVE_LENGTH_MEASURE(1.0E-006),#339);
#218=CIRCLE('',#340,8.83737582939516);
#219=CURVE_STYLE('',#341,POSITIVE_LENGTH_MEASURE(1.0E-006),#342);
#220=LINE('',#343,#344);
#221=SURFACE_STYLE_USAGE(.BOTH.,#345);
#222=FACE_OUTER_BOUND('',#346,.T.);
#223=PLANE('',#347);
#224=CURVE_STYLE('',#348,POSITIVE_LENGTH_MEASURE(1.0E-006),#349);
#225=LINE('',#350,#351);
#226=CURVE_STYLE('',#352,POSITIVE_LENGTH_MEASURE(1.0E-006),#353);
#227=CIRCLE('',#354,12.0637482142339);
#228=POINT_STYLE(' ',#355,POSITIVE_LENGTH_MEASURE(1.0E-006),#356);
#229=CARTESIAN_POINT('',(1.47733427140642E-015,-12.0637482142339,-57.19));
#230=POINT_STYLE(' ',#357,POSITIVE_LENGTH_MEASURE(1.0E-006),#358);
#231=CARTESIAN_POINT('',(0.0,9.525,-1.18100000000001));
#232=SURFACE_STYLE_USAGE(.BOTH.,#359);
#233=FACE_OUTER_BOUND('',#360,.T.);
#234=CONICAL_SURFACE('',#361,9.18118791469758,0.523598775598298);
#235=CURVE_STYLE('',#362,POSITIVE_LENGTH_MEASURE(1.0E-006),#363);
#236=CIRCLE('',#364,9.525);
#237=SURFACE_STYLE_USAGE(.BOTH.,#365);
#238=CLOSED_SHELL('',(#144,#138,#132,#80,#88,#104));
#239=CURVE_STYLE('',#366,POSITIVE_LENGTH_MEASURE(1.0E-006),#367);
#240=CIRCLE('',#368,3.175);
#241=SURFACE_STYLE_USAGE(.BOTH.,#369);
#242=FACE_OUTER_BOUND('',#370,.T.);
#243=PLANE('',#371);
#244=POINT_STYLE(' ',#372,POSITIVE_LENGTH_MEASURE(1.0E-006),#373);
#245=CARTESIAN_POINT('',(0.0,8.83737582939516,0.00999999999999091));
#246=POINT_STYLE(' ',#374,POSITIVE_LENGTH_MEASURE(1.0E-006),#375);
#247=CARTESIAN_POINT('',(1.4767219682295E-015,-12.0587482142339,-57.19));
#248=POINT_STYLE(' ',#376,POSITIVE_LENGTH_MEASURE(1.0E-006),#377);
#249=CARTESIAN_POINT('',(0.0,-9.525,-57.19));
#250=CURVE_STYLE('',#378,POSITIVE_LENGTH_MEASURE(1.0E-006),#379);
#251=LINE('',#380,#381);
#252=SURFACE_STYLE_USAGE(.BOTH.,#382);
#253=FACE_OUTER_BOUND('',#383,.T.);
#254=CONICAL_SURFACE('',#384,6.02937410711694,1.56996705351296);
#255=POINT_STYLE(' ',#385,POSITIVE_LENGTH_MEASURE(1.0E-006),#386);
#256=CARTESIAN_POINT('',(3.88812517338605E-016,-3.175,-158.79));
#257=CURVE_STYLE('',#387,POSITIVE_LENGTH_MEASURE(1.0E-006),#388);
#258=LINE('',#389,#390);
#259=SURFACE_STYLE_USAGE(.BOTH.,#391);
#260=FACE_OUTER_BOUND('',#392,.T.);
#261=CONICAL_SURFACE('',#393,6.02937410711694,1.56996705351296);
#262=CURVE_STYLE('',#394,POSITIVE_LENGTH_MEASURE(1.0E-006),#395);
#263=CIRCLE('',#396,12.0637482142339);
#264=POINT_STYLE(' ',#397,POSITIVE_LENGTH_MEASURE(1.0E-006),#398);
#265=CARTESIAN_POINT('',(-1.16643755201581E-015,9.525,-57.19));
#266=SURFACE_STYLE_USAGE(.BOTH.,#399);
#267=FACE_OUTER_BOUND('',#400,.T.);
#268=CONICAL_SURFACE('',#401,7.61937410711694,0.087265485824164);
#269=POINT_STYLE(' ',#402,POSITIVE_LENGTH_MEASURE(1.0E-006),#403);
#270=CARTESIAN_POINT('',(0.0,3.175,-158.79));
#271=CURVE_STYLE('',#404,POSITIVE_LENGTH_MEASURE(1.0E-006),#405);
#272=CIRCLE('',#406,12.0587482142339);
#273=CURVE_STYLE('',#407,POSITIVE_LENGTH_MEASURE(1.0E-006),#408);
#274=LINE('',#409,#410);
#275=CURVE_STYLE('',#411,POSITIVE_LENGTH_MEASURE(1.0E-006),#412);
#276=CIRCLE('',#413,12.0587482142339);
#277=CURVE_STYLE('',#414,POSITIVE_LENGTH_MEASURE(1.0E-006),#415);
#278=CIRCLE('',#416,3.175);
#279=CURVE_STYLE('',#417,POSITIVE_LENGTH_MEASURE(1.0E-006),#418);
#280=CIRCLE('',#419,9.525);
#281=CURVE_STYLE('',#420,POSITIVE_LENGTH_MEASURE(1.0E-006),#421);
#282=LINE('',#422,#423);
#283=POINT_STYLE(' ',#424,POSITIVE_LENGTH_MEASURE(1.0E-006),#425);
#284=CARTESIAN_POINT('',(0.0,12.0587482142339,-57.19));
#285=SURFACE_STYLE_USAGE(.BOTH.,#426);
#286=FACE_OUTER_BOUND('',#427,.T.);
#287=PLANE('',#428);
#288=POINT_STYLE(' ',#429,POSITIVE_LENGTH_MEASURE(1.0E-006),#430);
#289=CARTESIAN_POINT('',(0.0,0.0,-57.2));
#290=POINT_STYLE(' ',#431,POSITIVE_LENGTH_MEASURE(1.0E-006),#432);
#291=CARTESIAN_POINT('',(1.16643755201581E-015,-9.525,-1.18100000000001));
#292=CURVE_STYLE('',#433,POSITIVE_LENGTH_MEASURE(1.0E-006),#434);
#293=CIRCLE('',#435,8.83737582939516);
#294=SURFACE_STYLE_USAGE(.BOTH.,#436);
#295=FACE_OUTER_BOUND('',#437,.T.);
#296=CONICAL_SURFACE('',#438,9.18118791469758,0.523598775598298);
#297=CURVE_STYLE('',#439,POSITIVE_LENGTH_MEASURE(1.0E-006),#440);
#298=LINE('',#441,#442);
#299=PRODUCT_CONTEXT('',#61,'mechanical');
#300=PRODUCT_DEFINITION_FORMATION_WITH_SPECIFIED_SOURCE(' ','NONE',#173,.NOT_KNOWN.);
#301=CARTESIAN_POINT('',(0.0,0.0,0.0));
#302=DIRECTION('',(0.0,0.0,1.0));
#303=DIRECTION('',(1.0,0.0,0.0));
#304=PRODUCT_CONTEXT('',#66,'mechanical');
#305=PRODUCT_DEFINITION_FORMATION_WITH_SPECIFIED_SOURCE(' ','NONE',#176,.NOT_KNOWN.);
#306=CARTESIAN_POINT('',(0.0,0.0,0.0));
#307=DIRECTION('',(0.0,0.0,1.0));
#308=DIRECTION('',(1.0,0.0,0.0));
#309= (NAMED_UNIT(#184)LENGTH_UNIT()SI_UNIT(.MILLI.,.METRE.));
#310=SURFACE_SIDE_STYLE('',(#444));
#311=EDGE_LOOP('',(#445,#446));
#312=EDGE_LOOP('',(#447,#448));
#313=AXIS2_PLACEMENT_3D('',#449,#450,#451);
#314=SURFACE_SIDE_STYLE('',(#452));
#315=EDGE_LOOP('',(#453,#454,#455,#456));
#316=AXIS2_PLACEMENT_3D('',#457,#458,#459);
#317=PRE_DEFINED_MARKER('');
#318=COLOUR_RGB('',0.800000011920929,0.800000011920929,0.800000011920929);
#319=SURFACE_SIDE_STYLE('',(#460));
#320=SURFACE_SIDE_STYLE('',(#461));
#321=EDGE_LOOP('',(#462,#463,#464,#465));
#322=AXIS2_PLACEMENT_3D('',#466,#467,#468);
#323=DRAUGHTING_PRE_DEFINED_CURVE_FONT('continuous');
#324=COLOUR_RGB('',0.498039215803146,0.498039215803146,0.498039215803146);
#325=CARTESIAN_POINT('',(-1.16643755201581E-015,9.525,-26.0105));
#326=VECTOR('',#469,1.0);
#327=SURFACE_SIDE_STYLE('',(#470));
#328=EDGE_LOOP('',(#471,#472,#473,#474));
#329=AXIS2_PLACEMENT_3D('',#475,#476,#477);
#330=DRAUGHTING_PRE_DEFINED_CURVE_FONT('continuous');
#331=COLOUR_RGB('',0.498039215803146,0.498039215803146,0.498039215803146);
#332=AXIS2_PLACEMENT_3D('',#478,#479,#480);
#333=DRAUGHTING_PRE_DEFINED_CURVE_FONT('continuous');
#334=COLOUR_RGB('',0.498039215803146,0.498039215803146,0.498039215803146);
#335=AXIS2_PLACEMENT_3D('',#481,#482,#483);
#336=PRE_DEFINED_MARKER('');
#337=COLOUR_RGB('',0.498039215803146,0.498039215803146,0.498039215803146);
#338=DRAUGHTING_PRE_DEFINED_CURVE_FONT('continuous');
#339=COLOUR_RGB('',0.498039215803146,0.498039215803146,0.498039215803146);
#340=AXIS2_PLACEMENT_3D('',#484,#485,#486);
#341=DRAUGHTING_PRE_DEFINED_CURVE_FONT('continuous');
#342=COLOUR_RGB('',0.800000011920929,0.800000011920929,0.800000011920929);
#343=CARTESIAN_POINT('',(7.38360984114752E-016,-6.02937410711694,-57.195));
#344=VECTOR('',#487,1.0);
#345=SURFACE_SIDE_STYLE('',(#488));
#346=EDGE_LOOP('',(#489,#490));
#347=AXIS2_PLACEMENT_3D('',#491,#492,#493);
#348=DRAUGHTING_PRE_DEFINED_CURVE_FONT('continuous');
#349=COLOUR_RGB('',0.800000011920929,0.800000011920929,0.800000011920929);
#350=CARTESIAN_POINT('',(9.3307339437251E-016,-7.61937410711694,-107.99));
#351=VECTOR('',#494,1.0);
#352=DRAUGHTING_PRE_DEFINED_CURVE_FONT('continuous');
#353=COLOUR_RGB('',0.800000011920929,0.800000011920929,0.800000011920929);
#354=AXIS2_PLACEMENT_3D('',#495,#496,#497);
#355=PRE_DEFINED_MARKER('');
#356=COLOUR_RGB('',0.800000011920929,0.800000011920929,0.800000011920929);
#357=PRE_DEFINED_MARKER('');
#358=COLOUR_RGB('',0.498039215803146,0.498039215803146,0.498039215803146);
#359=SURFACE_SIDE_STYLE('',(#498));
#360=EDGE_LOOP('',(#499,#500,#501,#502));
#361=AXIS2_PLACEMENT_3D('',#503,#504,#505);
#362=DRAUGHTING_PRE_DEFINED_CURVE_FONT('continuous');
#363=COLOUR_RGB('',0.498039215803146,0.498039215803146,0.498039215803146);
#364=AXIS2_PLACEMENT_3D('',#506,#507,#508);
#365=SURFACE_SIDE_STYLE('',(#509));
#366=DRAUGHTING_PRE_DEFINED_CURVE_FONT('continuous');
#367=COLOUR_RGB('',0.800000011920929,0.800000011920929,0.800000011920929);
#368=AXIS2_PLACEMENT_3D('',#510,#511,#512);
#369=SURFACE_SIDE_STYLE('',(#513));
#370=EDGE_LOOP('',(#514,#515));
#371=AXIS2_PLACEMENT_3D('',#516,#517,#518);
#372=PRE_DEFINED_MARKER('');
#373=COLOUR_RGB('',0.498039215803146,0.498039215803146,0.498039215803146);
#374=PRE_DEFINED_MARKER('');
#375=COLOUR_RGB('',0.800000011920929,0.800000011920929,0.800000011920929);
#376=PRE_DEFINED_MARKER('');
#377=COLOUR_RGB('',0.498039215803146,0.498039215803146,0.498039215803146);
#378=DRAUGHTING_PRE_DEFINED_CURVE_FONT('continuous');
#379=COLOUR_RGB('',0.498039215803146,0.498039215803146,0.498039215803146);
#380=CARTESIAN_POINT('',(-1.12433410559759E-015,9.18118791469758,-0.58550000000001));
#381=VECTOR('',#519,1.0);
#382=SURFACE_SIDE_STYLE('',(#520));
#383=EDGE_LOOP('',(#521,#522,#523));
#384=AXIS2_PLACEMENT_3D('',#524,#525,#526);
#385=PRE_DEFINED_MARKER('');
#386=COLOUR_RGB('',0.800000011920929,0.800000011920929,0.800000011920929);
#387=DRAUGHTING_PRE_DEFINED_CURVE_FONT('continuous');
#388=COLOUR_RGB('',0.498039215803146,0.498039215803146,0.498039215803146);
#389=CARTESIAN_POINT('',(1.16643755201581E-015,-9.525,-26.0105));
#390=VECTOR('',#527,1.0);
#391=SURFACE_SIDE_STYLE('',(#528));
#392=EDGE_LOOP('',(#529,#530,#531));
#393=AXIS2_PLACEMENT_3D('',#532,#533,#534);
#394=DRAUGHTING_PRE_DEFINED_CURVE_FONT('continuous');
#395=COLOUR_RGB('',0.800000011920929,0.800000011920929,0.800000011920929);
#396=AXIS2_PLACEMENT_3D('',#535,#536,#537);
#397=PRE_DEFINED_MARKER('');
#398=COLOUR_RGB('',0.498039215803146,0.498039215803146,0.498039215803146);
#399=SURFACE_SIDE_STYLE('',(#538));
#400=EDGE_LOOP('',(#539,#540,#541,#542));
#401=AXIS2_PLACEMENT_3D('',#543,#544,#545);
#402=PRE_DEFINED_MARKER('');
#403=COLOUR_RGB('',0.800000011920929,0.800000011920929,0.800000011920929);
#404=DRAUGHTING_PRE_DEFINED_CURVE_FONT('continuous');
#405=COLOUR_RGB('',0.800000011920929,0.800000011920929,0.800000011920929);
#406=AXIS2_PLACEMENT_3D('',#546,#547,#548);
#407=DRAUGHTING_PRE_DEFINED_CURVE_FONT('continuous');
#408=COLOUR_RGB('',0.498039215803146,0.498039215803146,0.498039215803146);
#409=CARTESIAN_POINT('',(1.12433410559759E-015,-9.18118791469758,-0.58550000000001));
#410=VECTOR('',#549,1.0);
#411=DRAUGHTING_PRE_DEFINED_CURVE_FONT('continuous');
#412=COLOUR_RGB('',0.800000011920929,0.800000011920929,0.800000011920929);
#413=AXIS2_PLACEMENT_3D('',#550,#551,#552);
#414=DRAUGHTING_PRE_DEFINED_CURVE_FONT('continuous');
#415=COLOUR_RGB('',0.800000011920929,0.800000011920929,0.800000011920929);
#416=AXIS2_PLACEMENT_3D('',#553,#554,#555);
#417=DRAUGHTING_PRE_DEFINED_CURVE_FONT('continuous');
#418=COLOUR_RGB('',0.498039215803146,0.498039215803146,0.498039215803146);
#419=AXIS2_PLACEMENT_3D('',#556,#557,#558);
#420=DRAUGHTING_PRE_DEFINED_CURVE_FONT('continuous');
#421=COLOUR_RGB('',0.800000011920929,0.800000011920929,0.800000011920929);
#422=CARTESIAN_POINT('',(-9.3307339437251E-016,7.61937410711694,-107.99));
#423=VECTOR('',#559,1.0);
#424=PRE_DEFINED_MARKER('');
#425=COLOUR_RGB('',0.800000011920929,0.800000011920929,0.800000011920929);
#426=SURFACE_SIDE_STYLE('',(#560));
#427=EDGE_LOOP('',(#561,#562));
#428=AXIS2_PLACEMENT_3D('',#563,#564,#565);
#429=PRE_DEFINED_MARKER('');
#430=COLOUR_RGB('',0.800000011920929,0.800000011920929,0.800000011920929);
#431=PRE_DEFINED_MARKER('');
#432=COLOUR_RGB('',0.498039215803146,0.498039215803146,0.498039215803146);
#433=DRAUGHTING_PRE_DEFINED_CURVE_FONT('continuous');
#434=COLOUR_RGB('',0.498039215803146,0.498039215803146,0.498039215803146);
#435=AXIS2_PLACEMENT_3D('',#566,#567,#568);
#436=SURFACE_SIDE_STYLE('',(#569));
#437=EDGE_LOOP('',(#570,#571,#572,#573));
#438=AXIS2_PLACEMENT_3D('',#574,#575,#576);
#439=DRAUGHTING_PRE_DEFINED_CURVE_FONT('continuous');
#440=COLOUR_RGB('',0.800000011920929,0.800000011920929,0.800000011920929);
#441=CARTESIAN_POINT('',(-7.38360984114752E-016,6.02937410711694,-57.195));
#442=VECTOR('',#577,1.0);
#444=SURFACE_STYLE_FILL_AREA(#578);
#445=ORIENTED_EDGE('',*,*,#108,.F.);
#446=ORIENTED_EDGE('',*,*,#140,.F.);
#447=ORIENTED_EDGE('',*,*,#152,.T.);
#448=ORIENTED_EDGE('',*,*,#148,.T.);
#449=CARTESIAN_POINT('',(0.0,12.0612482142339,-57.19));
#450=DIRECTION('',(-0.0,0.0,1.0));
#451=DIRECTION('',(0.0,-1.0,0.0));
#452=SURFACE_STYLE_FILL_AREA(#579);
#453=ORIENTED_EDGE('',*,*,#90,.T.);
#454=ORIENTED_EDGE('',*,*,#156,.F.);
#455=ORIENTED_EDGE('',*,*,#136,.T.);
#456=ORIENTED_EDGE('',*,*,#96,.T.);
#457=CARTESIAN_POINT('',(0.0,0.0,-26.0105));
#458=DIRECTION('',(-0.0,-0.0,1.0));
#459=DIRECTION('',(0.0,1.0,0.0));
#460=SURFACE_STYLE_FILL_AREA(#580);
#461=SURFACE_STYLE_FILL_AREA(#581);
#462=ORIENTED_EDGE('',*,*,#158,.T.);
#463=ORIENTED_EDGE('',*,*,#120,.F.);
#464=ORIENTED_EDGE('',*,*,#106,.T.);
#465=ORIENTED_EDGE('',*,*,#140,.T.);
#466=CARTESIAN_POINT('',(0.0,0.0,-107.99));
#467=DIRECTION('',(-0.0,-0.0,1.0));
#468=DIRECTION('',(0.0,1.0,0.0));
#469=DIRECTION('',(0.0,0.0,-1.0));
#470=SURFACE_STYLE_FILL_AREA(#582);
#471=ORIENTED_EDGE('',*,*,#90,.F.);
#472=ORIENTED_EDGE('',*,*,#94,.T.);
#473=ORIENTED_EDGE('',*,*,#136,.F.);
#474=ORIENTED_EDGE('',*,*,#116,.F.);
#475=CARTESIAN_POINT('',(0.0,0.0,-26.0105));
#476=DIRECTION('',(-0.0,-0.0,1.0));
#477=DIRECTION('',(0.0,1.0,0.0));
#478=CARTESIAN_POINT('',(0.0,0.0,-1.18100000000001));
#479=DIRECTION('',(0.0,0.0,-1.0));
#480=DIRECTION('',(0.0,1.0,0.0));
#481=CARTESIAN_POINT('',(0.0,0.0,-1.18100000000001));
#482=DIRECTION('',(0.0,0.0,-1.0));
#483=DIRECTION('',(0.0,1.0,0.0));
#484=CARTESIAN_POINT('',(0.0,0.0,0.00999999999999091));
#485=DIRECTION('',(0.0,0.0,-1.0));
#486=DIRECTION('',(0.0,1.0,0.0));
#487=DIRECTION('',(1.22460593274507E-016,-0.999999656152932,0.00082927318689042));
#488=SURFACE_STYLE_FILL_AREA(#583);
#489=ORIENTED_EDGE('',*,*,#154,.T.);
#490=ORIENTED_EDGE('',*,*,#120,.T.);
#491=CARTESIAN_POINT('',(0.0,1.585,-158.79));
#492=DIRECTION('',(0.0,0.0,-1.0));
#493=DIRECTION('',(0.0,1.0,0.0));
#494=DIRECTION('',(1.06730284727063E-017,-0.08715476968899,0.996194783222869));
#495=CARTESIAN_POINT('',(0.0,0.0,-57.19));
#496=DIRECTION('',(0.0,0.0,-1.0));
#497=DIRECTION('',(0.0,1.0,0.0));
#498=SURFACE_STYLE_FILL_AREA(#584);
#499=ORIENTED_EDGE('',*,*,#130,.F.);
#500=ORIENTED_EDGE('',*,*,#100,.T.);
#501=ORIENTED_EDGE('',*,*,#150,.F.);
#502=ORIENTED_EDGE('',*,*,#94,.F.);
#503=CARTESIAN_POINT('',(0.0,0.0,-0.58550000000001));
#504=DIRECTION('',(0.0,-0.0,-1.0));
#505=DIRECTION('',(0.0,1.0,0.0));
#506=CARTESIAN_POINT('',(0.0,0.0,-57.19));
#507=DIRECTION('',(0.0,0.0,-1.0));
#508=DIRECTION('',(0.0,-1.0,0.0));
#509=SURFACE_STYLE_FILL_AREA(#585);
#510=CARTESIAN_POINT('',(0.0,0.0,-158.79));
#511=DIRECTION('',(0.0,0.0,-1.0));
#512=DIRECTION('',(0.0,1.0,0.0));
#513=SURFACE_STYLE_FILL_AREA(#586);
#514=ORIENTED_EDGE('',*,*,#156,.T.);
#515=ORIENTED_EDGE('',*,*,#116,.T.);
#516=CARTESIAN_POINT('',(0.0,0.0,-57.19));
#517=DIRECTION('',(0.0,0.0,-1.0));
#518=DIRECTION('',(0.0,-1.0,0.0));
#519=DIRECTION('',(-6.12303176911187E-017,0.499999999999999,-0.866025403784439));
#520=SURFACE_STYLE_FILL_AREA(#587);
#521=ORIENTED_EDGE('',*,*,#102,.T.);
#522=ORIENTED_EDGE('',*,*,#152,.F.);
#523=ORIENTED_EDGE('',*,*,#172,.T.);
#524=CARTESIAN_POINT('',(0.0,0.0,-57.195));
#525=DIRECTION('',(-0.0,-0.0,1.0));
#526=DIRECTION('',(0.0,1.0,0.0));
#527=DIRECTION('',(-0.0,-0.0,1.0));
#528=SURFACE_STYLE_FILL_AREA(#588);
#529=ORIENTED_EDGE('',*,*,#102,.F.);
#530=ORIENTED_EDGE('',*,*,#172,.F.);
#531=ORIENTED_EDGE('',*,*,#148,.F.);
#532=CARTESIAN_POINT('',(0.0,0.0,-57.195));
#533=DIRECTION('',(-0.0,-0.0,1.0));
#534=DIRECTION('',(0.0,1.0,0.0));
#535=CARTESIAN_POINT('',(0.0,0.0,-57.19));
#536=DIRECTION('',(0.0,0.0,-1.0));
#537=DIRECTION('',(0.0,1.0,0.0));
#538=SURFACE_STYLE_FILL_AREA(#589);
#539=ORIENTED_EDGE('',*,*,#158,.F.);
#540=ORIENTED_EDGE('',*,*,#108,.T.);
#541=ORIENTED_EDGE('',*,*,#106,.F.);
#542=ORIENTED_EDGE('',*,*,#154,.F.);
#543=CARTESIAN_POINT('',(0.0,0.0,-107.99));
#544=DIRECTION('',(-0.0,-0.0,1.0));
#545=DIRECTION('',(0.0,1.0,0.0));
#546=CARTESIAN_POINT('',(0.0,0.0,-57.19));
#547=DIRECTION('',(0.0,0.0,-1.0));
#548=DIRECTION('',(0.0,1.0,0.0));
#549=DIRECTION('',(-6.12303176911187E-017,0.499999999999999,0.866025403784439));
#550=CARTESIAN_POINT('',(0.0,0.0,-57.19));
#551=DIRECTION('',(0.0,0.0,-1.0));
#552=DIRECTION('',(0.0,1.0,0.0));
#553=CARTESIAN_POINT('',(0.0,0.0,-158.79));
#554=DIRECTION('',(0.0,0.0,-1.0));
#555=DIRECTION('',(0.0,1.0,0.0));
#556=CARTESIAN_POINT('',(0.0,0.0,-57.19));
#557=DIRECTION('',(0.0,0.0,-1.0));
#558=DIRECTION('',(0.0,-1.0,0.0));
#559=DIRECTION('',(1.06730284727063E-017,-0.08715476968899,-0.996194783222869));
#560=SURFACE_STYLE_FILL_AREA(#590);
#561=ORIENTED_EDGE('',*,*,#100,.F.);
#562=ORIENTED_EDGE('',*,*,#168,.F.);
#563=CARTESIAN_POINT('',(0.0,4.41868791469758,0.00999999999999091));
#564=DIRECTION('',(-0.0,0.0,1.0));
#565=DIRECTION('',(0.0,-1.0,0.0));
#566=CARTESIAN_POINT('',(0.0,0.0,0.00999999999999091));
#567=DIRECTION('',(0.0,0.0,-1.0));
#568=DIRECTION('',(0.0,1.0,0.0));
#569=SURFACE_STYLE_FILL_AREA(#591);
#570=ORIENTED_EDGE('',*,*,#130,.T.);
#571=ORIENTED_EDGE('',*,*,#96,.F.);
#572=ORIENTED_EDGE('',*,*,#150,.T.);
#573=ORIENTED_EDGE('',*,*,#168,.T.);
#574=CARTESIAN_POINT('',(0.0,0.0,-0.58550000000001));
#575=DIRECTION('',(0.0,-0.0,-1.0));
#576=DIRECTION('',(0.0,1.0,0.0));
#577=DIRECTION('',(1.22460593274507E-016,-0.999999656152932,-0.00082927318689042));
#578=FILL_AREA_STYLE('',(#592));
#579=FILL_AREA_STYLE('',(#593));
#580=FILL_AREA_STYLE('',(#594));
#581=FILL_AREA_STYLE('',(#595));
#582=FILL_AREA_STYLE('',(#596));
#583=FILL_AREA_STYLE('',(#597));
#584=FILL_AREA_STYLE('',(#598));
#585=FILL_AREA_STYLE('',(#599));
#586=FILL_AREA_STYLE('',(#600));
#587=FILL_AREA_STYLE('',(#601));
#588=FILL_AREA_STYLE('',(#602));
#589=FILL_AREA_STYLE('',(#603));
#590=FILL_AREA_STYLE('',(#604));
#591=FILL_AREA_STYLE('',(#605));
#592=FILL_AREA_STYLE_COLOUR('',#606);
#593=FILL_AREA_STYLE_COLOUR('',#607);
#594=FILL_AREA_STYLE_COLOUR('',#608);
#595=FILL_AREA_STYLE_COLOUR('',#609);
#596=FILL_AREA_STYLE_COLOUR('',#610);
#597=FILL_AREA_STYLE_COLOUR('',#611);
#598=FILL_AREA_STYLE_COLOUR('',#612);
#599=FILL_AREA_STYLE_COLOUR('',#613);
#600=FILL_AREA_STYLE_COLOUR('',#614);
#601=FILL_AREA_STYLE_COLOUR('',#615);
#602=FILL_AREA_STYLE_COLOUR('',#616);
#603=FILL_AREA_STYLE_COLOUR('',#617);
#604=FILL_AREA_STYLE_COLOUR('',#618);
#605=FILL_AREA_STYLE_COLOUR('',#619);
#606=COLOUR_RGB('',0.800000011920929,0.800000011920929,0.800000011920929);
#607=COLOUR_RGB('',0.498039215803146,0.498039215803146,0.498039215803146);
#608=COLOUR_RGB('',0.800000011920929,0.800000011920929,0.800000011920929);
#609=COLOUR_RGB('',0.800000011920929,0.800000011920929,0.800000011920929);
#610=COLOUR_RGB('',0.498039215803146,0.498039215803146,0.498039215803146);
#611=COLOUR_RGB('',0.800000011920929,0.800000011920929,0.800000011920929);
#612=COLOUR_RGB('',0.498039215803146,0.498039215803146,0.498039215803146);
#613=COLOUR_RGB('',0.800000011920929,0.800000011920929,0.800000011920929);
#614=COLOUR_RGB('',0.498039215803146,0.498039215803146,0.498039215803146);
#615=COLOUR_RGB('',0.800000011920929,0.800000011920929,0.800000011920929);
#616=COLOUR_RGB('',0.800000011920929,0.800000011920929,0.800000011920929);
#617=COLOUR_RGB('',0.800000011920929,0.800000011920929,0.800000011920929);
#618=COLOUR_RGB('',0.498039215803146,0.498039215803146,0.498039215803146);
#619=COLOUR_RGB('',0.498039215803146,0.498039215803146,0.498039215803146);
#620=AXIS2_PLACEMENT_3D('PCS',#621,#622,#623);
#621=CARTESIAN_POINT('',(0.0,0.0,0.0));
#622=DIRECTION('',(0.0,0.0,1.0));
#623=DIRECTION('',(1.0,0.0,0.0));
#624=AXIS2_PLACEMENT_3D('CIP',#625,#626,#627);
#625=CARTESIAN_POINT('',(0.0,0.0,-158.8));
#626=DIRECTION('',(0.0,0.0,1.0));
#627=DIRECTION('',(1.0,0.0,0.0));
#628=AXIS2_PLACEMENT_3D('CRP',#629,#630,#631);
#629=CARTESIAN_POINT('',(-3.175,0.0,-158.8));
#630=DIRECTION('',(0.0,0.0,1.0));
#631=DIRECTION('',(1.0,0.0,0.0));
#632=AXIS2_PLACEMENT_3D('MCS',#633,#634,#635);
#633=CARTESIAN_POINT('',(0.0,0.0,-50.85));
#634=DIRECTION('',(0.0,0.0,1.0));
#635=DIRECTION('',(1.0,0.0,0.0));
#636=CONSTRUCTIVE_GEOMETRY_REPRESENTATION_RELATIONSHIP('coordinate systems',$,#65,#637);
#637=CONSTRUCTIVE_GEOMETRY_REPRESENTATION('coordinate systems',(#620,#624,#628,#632),#10);
ENDSEC;
END-ISO-10303-21;
