ISO-10303-21;
HEADER;
FILE_DESCRIPTION(('no description'),'unknown implementation level');
FILE_NAME('solid7TrP7U8WyMQYI4ofy_RPF_cjVdk_1.STP','  ',('CIMSOURCE GmbH'),('CADClick - KiM GmbH - www.kimweb.de'),'unknown preprocess','ACIS','unknown authorization');
FILE_SCHEMA(('automotive_design'));
ENDSEC;
DATA;
#1=MECHANICAL_DESIGN_GEOMETRIC_PRESENTATION_REPRESENTATION(' ',(#14,#15,#16,#17,#18,#19,#20,#21,#22,#23,#24,#25,#26,#27,#28,#29,#30,#31,#32,#33,#34,#35,#36,#37,#38,#39,#40,#41,#42,#43,#44,#45,#46,#47,#48,#49,#50,#51,#52,#53,#54,#55,#56,#57,#58,#59,#60),#10);
#2=PRODUCT_DEFINITION_CONTEXT('',#61,'design');
#3=APPLICATION_PROTOCOL_DEFINITION('INTERNATIONAL STANDARD','automotive_design',1994,#61);
#4=PRODUCT_CATEGORY_RELATIONSHIP('NONE','NONE',#62,#63);
#5=SHAPE_DEFINITION_REPRESENTATION(#64,#65);
#6=PRODUCT_DEFINITION_CONTEXT('',#66,'design');
#7=APPLICATION_PROTOCOL_DEFINITION('INTERNATIONAL STANDARD','automotive_design',1994,#66);
#8=PRODUCT_CATEGORY_RELATIONSHIP('NONE','NONE',#67,#68);
#9=SHAPE_DEFINITION_REPRESENTATION(#69,#70);
#10= (GEOMETRIC_REPRESENTATION_CONTEXT(3)GLOBAL_UNCERTAINTY_ASSIGNED_CONTEXT((#73))GLOBAL_UNIT_ASSIGNED_CONTEXT((#75,#76,#77))REPRESENTATION_CONTEXT('NONE','WORKSPACE'));
#14=STYLED_ITEM('',(#79),#80);
#15=STYLED_ITEM('',(#81),#82);
#16=STYLED_ITEM('',(#83),#84);
#17=STYLED_ITEM('',(#85),#86);
#18=STYLED_ITEM('',(#87),#88);
#19=STYLED_ITEM('',(#89),#90);
#20=STYLED_ITEM('',(#91),#92);
#21=STYLED_ITEM('',(#93),#94);
#22=STYLED_ITEM('',(#95),#96);
#23=STYLED_ITEM('',(#97),#98);
#24=STYLED_ITEM('',(#99),#100);
#25=STYLED_ITEM('',(#101),#102);
#26=STYLED_ITEM('',(#103),#104);
#27=STYLED_ITEM('',(#105),#106);
#28=STYLED_ITEM('',(#107),#108);
#29=STYLED_ITEM('',(#109),#110);
#30=STYLED_ITEM('',(#111),#112);
#31=STYLED_ITEM('',(#113),#114);
#32=STYLED_ITEM('',(#115),#116);
#33=STYLED_ITEM('',(#117),#118);
#34=STYLED_ITEM('',(#119),#120);
#35=STYLED_ITEM('',(#121),#122);
#36=STYLED_ITEM('',(#123),#124);
#37=STYLED_ITEM('',(#125),#126);
#38=STYLED_ITEM('',(#127),#128);
#39=STYLED_ITEM('',(#129),#130);
#40=STYLED_ITEM('',(#131),#132);
#41=STYLED_ITEM('',(#133),#134);
#42=STYLED_ITEM('',(#135),#136);
#43=STYLED_ITEM('',(#137),#138);
#44=STYLED_ITEM('',(#139),#140);
#45=STYLED_ITEM('',(#141),#142);
#46=STYLED_ITEM('',(#143),#144);
#47=STYLED_ITEM('',(#145),#146);
#48=STYLED_ITEM('',(#147),#148);
#49=STYLED_ITEM('',(#149),#150);
#50=STYLED_ITEM('',(#151),#152);
#51=STYLED_ITEM('',(#153),#154);
#52=STYLED_ITEM('',(#155),#156);
#53=STYLED_ITEM('',(#157),#158);
#54=STYLED_ITEM('',(#159),#160);
#55=STYLED_ITEM('',(#161),#162);
#56=STYLED_ITEM('',(#163),#164);
#57=STYLED_ITEM('',(#165),#166);
#58=STYLED_ITEM('',(#167),#168);
#59=STYLED_ITEM('',(#169),#170);
#60=STYLED_ITEM('',(#171),#172);
#61=APPLICATION_CONTEXT(' ');
#62=PRODUCT_CATEGORY('part','NONE');
#63=PRODUCT_RELATED_PRODUCT_CATEGORY('detail',' ',(#173));
#64=PRODUCT_DEFINITION_SHAPE('NONE','NONE',#174);
#65=ADVANCED_BREP_SHAPE_REPRESENTATION('1',(#112,#175),#10);
#66=APPLICATION_CONTEXT(' ');
#67=PRODUCT_CATEGORY('part','NONE');
#68=PRODUCT_RELATED_PRODUCT_CATEGORY('detail',' ',(#176));
#69=PRODUCT_DEFINITION_SHAPE('NONE','NONE',#177);
#70=ADVANCED_BREP_SHAPE_REPRESENTATION('2',(#164,#178),#10);
#73=UNCERTAINTY_MEASURE_WITH_UNIT(LENGTH_MEASURE(1.0E-006),#75,'','');
#75= (CONVERSION_BASED_UNIT('MILLIMETRE',#181)LENGTH_UNIT()NAMED_UNIT(#184));
#76= (NAMED_UNIT(#186)PLANE_ANGLE_UNIT()SI_UNIT($,.RADIAN.));
#77= (NAMED_UNIT(#186)SOLID_ANGLE_UNIT()SI_UNIT($,.STERADIAN.));
#79=PRESENTATION_STYLE_ASSIGNMENT((#192));
#80=VERTEX_POINT('',#193);
#81=PRESENTATION_STYLE_ASSIGNMENT((#194));
#82=VERTEX_POINT('',#195);
#83=PRESENTATION_STYLE_ASSIGNMENT((#196));
#84=ADVANCED_FACE('',(#197),#198,.F.);
#85=PRESENTATION_STYLE_ASSIGNMENT((#199));
#86=VERTEX_POINT('',#200);
#87=PRESENTATION_STYLE_ASSIGNMENT((#201));
#88=EDGE_CURVE('',#80,#146,#202,.T.);
#89=PRESENTATION_STYLE_ASSIGNMENT((#203));
#90=EDGE_CURVE('',#132,#160,#204,.T.);
#91=PRESENTATION_STYLE_ASSIGNMENT((#205));
#92=ADVANCED_FACE('',(#206,#207),#208,.T.);
#93=PRESENTATION_STYLE_ASSIGNMENT((#209));
#94=EDGE_CURVE('',#152,#132,#210,.T.);
#95=PRESENTATION_STYLE_ASSIGNMENT((#211));
#96=EDGE_CURVE('',#128,#82,#212,.T.);
#97=PRESENTATION_STYLE_ASSIGNMENT((#213));
#98=ADVANCED_FACE('',(#214),#215,.T.);
#99=PRESENTATION_STYLE_ASSIGNMENT((#216));
#100=VERTEX_POINT('',#217);
#101=PRESENTATION_STYLE_ASSIGNMENT((#218));
#102=EDGE_CURVE('',#100,#142,#219,.T.);
#103=PRESENTATION_STYLE_ASSIGNMENT((#220));
#104=EDGE_CURVE('',#142,#100,#221,.T.);
#105=PRESENTATION_STYLE_ASSIGNMENT((#222));
#106=EDGE_CURVE('',#124,#152,#223,.T.);
#107=PRESENTATION_STYLE_ASSIGNMENT((#224));
#108=EDGE_CURVE('',#100,#146,#225,.T.);
#109=PRESENTATION_STYLE_ASSIGNMENT((#226));
#110=EDGE_CURVE('',#124,#160,#227,.T.);
#111=PRESENTATION_STYLE_ASSIGNMENT((#228));
#112=MANIFOLD_SOLID_BREP('1',#229);
#113=PRESENTATION_STYLE_ASSIGNMENT((#230));
#114=EDGE_CURVE('',#86,#120,#231,.T.);
#115=PRESENTATION_STYLE_ASSIGNMENT((#232));
#116=VERTEX_POINT('',#233);
#117=PRESENTATION_STYLE_ASSIGNMENT((#234));
#118=EDGE_CURVE('',#82,#128,#235,.T.);
#119=PRESENTATION_STYLE_ASSIGNMENT((#236));
#120=VERTEX_POINT('',#237);
#121=PRESENTATION_STYLE_ASSIGNMENT((#238));
#122=EDGE_CURVE('',#80,#142,#239,.T.);
#123=PRESENTATION_STYLE_ASSIGNMENT((#240));
#124=VERTEX_POINT('',#241);
#125=PRESENTATION_STYLE_ASSIGNMENT((#242));
#126=EDGE_CURVE('',#146,#80,#243,.T.);
#127=PRESENTATION_STYLE_ASSIGNMENT((#244));
#128=VERTEX_POINT('',#245);
#129=PRESENTATION_STYLE_ASSIGNMENT((#246));
#130=EDGE_CURVE('',#160,#124,#247,.T.);
#131=PRESENTATION_STYLE_ASSIGNMENT((#248));
#132=VERTEX_POINT('',#249);
#133=PRESENTATION_STYLE_ASSIGNMENT((#250));
#134=EDGE_CURVE('',#132,#152,#251,.T.);
#135=PRESENTATION_STYLE_ASSIGNMENT((#252));
#136=ADVANCED_FACE('',(#253),#254,.T.);
#137=PRESENTATION_STYLE_ASSIGNMENT((#255));
#138=ADVANCED_FACE('',(#256),#257,.F.);
#139=PRESENTATION_STYLE_ASSIGNMENT((#258));
#140=ADVANCED_FACE('',(#259),#260,.T.);
#141=PRESENTATION_STYLE_ASSIGNMENT((#261));
#142=VERTEX_POINT('',#262);
#143=PRESENTATION_STYLE_ASSIGNMENT((#263));
#144=EDGE_CURVE('',#82,#124,#264,.T.);
#145=PRESENTATION_STYLE_ASSIGNMENT((#265));
#146=VERTEX_POINT('',#266);
#147=PRESENTATION_STYLE_ASSIGNMENT((#267));
#148=ADVANCED_FACE('',(#268),#269,.T.);
#149=PRESENTATION_STYLE_ASSIGNMENT((#270));
#150=EDGE_CURVE('',#86,#116,#271,.T.);
#151=PRESENTATION_STYLE_ASSIGNMENT((#272));
#152=VERTEX_POINT('',#273);
#153=PRESENTATION_STYLE_ASSIGNMENT((#274));
#154=ADVANCED_FACE('',(#275),#276,.T.);
#155=PRESENTATION_STYLE_ASSIGNMENT((#277));
#156=EDGE_CURVE('',#160,#128,#278,.T.);
#157=PRESENTATION_STYLE_ASSIGNMENT((#279));
#158=ADVANCED_FACE('',(#280),#281,.T.);
#159=PRESENTATION_STYLE_ASSIGNMENT((#282));
#160=VERTEX_POINT('',#283);
#161=PRESENTATION_STYLE_ASSIGNMENT((#284));
#162=EDGE_CURVE('',#116,#86,#285,.T.);
#163=PRESENTATION_STYLE_ASSIGNMENT((#286));
#164=MANIFOLD_SOLID_BREP('2',#287);
#165=PRESENTATION_STYLE_ASSIGNMENT((#288));
#166=ADVANCED_FACE('',(#289),#290,.T.);
#167=PRESENTATION_STYLE_ASSIGNMENT((#291));
#168=ADVANCED_FACE('',(#292),#293,.T.);
#169=PRESENTATION_STYLE_ASSIGNMENT((#294));
#170=ADVANCED_FACE('',(#295),#296,.T.);
#171=PRESENTATION_STYLE_ASSIGNMENT((#297));
#172=EDGE_CURVE('',#120,#116,#298,.T.);
#173=PRODUCT('1','1','PART-1-DESC',(#299));
#174=PRODUCT_DEFINITION('NONE','NONE',#300,#2);
#175=AXIS2_PLACEMENT_3D('',#301,#302,#303);
#176=PRODUCT('2','2','PART-2-DESC',(#304));
#177=PRODUCT_DEFINITION('NONE','NONE',#305,#6);
#178=AXIS2_PLACEMENT_3D('',#306,#307,#308);
#181=LENGTH_MEASURE_WITH_UNIT(LENGTH_MEASURE(1.0),#309);
#184=DIMENSIONAL_EXPONENTS(1.0,0.0,0.0,0.0,0.0,0.0,0.0);
#186=DIMENSIONAL_EXPONENTS(0.0,0.0,0.0,0.0,0.0,0.0,0.0);
#192=POINT_STYLE(' ',#310,POSITIVE_LENGTH_MEASURE(1.0E-006),#311);
#193=CARTESIAN_POINT('',(5.83218776007907E-016,-4.7625,-114.29));
#194=POINT_STYLE(' ',#312,POSITIVE_LENGTH_MEASURE(1.0E-006),#313);
#195=CARTESIAN_POINT('',(0.0,-9.525,-57.09));
#196=SURFACE_STYLE_USAGE(.BOTH.,#314);
#197=FACE_OUTER_BOUND('',#315,.T.);
#198=CONICAL_SURFACE('',#316,4.88087577684143,1.56977192083179);
#199=POINT_STYLE(' ',#317,POSITIVE_LENGTH_MEASURE(1.0E-006),#318);
#200=CARTESIAN_POINT('',(0.0,9.76175155368285,-57.09));
#201=CURVE_STYLE('',#319,POSITIVE_LENGTH_MEASURE(1.0E-006),#320);
#202=CIRCLE('',#321,4.7625);
#203=CURVE_STYLE('',#322,POSITIVE_LENGTH_MEASURE(1.0E-006),#323);
#204=LINE('',#324,#325);
#205=SURFACE_STYLE_USAGE(.BOTH.,#326);
#206=FACE_OUTER_BOUND('',#327,.T.);
#207=FACE_BOUND('',#328,.T.);
#208=PLANE('',#329);
#209=CURVE_STYLE('',#330,POSITIVE_LENGTH_MEASURE(1.0E-006),#331);
#210=CIRCLE('',#332,8.83737582939516);
#211=CURVE_STYLE('',#333,POSITIVE_LENGTH_MEASURE(1.0E-006),#334);
#212=CIRCLE('',#335,9.525);
#213=SURFACE_STYLE_USAGE(.BOTH.,#336);
#214=FACE_OUTER_BOUND('',#337,.T.);
#215=PLANE('',#338);
#216=POINT_STYLE(' ',#339,POSITIVE_LENGTH_MEASURE(1.0E-006),#340);
#217=CARTESIAN_POINT('',(0.0,9.76675155368285,-57.09));
#218=CURVE_STYLE('',#341,POSITIVE_LENGTH_MEASURE(1.0E-006),#342);
#219=CIRCLE('',#343,9.76675155368285);
#220=CURVE_STYLE('',#344,POSITIVE_LENGTH_MEASURE(1.0E-006),#345);
#221=CIRCLE('',#346,9.76675155368285);
#222=CURVE_STYLE('',#347,POSITIVE_LENGTH_MEASURE(1.0E-006),#348);
#223=LINE('',#349,#350);
#224=CURVE_STYLE('',#351,POSITIVE_LENGTH_MEASURE(1.0E-006),#352);
#225=LINE('',#353,#354);
#226=CURVE_STYLE('',#355,POSITIVE_LENGTH_MEASURE(1.0E-006),#356);
#227=CIRCLE('',#357,9.525);
#228=SURFACE_STYLE_USAGE(.BOTH.,#358);
#229=CLOSED_SHELL('',(#158,#84,#138,#92,#148,#168));
#230=CURVE_STYLE('',#359,POSITIVE_LENGTH_MEASURE(1.0E-006),#360);
#231=LINE('',#361,#362);
#232=POINT_STYLE(' ',#363,POSITIVE_LENGTH_MEASURE(1.0E-006),#364);
#233=CARTESIAN_POINT('',(1.19543029770755E-015,-9.76175155368285,-57.09));
#234=CURVE_STYLE('',#365,POSITIVE_LENGTH_MEASURE(1.0E-006),#366);
#235=CIRCLE('',#367,9.525);
#236=POINT_STYLE(' ',#368,POSITIVE_LENGTH_MEASURE(1.0E-006),#369);
#237=CARTESIAN_POINT('',(0.0,0.0,-57.1));
#238=CURVE_STYLE('',#370,POSITIVE_LENGTH_MEASURE(1.0E-006),#371);
#239=LINE('',#372,#373);
#240=POINT_STYLE(' ',#374,POSITIVE_LENGTH_MEASURE(1.0E-006),#375);
#241=CARTESIAN_POINT('',(1.16643755201581E-015,-9.525,-1.181));
#242=CURVE_STYLE('',#376,POSITIVE_LENGTH_MEASURE(1.0E-006),#377);
#243=CIRCLE('',#378,4.7625);
#244=POINT_STYLE(' ',#379,POSITIVE_LENGTH_MEASURE(1.0E-006),#380);
#245=CARTESIAN_POINT('',(-1.16643755201581E-015,9.525,-57.09));
#246=CURVE_STYLE('',#381,POSITIVE_LENGTH_MEASURE(1.0E-006),#382);
#247=CIRCLE('',#383,9.525);
#248=POINT_STYLE(' ',#384,POSITIVE_LENGTH_MEASURE(1.0E-006),#385);
#249=CARTESIAN_POINT('',(0.0,8.83737582939516,0.00999999999999801));
#250=CURVE_STYLE('',#386,POSITIVE_LENGTH_MEASURE(1.0E-006),#387);
#251=CIRCLE('',#388,8.83737582939516);
#252=SURFACE_STYLE_USAGE(.BOTH.,#389);
#253=FACE_OUTER_BOUND('',#390,.T.);
#254=PLANE('',#391);
#255=SURFACE_STYLE_USAGE(.BOTH.,#392);
#256=FACE_OUTER_BOUND('',#393,.T.);
#257=CONICAL_SURFACE('',#394,4.88087577684143,1.56977192083179);
#258=SURFACE_STYLE_USAGE(.BOTH.,#395);
#259=FACE_OUTER_BOUND('',#396,.T.);
#260=CYLINDRICAL_SURFACE('',#397,9.525);
#261=POINT_STYLE(' ',#398,POSITIVE_LENGTH_MEASURE(1.0E-006),#399);
#262=CARTESIAN_POINT('',(1.19604260088446E-015,-9.76675155368285,-57.09));
#263=CURVE_STYLE('',#400,POSITIVE_LENGTH_MEASURE(1.0E-006),#401);
#264=LINE('',#402,#403);
#265=POINT_STYLE(' ',#404,POSITIVE_LENGTH_MEASURE(1.0E-006),#405);
#266=CARTESIAN_POINT('',(0.0,4.7625,-114.29));
#267=SURFACE_STYLE_USAGE(.BOTH.,#406);
#268=FACE_OUTER_BOUND('',#407,.T.);
#269=CONICAL_SURFACE('',#408,7.26462577684143,0.087264727627641);
#270=CURVE_STYLE('',#409,POSITIVE_LENGTH_MEASURE(1.0E-006),#410);
#271=CIRCLE('',#411,9.76175155368285);
#272=POINT_STYLE(' ',#412,POSITIVE_LENGTH_MEASURE(1.0E-006),#413);
#273=CARTESIAN_POINT('',(1.08223065917936E-015,-8.83737582939516,0.00999999999999801));
#274=SURFACE_STYLE_USAGE(.BOTH.,#414);
#275=FACE_OUTER_BOUND('',#415,.T.);
#276=CONICAL_SURFACE('',#416,9.18118791469758,0.523598775598298);
#277=CURVE_STYLE('',#417,POSITIVE_LENGTH_MEASURE(1.0E-006),#418);
#278=LINE('',#419,#420);
#279=SURFACE_STYLE_USAGE(.BOTH.,#421);
#280=FACE_OUTER_BOUND('',#422,.T.);
#281=CONICAL_SURFACE('',#423,7.26462577684143,0.087264727627641);
#282=POINT_STYLE(' ',#424,POSITIVE_LENGTH_MEASURE(1.0E-006),#425);
#283=CARTESIAN_POINT('',(0.0,9.525,-1.181));
#284=CURVE_STYLE('',#426,POSITIVE_LENGTH_MEASURE(1.0E-006),#427);
#285=CIRCLE('',#428,9.76175155368285);
#286=SURFACE_STYLE_USAGE(.BOTH.,#429);
#287=CLOSED_SHELL('',(#140,#166,#136,#98,#154,#170));
#288=SURFACE_STYLE_USAGE(.BOTH.,#430);
#289=FACE_OUTER_BOUND('',#431,.T.);
#290=CONICAL_SURFACE('',#432,9.18118791469758,0.523598775598298);
#291=SURFACE_STYLE_USAGE(.BOTH.,#433);
#292=FACE_OUTER_BOUND('',#434,.T.);
#293=PLANE('',#435);
#294=SURFACE_STYLE_USAGE(.BOTH.,#436);
#295=FACE_OUTER_BOUND('',#437,.T.);
#296=CYLINDRICAL_SURFACE('',#438,9.525);
#297=CURVE_STYLE('',#439,POSITIVE_LENGTH_MEASURE(1.0E-006),#440);
#298=LINE('',#441,#442);
#299=PRODUCT_CONTEXT('',#61,'mechanical');
#300=PRODUCT_DEFINITION_FORMATION_WITH_SPECIFIED_SOURCE(' ','NONE',#173,.NOT_KNOWN.);
#301=CARTESIAN_POINT('',(0.0,0.0,0.0));
#302=DIRECTION('',(0.0,0.0,1.0));
#303=DIRECTION('',(1.0,0.0,0.0));
#304=PRODUCT_CONTEXT('',#66,'mechanical');
#305=PRODUCT_DEFINITION_FORMATION_WITH_SPECIFIED_SOURCE(' ','NONE',#176,.NOT_KNOWN.);
#306=CARTESIAN_POINT('',(0.0,0.0,0.0));
#307=DIRECTION('',(0.0,0.0,1.0));
#308=DIRECTION('',(1.0,0.0,0.0));
#309= (NAMED_UNIT(#184)LENGTH_UNIT()SI_UNIT(.MILLI.,.METRE.));
#310=PRE_DEFINED_MARKER('');
#311=COLOUR_RGB('',0.800000011920929,0.800000011920929,0.800000011920929);
#312=PRE_DEFINED_MARKER('');
#313=COLOUR_RGB('',0.498039215803146,0.498039215803146,0.498039215803146);
#314=SURFACE_SIDE_STYLE('',(#444));
#315=EDGE_LOOP('',(#445,#446,#447));
#316=AXIS2_PLACEMENT_3D('',#448,#449,#450);
#317=PRE_DEFINED_MARKER('');
#318=COLOUR_RGB('',0.800000011920929,0.800000011920929,0.800000011920929);
#319=DRAUGHTING_PRE_DEFINED_CURVE_FONT('continuous');
#320=COLOUR_RGB('',0.800000011920929,0.800000011920929,0.800000011920929);
#321=AXIS2_PLACEMENT_3D('',#451,#452,#453);
#322=DRAUGHTING_PRE_DEFINED_CURVE_FONT('continuous');
#323=COLOUR_RGB('',0.498039215803146,0.498039215803146,0.498039215803146);
#324=CARTESIAN_POINT('',(-1.12433410559759E-015,9.18118791469758,-0.585500000000003));
#325=VECTOR('',#454,1.0);
#326=SURFACE_SIDE_STYLE('',(#455));
#327=EDGE_LOOP('',(#456,#457));
#328=EDGE_LOOP('',(#458,#459));
#329=AXIS2_PLACEMENT_3D('',#460,#461,#462);
#330=DRAUGHTING_PRE_DEFINED_CURVE_FONT('continuous');
#331=COLOUR_RGB('',0.498039215803146,0.498039215803146,0.498039215803146);
#332=AXIS2_PLACEMENT_3D('',#463,#464,#465);
#333=DRAUGHTING_PRE_DEFINED_CURVE_FONT('continuous');
#334=COLOUR_RGB('',0.498039215803146,0.498039215803146,0.498039215803146);
#335=AXIS2_PLACEMENT_3D('',#466,#467,#468);
#336=SURFACE_SIDE_STYLE('',(#469));
#337=EDGE_LOOP('',(#470,#471));
#338=AXIS2_PLACEMENT_3D('',#472,#473,#474);
#339=PRE_DEFINED_MARKER('');
#340=COLOUR_RGB('',0.800000011920929,0.800000011920929,0.800000011920929);
#341=DRAUGHTING_PRE_DEFINED_CURVE_FONT('continuous');
#342=COLOUR_RGB('',0.800000011920929,0.800000011920929,0.800000011920929);
#343=AXIS2_PLACEMENT_3D('',#475,#476,#477);
#344=DRAUGHTING_PRE_DEFINED_CURVE_FONT('continuous');
#345=COLOUR_RGB('',0.800000011920929,0.800000011920929,0.800000011920929);
#346=AXIS2_PLACEMENT_3D('',#478,#479,#480);
#347=DRAUGHTING_PRE_DEFINED_CURVE_FONT('continuous');
#348=COLOUR_RGB('',0.498039215803146,0.498039215803146,0.498039215803146);
#349=CARTESIAN_POINT('',(1.12433410559759E-015,-9.18118791469758,-0.585500000000003));
#350=VECTOR('',#481,1.0);
#351=DRAUGHTING_PRE_DEFINED_CURVE_FONT('continuous');
#352=COLOUR_RGB('',0.800000011920929,0.800000011920929,0.800000011920929);
#353=CARTESIAN_POINT('',(-8.89630688446183E-016,7.26462577684143,-85.69));
#354=VECTOR('',#482,1.0);
#355=DRAUGHTING_PRE_DEFINED_CURVE_FONT('continuous');
#356=COLOUR_RGB('',0.498039215803146,0.498039215803146,0.498039215803146);
#357=AXIS2_PLACEMENT_3D('',#483,#484,#485);
#358=SURFACE_SIDE_STYLE('',(#486));
#359=DRAUGHTING_PRE_DEFINED_CURVE_FONT('continuous');
#360=COLOUR_RGB('',0.800000011920929,0.800000011920929,0.800000011920929);
#361=CARTESIAN_POINT('',(-5.97715148853774E-016,4.88087577684142,-57.095));
#362=VECTOR('',#487,1.0);
#363=PRE_DEFINED_MARKER('');
#364=COLOUR_RGB('',0.800000011920929,0.800000011920929,0.800000011920929);
#365=DRAUGHTING_PRE_DEFINED_CURVE_FONT('continuous');
#366=COLOUR_RGB('',0.498039215803146,0.498039215803146,0.498039215803146);
#367=AXIS2_PLACEMENT_3D('',#488,#489,#490);
#368=PRE_DEFINED_MARKER('');
#369=COLOUR_RGB('',0.800000011920929,0.800000011920929,0.800000011920929);
#370=DRAUGHTING_PRE_DEFINED_CURVE_FONT('continuous');
#371=COLOUR_RGB('',0.800000011920929,0.800000011920929,0.800000011920929);
#372=CARTESIAN_POINT('',(8.89630688446183E-016,-7.26462577684143,-85.69));
#373=VECTOR('',#491,1.0);
#374=PRE_DEFINED_MARKER('');
#375=COLOUR_RGB('',0.498039215803146,0.498039215803146,0.498039215803146);
#376=DRAUGHTING_PRE_DEFINED_CURVE_FONT('continuous');
#377=COLOUR_RGB('',0.800000011920929,0.800000011920929,0.800000011920929);
#378=AXIS2_PLACEMENT_3D('',#492,#493,#494);
#379=PRE_DEFINED_MARKER('');
#380=COLOUR_RGB('',0.498039215803146,0.498039215803146,0.498039215803146);
#381=DRAUGHTING_PRE_DEFINED_CURVE_FONT('continuous');
#382=COLOUR_RGB('',0.498039215803146,0.498039215803146,0.498039215803146);
#383=AXIS2_PLACEMENT_3D('',#495,#496,#497);
#384=PRE_DEFINED_MARKER('');
#385=COLOUR_RGB('',0.498039215803146,0.498039215803146,0.498039215803146);
#386=DRAUGHTING_PRE_DEFINED_CURVE_FONT('continuous');
#387=COLOUR_RGB('',0.498039215803146,0.498039215803146,0.498039215803146);
#388=AXIS2_PLACEMENT_3D('',#498,#499,#500);
#389=SURFACE_SIDE_STYLE('',(#501));
#390=EDGE_LOOP('',(#502,#503));
#391=AXIS2_PLACEMENT_3D('',#504,#505,#506);
#392=SURFACE_SIDE_STYLE('',(#507));
#393=EDGE_LOOP('',(#508,#509,#510));
#394=AXIS2_PLACEMENT_3D('',#511,#512,#513);
#395=SURFACE_SIDE_STYLE('',(#514));
#396=EDGE_LOOP('',(#515,#516,#517,#518));
#397=AXIS2_PLACEMENT_3D('',#519,#520,#521);
#398=PRE_DEFINED_MARKER('');
#399=COLOUR_RGB('',0.800000011920929,0.800000011920929,0.800000011920929);
#400=DRAUGHTING_PRE_DEFINED_CURVE_FONT('continuous');
#401=COLOUR_RGB('',0.498039215803146,0.498039215803146,0.498039215803146);
#402=CARTESIAN_POINT('',(1.16643755201581E-015,-9.525,-24.373));
#403=VECTOR('',#522,1.0);
#404=PRE_DEFINED_MARKER('');
#405=COLOUR_RGB('',0.800000011920929,0.800000011920929,0.800000011920929);
#406=SURFACE_SIDE_STYLE('',(#523));
#407=EDGE_LOOP('',(#524,#525,#526,#527));
#408=AXIS2_PLACEMENT_3D('',#528,#529,#530);
#409=DRAUGHTING_PRE_DEFINED_CURVE_FONT('continuous');
#410=COLOUR_RGB('',0.800000011920929,0.800000011920929,0.800000011920929);
#411=AXIS2_PLACEMENT_3D('',#531,#532,#533);
#412=PRE_DEFINED_MARKER('');
#413=COLOUR_RGB('',0.498039215803146,0.498039215803146,0.498039215803146);
#414=SURFACE_SIDE_STYLE('',(#534));
#415=EDGE_LOOP('',(#535,#536,#537,#538));
#416=AXIS2_PLACEMENT_3D('',#539,#540,#541);
#417=DRAUGHTING_PRE_DEFINED_CURVE_FONT('continuous');
#418=COLOUR_RGB('',0.498039215803146,0.498039215803146,0.498039215803146);
#419=CARTESIAN_POINT('',(-1.16643755201581E-015,9.525,-24.373));
#420=VECTOR('',#542,1.0);
#421=SURFACE_SIDE_STYLE('',(#543));
#422=EDGE_LOOP('',(#544,#545,#546,#547));
#423=AXIS2_PLACEMENT_3D('',#548,#549,#550);
#424=PRE_DEFINED_MARKER('');
#425=COLOUR_RGB('',0.498039215803146,0.498039215803146,0.498039215803146);
#426=DRAUGHTING_PRE_DEFINED_CURVE_FONT('continuous');
#427=COLOUR_RGB('',0.800000011920929,0.800000011920929,0.800000011920929);
#428=AXIS2_PLACEMENT_3D('',#551,#552,#553);
#429=SURFACE_SIDE_STYLE('',(#554));
#430=SURFACE_SIDE_STYLE('',(#555));
#431=EDGE_LOOP('',(#556,#557,#558,#559));
#432=AXIS2_PLACEMENT_3D('',#560,#561,#562);
#433=SURFACE_SIDE_STYLE('',(#563));
#434=EDGE_LOOP('',(#564,#565));
#435=AXIS2_PLACEMENT_3D('',#566,#567,#568);
#436=SURFACE_SIDE_STYLE('',(#569));
#437=EDGE_LOOP('',(#570,#571,#572,#573));
#438=AXIS2_PLACEMENT_3D('',#574,#575,#576);
#439=DRAUGHTING_PRE_DEFINED_CURVE_FONT('continuous');
#440=COLOUR_RGB('',0.800000011920929,0.800000011920929,0.800000011920929);
#441=CARTESIAN_POINT('',(5.97715148853774E-016,-4.88087577684142,-57.095));
#442=VECTOR('',#577,1.0);
#444=SURFACE_STYLE_FILL_AREA(#578);
#445=ORIENTED_EDGE('',*,*,#172,.F.);
#446=ORIENTED_EDGE('',*,*,#114,.F.);
#447=ORIENTED_EDGE('',*,*,#162,.F.);
#448=CARTESIAN_POINT('',(0.0,0.0,-57.095));
#449=DIRECTION('',(-0.0,-0.0,1.0));
#450=DIRECTION('',(0.0,1.0,0.0));
#451=CARTESIAN_POINT('',(0.0,0.0,-114.29));
#452=DIRECTION('',(0.0,0.0,-1.0));
#453=DIRECTION('',(0.0,1.0,0.0));
#454=DIRECTION('',(-6.12303176911187E-017,0.499999999999999,-0.866025403784439));
#455=SURFACE_STYLE_FILL_AREA(#579);
#456=ORIENTED_EDGE('',*,*,#102,.F.);
#457=ORIENTED_EDGE('',*,*,#104,.F.);
#458=ORIENTED_EDGE('',*,*,#150,.T.);
#459=ORIENTED_EDGE('',*,*,#162,.T.);
#460=CARTESIAN_POINT('',(0.0,9.76425155368285,-57.09));
#461=DIRECTION('',(-0.0,0.0,1.0));
#462=DIRECTION('',(0.0,-1.0,0.0));
#463=CARTESIAN_POINT('',(0.0,0.0,0.00999999999999801));
#464=DIRECTION('',(0.0,0.0,-1.0));
#465=DIRECTION('',(0.0,1.0,0.0));
#466=CARTESIAN_POINT('',(0.0,0.0,-57.09));
#467=DIRECTION('',(0.0,0.0,-1.0));
#468=DIRECTION('',(0.0,-1.0,0.0));
#469=SURFACE_STYLE_FILL_AREA(#580);
#470=ORIENTED_EDGE('',*,*,#134,.F.);
#471=ORIENTED_EDGE('',*,*,#94,.F.);
#472=CARTESIAN_POINT('',(0.0,4.41868791469758,0.00999999999999801));
#473=DIRECTION('',(-0.0,0.0,1.0));
#474=DIRECTION('',(0.0,-1.0,0.0));
#475=CARTESIAN_POINT('',(0.0,0.0,-57.09));
#476=DIRECTION('',(0.0,0.0,-1.0));
#477=DIRECTION('',(0.0,1.0,0.0));
#478=CARTESIAN_POINT('',(0.0,0.0,-57.09));
#479=DIRECTION('',(0.0,0.0,-1.0));
#480=DIRECTION('',(0.0,1.0,0.0));
#481=DIRECTION('',(-6.12303176911187E-017,0.499999999999999,0.866025403784439));
#482=DIRECTION('',(1.06729359767867E-017,-0.0871540143775441,-0.996194849303026));
#483=CARTESIAN_POINT('',(0.0,0.0,-1.181));
#484=DIRECTION('',(0.0,0.0,-1.0));
#485=DIRECTION('',(0.0,1.0,0.0));
#486=SURFACE_STYLE_FILL_AREA(#581);
#487=DIRECTION('',(1.22460571126684E-016,-0.999999475296257,-0.00102440578393789));
#488=CARTESIAN_POINT('',(0.0,0.0,-57.09));
#489=DIRECTION('',(0.0,0.0,-1.0));
#490=DIRECTION('',(0.0,-1.0,0.0));
#491=DIRECTION('',(1.06729359767867E-017,-0.0871540143775441,0.996194849303026));
#492=CARTESIAN_POINT('',(0.0,0.0,-114.29));
#493=DIRECTION('',(0.0,0.0,-1.0));
#494=DIRECTION('',(0.0,1.0,0.0));
#495=CARTESIAN_POINT('',(0.0,0.0,-1.181));
#496=DIRECTION('',(0.0,0.0,-1.0));
#497=DIRECTION('',(0.0,1.0,0.0));
#498=CARTESIAN_POINT('',(0.0,0.0,0.00999999999999801));
#499=DIRECTION('',(0.0,0.0,-1.0));
#500=DIRECTION('',(0.0,1.0,0.0));
#501=SURFACE_STYLE_FILL_AREA(#582);
#502=ORIENTED_EDGE('',*,*,#118,.T.);
#503=ORIENTED_EDGE('',*,*,#96,.T.);
#504=CARTESIAN_POINT('',(0.0,0.0,-57.09));
#505=DIRECTION('',(0.0,0.0,-1.0));
#506=DIRECTION('',(0.0,-1.0,0.0));
#507=SURFACE_STYLE_FILL_AREA(#583);
#508=ORIENTED_EDGE('',*,*,#172,.T.);
#509=ORIENTED_EDGE('',*,*,#150,.F.);
#510=ORIENTED_EDGE('',*,*,#114,.T.);
#511=CARTESIAN_POINT('',(0.0,0.0,-57.095));
#512=DIRECTION('',(-0.0,-0.0,1.0));
#513=DIRECTION('',(0.0,1.0,0.0));
#514=SURFACE_STYLE_FILL_AREA(#584);
#515=ORIENTED_EDGE('',*,*,#156,.F.);
#516=ORIENTED_EDGE('',*,*,#130,.T.);
#517=ORIENTED_EDGE('',*,*,#144,.F.);
#518=ORIENTED_EDGE('',*,*,#96,.F.);
#519=CARTESIAN_POINT('',(0.0,0.0,-24.373));
#520=DIRECTION('',(-0.0,-0.0,1.0));
#521=DIRECTION('',(0.0,1.0,0.0));
#522=DIRECTION('',(-0.0,-0.0,1.0));
#523=SURFACE_STYLE_FILL_AREA(#585);
#524=ORIENTED_EDGE('',*,*,#108,.T.);
#525=ORIENTED_EDGE('',*,*,#88,.F.);
#526=ORIENTED_EDGE('',*,*,#122,.T.);
#527=ORIENTED_EDGE('',*,*,#104,.T.);
#528=CARTESIAN_POINT('',(0.0,0.0,-85.69));
#529=DIRECTION('',(-0.0,-0.0,1.0));
#530=DIRECTION('',(0.0,1.0,0.0));
#531=CARTESIAN_POINT('',(0.0,0.0,-57.09));
#532=DIRECTION('',(0.0,0.0,-1.0));
#533=DIRECTION('',(0.0,1.0,0.0));
#534=SURFACE_STYLE_FILL_AREA(#586);
#535=ORIENTED_EDGE('',*,*,#90,.T.);
#536=ORIENTED_EDGE('',*,*,#110,.F.);
#537=ORIENTED_EDGE('',*,*,#106,.T.);
#538=ORIENTED_EDGE('',*,*,#94,.T.);
#539=CARTESIAN_POINT('',(0.0,0.0,-0.585500000000003));
#540=DIRECTION('',(0.0,-0.0,-1.0));
#541=DIRECTION('',(0.0,1.0,0.0));
#542=DIRECTION('',(0.0,0.0,-1.0));
#543=SURFACE_STYLE_FILL_AREA(#587);
#544=ORIENTED_EDGE('',*,*,#108,.F.);
#545=ORIENTED_EDGE('',*,*,#102,.T.);
#546=ORIENTED_EDGE('',*,*,#122,.F.);
#547=ORIENTED_EDGE('',*,*,#126,.F.);
#548=CARTESIAN_POINT('',(0.0,0.0,-85.69));
#549=DIRECTION('',(-0.0,-0.0,1.0));
#550=DIRECTION('',(0.0,1.0,0.0));
#551=CARTESIAN_POINT('',(0.0,0.0,-57.09));
#552=DIRECTION('',(0.0,0.0,-1.0));
#553=DIRECTION('',(0.0,1.0,0.0));
#554=SURFACE_STYLE_FILL_AREA(#588);
#555=SURFACE_STYLE_FILL_AREA(#589);
#556=ORIENTED_EDGE('',*,*,#90,.F.);
#557=ORIENTED_EDGE('',*,*,#134,.T.);
#558=ORIENTED_EDGE('',*,*,#106,.F.);
#559=ORIENTED_EDGE('',*,*,#130,.F.);
#560=CARTESIAN_POINT('',(0.0,0.0,-0.585500000000003));
#561=DIRECTION('',(0.0,-0.0,-1.0));
#562=DIRECTION('',(0.0,1.0,0.0));
#563=SURFACE_STYLE_FILL_AREA(#590);
#564=ORIENTED_EDGE('',*,*,#126,.T.);
#565=ORIENTED_EDGE('',*,*,#88,.T.);
#566=CARTESIAN_POINT('',(0.0,2.37875,-114.29));
#567=DIRECTION('',(0.0,0.0,-1.0));
#568=DIRECTION('',(0.0,1.0,0.0));
#569=SURFACE_STYLE_FILL_AREA(#591);
#570=ORIENTED_EDGE('',*,*,#156,.T.);
#571=ORIENTED_EDGE('',*,*,#118,.F.);
#572=ORIENTED_EDGE('',*,*,#144,.T.);
#573=ORIENTED_EDGE('',*,*,#110,.T.);
#574=CARTESIAN_POINT('',(0.0,0.0,-24.373));
#575=DIRECTION('',(-0.0,-0.0,1.0));
#576=DIRECTION('',(0.0,1.0,0.0));
#577=DIRECTION('',(1.22460571126684E-016,-0.999999475296257,0.00102440578393789));
#578=FILL_AREA_STYLE('',(#592));
#579=FILL_AREA_STYLE('',(#593));
#580=FILL_AREA_STYLE('',(#594));
#581=FILL_AREA_STYLE('',(#595));
#582=FILL_AREA_STYLE('',(#596));
#583=FILL_AREA_STYLE('',(#597));
#584=FILL_AREA_STYLE('',(#598));
#585=FILL_AREA_STYLE('',(#599));
#586=FILL_AREA_STYLE('',(#600));
#587=FILL_AREA_STYLE('',(#601));
#588=FILL_AREA_STYLE('',(#602));
#589=FILL_AREA_STYLE('',(#603));
#590=FILL_AREA_STYLE('',(#604));
#591=FILL_AREA_STYLE('',(#605));
#592=FILL_AREA_STYLE_COLOUR('',#606);
#593=FILL_AREA_STYLE_COLOUR('',#607);
#594=FILL_AREA_STYLE_COLOUR('',#608);
#595=FILL_AREA_STYLE_COLOUR('',#609);
#596=FILL_AREA_STYLE_COLOUR('',#610);
#597=FILL_AREA_STYLE_COLOUR('',#611);
#598=FILL_AREA_STYLE_COLOUR('',#612);
#599=FILL_AREA_STYLE_COLOUR('',#613);
#600=FILL_AREA_STYLE_COLOUR('',#614);
#601=FILL_AREA_STYLE_COLOUR('',#615);
#602=FILL_AREA_STYLE_COLOUR('',#616);
#603=FILL_AREA_STYLE_COLOUR('',#617);
#604=FILL_AREA_STYLE_COLOUR('',#618);
#605=FILL_AREA_STYLE_COLOUR('',#619);
#606=COLOUR_RGB('',0.800000011920929,0.800000011920929,0.800000011920929);
#607=COLOUR_RGB('',0.800000011920929,0.800000011920929,0.800000011920929);
#608=COLOUR_RGB('',0.498039215803146,0.498039215803146,0.498039215803146);
#609=COLOUR_RGB('',0.800000011920929,0.800000011920929,0.800000011920929);
#610=COLOUR_RGB('',0.498039215803146,0.498039215803146,0.498039215803146);
#611=COLOUR_RGB('',0.800000011920929,0.800000011920929,0.800000011920929);
#612=COLOUR_RGB('',0.498039215803146,0.498039215803146,0.498039215803146);
#613=COLOUR_RGB('',0.800000011920929,0.800000011920929,0.800000011920929);
#614=COLOUR_RGB('',0.498039215803146,0.498039215803146,0.498039215803146);
#615=COLOUR_RGB('',0.800000011920929,0.800000011920929,0.800000011920929);
#616=COLOUR_RGB('',0.800000011920929,0.800000011920929,0.800000011920929);
#617=COLOUR_RGB('',0.498039215803146,0.498039215803146,0.498039215803146);
#618=COLOUR_RGB('',0.800000011920929,0.800000011920929,0.800000011920929);
#619=COLOUR_RGB('',0.498039215803146,0.498039215803146,0.498039215803146);
#620=AXIS2_PLACEMENT_3D('PCS',#621,#622,#623);
#621=CARTESIAN_POINT('',(0.0,0.0,0.0));
#622=DIRECTION('',(0.0,0.0,1.0));
#623=DIRECTION('',(1.0,0.0,0.0));
#624=AXIS2_PLACEMENT_3D('CIP',#625,#626,#627);
#625=CARTESIAN_POINT('',(0.0,0.0,-114.3));
#626=DIRECTION('',(0.0,0.0,1.0));
#627=DIRECTION('',(1.0,0.0,0.0));
#628=AXIS2_PLACEMENT_3D('CRP',#629,#630,#631);
#629=CARTESIAN_POINT('',(-4.7625,0.0,-114.3));
#630=DIRECTION('',(0.0,0.0,1.0));
#631=DIRECTION('',(1.0,0.0,0.0));
#632=AXIS2_PLACEMENT_3D('MCS',#633,#634,#635);
#633=CARTESIAN_POINT('',(0.0,0.0,-47.575));
#634=DIRECTION('',(0.0,0.0,1.0));
#635=DIRECTION('',(1.0,0.0,0.0));
#636=CONSTRUCTIVE_GEOMETRY_REPRESENTATION_RELATIONSHIP('coordinate systems',$,#65,#637);
#637=CONSTRUCTIVE_GEOMETRY_REPRESENTATION('coordinate systems',(#620,#624,#628,#632),#10);
ENDSEC;
END-ISO-10303-21;
