ISO-10303-21;
HEADER;
FILE_DESCRIPTION(('no description'),'unknown implementation level');
FILE_NAME('solid_7D8Yzr_vBFkqBb2vafG9Q5ipiE_1.STP','  ',('CIMSOURCE GmbH'),('CADClick - KiM GmbH - www.kimweb.de'),'unknown preprocess','ACIS','unknown authorization');
FILE_SCHEMA(('automotive_design'));
ENDSEC;
DATA;
#1=MECHANICAL_DESIGN_GEOMETRIC_PRESENTATION_REPRESENTATION(' ',(#14,#15,#16,#17,#18,#19,#20,#21,#22,#23,#24,#25,#26,#27,#28,#29,#30,#31,#32,#33,#34,#35,#36,#37,#38,#39,#40,#41,#42,#43,#44,#45,#46,#47,#48,#49,#50,#51,#52,#53,#54,#55,#56,#57,#58,#59,#60),#10);
#2=PRODUCT_DEFINITION_CONTEXT('',#61,'design');
#3=APPLICATION_PROTOCOL_DEFINITION('INTERNATIONAL STANDARD','automotive_design',1994,#61);
#4=PRODUCT_CATEGORY_RELATIONSHIP('NONE','NONE',#62,#63);
#5=SHAPE_DEFINITION_REPRESENTATION(#64,#65);
#6=PRODUCT_DEFINITION_CONTEXT('',#66,'design');
#7=APPLICATION_PROTOCOL_DEFINITION('INTERNATIONAL STANDARD','automotive_design',1994,#66);
#8=PRODUCT_CATEGORY_RELATIONSHIP('NONE','NONE',#67,#68);
#9=SHAPE_DEFINITION_REPRESENTATION(#69,#70);
#10= (GEOMETRIC_REPRESENTATION_CONTEXT(3)GLOBAL_UNCERTAINTY_ASSIGNED_CONTEXT((#73))GLOBAL_UNIT_ASSIGNED_CONTEXT((#75,#76,#77))REPRESENTATION_CONTEXT('NONE','WORKSPACE'));
#14=STYLED_ITEM('',(#79),#80);
#15=STYLED_ITEM('',(#81),#82);
#16=STYLED_ITEM('',(#83),#84);
#17=STYLED_ITEM('',(#85),#86);
#18=STYLED_ITEM('',(#87),#88);
#19=STYLED_ITEM('',(#89),#90);
#20=STYLED_ITEM('',(#91),#92);
#21=STYLED_ITEM('',(#93),#94);
#22=STYLED_ITEM('',(#95),#96);
#23=STYLED_ITEM('',(#97),#98);
#24=STYLED_ITEM('',(#99),#100);
#25=STYLED_ITEM('',(#101),#102);
#26=STYLED_ITEM('',(#103),#104);
#27=STYLED_ITEM('',(#105),#106);
#28=STYLED_ITEM('',(#107),#108);
#29=STYLED_ITEM('',(#109),#110);
#30=STYLED_ITEM('',(#111),#112);
#31=STYLED_ITEM('',(#113),#114);
#32=STYLED_ITEM('',(#115),#116);
#33=STYLED_ITEM('',(#117),#118);
#34=STYLED_ITEM('',(#119),#120);
#35=STYLED_ITEM('',(#121),#122);
#36=STYLED_ITEM('',(#123),#124);
#37=STYLED_ITEM('',(#125),#126);
#38=STYLED_ITEM('',(#127),#128);
#39=STYLED_ITEM('',(#129),#130);
#40=STYLED_ITEM('',(#131),#132);
#41=STYLED_ITEM('',(#133),#134);
#42=STYLED_ITEM('',(#135),#136);
#43=STYLED_ITEM('',(#137),#138);
#44=STYLED_ITEM('',(#139),#140);
#45=STYLED_ITEM('',(#141),#142);
#46=STYLED_ITEM('',(#143),#144);
#47=STYLED_ITEM('',(#145),#146);
#48=STYLED_ITEM('',(#147),#148);
#49=STYLED_ITEM('',(#149),#150);
#50=STYLED_ITEM('',(#151),#152);
#51=STYLED_ITEM('',(#153),#154);
#52=STYLED_ITEM('',(#155),#156);
#53=STYLED_ITEM('',(#157),#158);
#54=STYLED_ITEM('',(#159),#160);
#55=STYLED_ITEM('',(#161),#162);
#56=STYLED_ITEM('',(#163),#164);
#57=STYLED_ITEM('',(#165),#166);
#58=STYLED_ITEM('',(#167),#168);
#59=STYLED_ITEM('',(#169),#170);
#60=STYLED_ITEM('',(#171),#172);
#61=APPLICATION_CONTEXT(' ');
#62=PRODUCT_CATEGORY('part','NONE');
#63=PRODUCT_RELATED_PRODUCT_CATEGORY('detail',' ',(#173));
#64=PRODUCT_DEFINITION_SHAPE('NONE','NONE',#174);
#65=ADVANCED_BREP_SHAPE_REPRESENTATION('1',(#104,#175),#10);
#66=APPLICATION_CONTEXT(' ');
#67=PRODUCT_CATEGORY('part','NONE');
#68=PRODUCT_RELATED_PRODUCT_CATEGORY('detail',' ',(#176));
#69=PRODUCT_DEFINITION_SHAPE('NONE','NONE',#177);
#70=ADVANCED_BREP_SHAPE_REPRESENTATION('2',(#142,#178),#10);
#73=UNCERTAINTY_MEASURE_WITH_UNIT(LENGTH_MEASURE(1.0E-006),#75,'','');
#75= (CONVERSION_BASED_UNIT('MILLIMETRE',#181)LENGTH_UNIT()NAMED_UNIT(#184));
#76= (NAMED_UNIT(#186)PLANE_ANGLE_UNIT()SI_UNIT($,.RADIAN.));
#77= (NAMED_UNIT(#186)SOLID_ANGLE_UNIT()SI_UNIT($,.STERADIAN.));
#79=PRESENTATION_STYLE_ASSIGNMENT((#192));
#80=ADVANCED_FACE('',(#193),#194,.T.);
#81=PRESENTATION_STYLE_ASSIGNMENT((#195));
#82=EDGE_CURVE('',#152,#122,#196,.T.);
#83=PRESENTATION_STYLE_ASSIGNMENT((#197));
#84=EDGE_CURVE('',#116,#120,#198,.T.);
#85=PRESENTATION_STYLE_ASSIGNMENT((#199));
#86=EDGE_CURVE('',#114,#158,#200,.T.);
#87=PRESENTATION_STYLE_ASSIGNMENT((#201));
#88=EDGE_CURVE('',#116,#106,#202,.T.);
#89=PRESENTATION_STYLE_ASSIGNMENT((#203));
#90=VERTEX_POINT('',#204);
#91=PRESENTATION_STYLE_ASSIGNMENT((#205));
#92=ADVANCED_FACE('',(#206,#207),#208,.T.);
#93=PRESENTATION_STYLE_ASSIGNMENT((#209));
#94=ADVANCED_FACE('',(#210),#211,.T.);
#95=PRESENTATION_STYLE_ASSIGNMENT((#212));
#96=EDGE_CURVE('',#126,#150,#213,.T.);
#97=PRESENTATION_STYLE_ASSIGNMENT((#214));
#98=EDGE_CURVE('',#148,#126,#215,.T.);
#99=PRESENTATION_STYLE_ASSIGNMENT((#216));
#100=EDGE_CURVE('',#148,#150,#217,.T.);
#101=PRESENTATION_STYLE_ASSIGNMENT((#218));
#102=EDGE_CURVE('',#122,#130,#219,.T.);
#103=PRESENTATION_STYLE_ASSIGNMENT((#220));
#104=MANIFOLD_SOLID_BREP('1',#221);
#105=PRESENTATION_STYLE_ASSIGNMENT((#222));
#106=VERTEX_POINT('',#223);
#107=PRESENTATION_STYLE_ASSIGNMENT((#224));
#108=EDGE_CURVE('',#122,#114,#225,.T.);
#109=PRESENTATION_STYLE_ASSIGNMENT((#226));
#110=ADVANCED_FACE('',(#227),#228,.F.);
#111=PRESENTATION_STYLE_ASSIGNMENT((#229));
#112=ADVANCED_FACE('',(#230),#231,.T.);
#113=PRESENTATION_STYLE_ASSIGNMENT((#232));
#114=VERTEX_POINT('',#233);
#115=PRESENTATION_STYLE_ASSIGNMENT((#234));
#116=VERTEX_POINT('',#235);
#117=PRESENTATION_STYLE_ASSIGNMENT((#236));
#118=EDGE_CURVE('',#120,#116,#237,.T.);
#119=PRESENTATION_STYLE_ASSIGNMENT((#238));
#120=VERTEX_POINT('',#239);
#121=PRESENTATION_STYLE_ASSIGNMENT((#240));
#122=VERTEX_POINT('',#241);
#123=PRESENTATION_STYLE_ASSIGNMENT((#242));
#124=VERTEX_POINT('',#243);
#125=PRESENTATION_STYLE_ASSIGNMENT((#244));
#126=VERTEX_POINT('',#245);
#127=PRESENTATION_STYLE_ASSIGNMENT((#246));
#128=EDGE_CURVE('',#124,#120,#247,.T.);
#129=PRESENTATION_STYLE_ASSIGNMENT((#248));
#130=VERTEX_POINT('',#249);
#131=PRESENTATION_STYLE_ASSIGNMENT((#250));
#132=EDGE_CURVE('',#90,#114,#251,.T.);
#133=PRESENTATION_STYLE_ASSIGNMENT((#252));
#134=EDGE_CURVE('',#152,#158,#253,.T.);
#135=PRESENTATION_STYLE_ASSIGNMENT((#254));
#136=EDGE_CURVE('',#90,#130,#255,.T.);
#137=PRESENTATION_STYLE_ASSIGNMENT((#256));
#138=ADVANCED_FACE('',(#257),#258,.T.);
#139=PRESENTATION_STYLE_ASSIGNMENT((#259));
#140=EDGE_CURVE('',#130,#90,#260,.T.);
#141=PRESENTATION_STYLE_ASSIGNMENT((#261));
#142=MANIFOLD_SOLID_BREP('2',#262);
#143=PRESENTATION_STYLE_ASSIGNMENT((#263));
#144=ADVANCED_FACE('',(#264),#265,.T.);
#145=PRESENTATION_STYLE_ASSIGNMENT((#266));
#146=ADVANCED_FACE('',(#267),#268,.F.);
#147=PRESENTATION_STYLE_ASSIGNMENT((#269));
#148=VERTEX_POINT('',#270);
#149=PRESENTATION_STYLE_ASSIGNMENT((#271));
#150=VERTEX_POINT('',#272);
#151=PRESENTATION_STYLE_ASSIGNMENT((#273));
#152=VERTEX_POINT('',#274);
#153=PRESENTATION_STYLE_ASSIGNMENT((#275));
#154=EDGE_CURVE('',#150,#148,#276,.T.);
#155=PRESENTATION_STYLE_ASSIGNMENT((#277));
#156=EDGE_CURVE('',#158,#152,#278,.T.);
#157=PRESENTATION_STYLE_ASSIGNMENT((#279));
#158=VERTEX_POINT('',#280);
#159=PRESENTATION_STYLE_ASSIGNMENT((#281));
#160=ADVANCED_FACE('',(#282),#283,.T.);
#161=PRESENTATION_STYLE_ASSIGNMENT((#284));
#162=EDGE_CURVE('',#114,#122,#285,.T.);
#163=PRESENTATION_STYLE_ASSIGNMENT((#286));
#164=ADVANCED_FACE('',(#287),#288,.T.);
#165=PRESENTATION_STYLE_ASSIGNMENT((#289));
#166=ADVANCED_FACE('',(#290),#291,.T.);
#167=PRESENTATION_STYLE_ASSIGNMENT((#292));
#168=ADVANCED_FACE('',(#293),#294,.T.);
#169=PRESENTATION_STYLE_ASSIGNMENT((#295));
#170=EDGE_CURVE('',#124,#106,#296,.T.);
#171=PRESENTATION_STYLE_ASSIGNMENT((#297));
#172=EDGE_CURVE('',#106,#124,#298,.T.);
#173=PRODUCT('1','1','PART-1-DESC',(#299));
#174=PRODUCT_DEFINITION('NONE','NONE',#300,#2);
#175=AXIS2_PLACEMENT_3D('',#301,#302,#303);
#176=PRODUCT('2','2','PART-2-DESC',(#304));
#177=PRODUCT_DEFINITION('NONE','NONE',#305,#6);
#178=AXIS2_PLACEMENT_3D('',#306,#307,#308);
#181=LENGTH_MEASURE_WITH_UNIT(LENGTH_MEASURE(1.0),#309);
#184=DIMENSIONAL_EXPONENTS(1.0,0.0,0.0,0.0,0.0,0.0,0.0);
#186=DIMENSIONAL_EXPONENTS(0.0,0.0,0.0,0.0,0.0,0.0,0.0);
#192=SURFACE_STYLE_USAGE(.BOTH.,#310);
#193=FACE_OUTER_BOUND('',#311,.T.);
#194=CYLINDRICAL_SURFACE('',#312,6.35);
#195=CURVE_STYLE('',#313,POSITIVE_LENGTH_MEASURE(1.0E-006),#314);
#196=LINE('',#315,#316);
#197=CURVE_STYLE('',#317,POSITIVE_LENGTH_MEASURE(1.0E-006),#318);
#198=CIRCLE('',#319,6.35);
#199=CURVE_STYLE('',#320,POSITIVE_LENGTH_MEASURE(1.0E-006),#321);
#200=LINE('',#322,#323);
#201=CURVE_STYLE('',#324,POSITIVE_LENGTH_MEASURE(1.0E-006),#325);
#202=LINE('',#326,#327);
#203=POINT_STYLE(' ',#328,POSITIVE_LENGTH_MEASURE(1.0E-006),#329);
#204=CARTESIAN_POINT('',(0.0,-6.35,-50.79));
#205=SURFACE_STYLE_USAGE(.BOTH.,#330);
#206=FACE_OUTER_BOUND('',#331,.T.);
#207=FACE_BOUND('',#332,.T.);
#208=PLANE('',#333);
#209=SURFACE_STYLE_USAGE(.BOTH.,#334);
#210=FACE_OUTER_BOUND('',#335,.T.);
#211=CONICAL_SURFACE('',#336,6.12079194313172,0.523598775598301);
#212=CURVE_STYLE('',#337,POSITIVE_LENGTH_MEASURE(1.0E-006),#338);
#213=LINE('',#339,#340);
#214=CURVE_STYLE('',#341,POSITIVE_LENGTH_MEASURE(1.0E-006),#342);
#215=LINE('',#343,#344);
#216=CURVE_STYLE('',#345,POSITIVE_LENGTH_MEASURE(1.0E-006),#346);
#217=CIRCLE('',#347,9.12703950012438);
#218=CURVE_STYLE('',#348,POSITIVE_LENGTH_MEASURE(1.0E-006),#349);
#219=LINE('',#350,#351);
#220=SURFACE_STYLE_USAGE(.BOTH.,#352);
#221=CLOSED_SHELL('',(#138,#146,#110,#92,#144,#112));
#222=POINT_STYLE(' ',#353,POSITIVE_LENGTH_MEASURE(1.0E-006),#354);
#223=CARTESIAN_POINT('',(1.11831535952092E-015,-9.13203950012438,-50.79));
#224=CURVE_STYLE('',#355,POSITIVE_LENGTH_MEASURE(1.0E-006),#356);
#225=CIRCLE('',#357,6.35);
#226=SURFACE_STYLE_USAGE(.BOTH.,#358);
#227=FACE_OUTER_BOUND('',#359,.T.);
#228=CONICAL_SURFACE('',#360,4.56351975006219,1.56970068170665);
#229=SURFACE_STYLE_USAGE(.BOTH.,#361);
#230=FACE_OUTER_BOUND('',#362,.T.);
#231=PLANE('',#363);
#232=POINT_STYLE(' ',#364,POSITIVE_LENGTH_MEASURE(1.0E-006),#365);
#233=CARTESIAN_POINT('',(7.7762503467721E-016,-6.35,-0.783999999999992));
#234=POINT_STYLE(' ',#366,POSITIVE_LENGTH_MEASURE(1.0E-006),#367);
#235=CARTESIAN_POINT('',(7.7762503467721E-016,-6.35,-82.59));
#236=CURVE_STYLE('',#368,POSITIVE_LENGTH_MEASURE(1.0E-006),#369);
#237=CIRCLE('',#370,6.35);
#238=POINT_STYLE(' ',#371,POSITIVE_LENGTH_MEASURE(1.0E-006),#372);
#239=CARTESIAN_POINT('',(0.0,6.35,-82.59));
#240=POINT_STYLE(' ',#373,POSITIVE_LENGTH_MEASURE(1.0E-006),#374);
#241=CARTESIAN_POINT('',(0.0,6.35,-0.783999999999992));
#242=POINT_STYLE(' ',#375,POSITIVE_LENGTH_MEASURE(1.0E-006),#376);
#243=CARTESIAN_POINT('',(0.0,9.13203950012438,-50.79));
#244=POINT_STYLE(' ',#377,POSITIVE_LENGTH_MEASURE(1.0E-006),#378);
#245=CARTESIAN_POINT('',(0.0,0.0,-50.8));
#246=CURVE_STYLE('',#379,POSITIVE_LENGTH_MEASURE(1.0E-006),#380);
#247=LINE('',#381,#382);
#248=POINT_STYLE(' ',#383,POSITIVE_LENGTH_MEASURE(1.0E-006),#384);
#249=CARTESIAN_POINT('',(-7.7762503467721E-016,6.35,-50.79));
#250=CURVE_STYLE('',#385,POSITIVE_LENGTH_MEASURE(1.0E-006),#386);
#251=LINE('',#387,#388);
#252=CURVE_STYLE('',#389,POSITIVE_LENGTH_MEASURE(1.0E-006),#390);
#253=CIRCLE('',#391,5.89158388626344);
#254=CURVE_STYLE('',#392,POSITIVE_LENGTH_MEASURE(1.0E-006),#393);
#255=CIRCLE('',#394,6.35);
#256=SURFACE_STYLE_USAGE(.BOTH.,#395);
#257=FACE_OUTER_BOUND('',#396,.T.);
#258=CONICAL_SURFACE('',#397,7.74101975006219,0.0872633418319571);
#259=CURVE_STYLE('',#398,POSITIVE_LENGTH_MEASURE(1.0E-006),#399);
#260=CIRCLE('',#400,6.35);
#261=SURFACE_STYLE_USAGE(.BOTH.,#401);
#262=CLOSED_SHELL('',(#80,#94,#160,#166,#164,#168));
#263=SURFACE_STYLE_USAGE(.BOTH.,#402);
#264=FACE_OUTER_BOUND('',#403,.T.);
#265=CONICAL_SURFACE('',#404,7.74101975006219,0.0872633418319571);
#266=SURFACE_STYLE_USAGE(.BOTH.,#405);
#267=FACE_OUTER_BOUND('',#406,.T.);
#268=CONICAL_SURFACE('',#407,4.56351975006219,1.56970068170665);
#269=POINT_STYLE(' ',#408,POSITIVE_LENGTH_MEASURE(1.0E-006),#409);
#270=CARTESIAN_POINT('',(0.0,9.12703950012438,-50.79));
#271=POINT_STYLE(' ',#410,POSITIVE_LENGTH_MEASURE(1.0E-006),#411);
#272=CARTESIAN_POINT('',(1.11770305634401E-015,-9.12703950012438,-50.79));
#273=POINT_STYLE(' ',#412,POSITIVE_LENGTH_MEASURE(1.0E-006),#413);
#274=CARTESIAN_POINT('',(0.0,5.89158388626344,0.0100000000000051));
#275=CURVE_STYLE('',#414,POSITIVE_LENGTH_MEASURE(1.0E-006),#415);
#276=CIRCLE('',#416,9.12703950012438);
#277=CURVE_STYLE('',#417,POSITIVE_LENGTH_MEASURE(1.0E-006),#418);
#278=CIRCLE('',#419,5.89158388626344);
#279=POINT_STYLE(' ',#420,POSITIVE_LENGTH_MEASURE(1.0E-006),#421);
#280=CARTESIAN_POINT('',(7.21487106119574E-016,-5.89158388626344,0.0100000000000051));
#281=SURFACE_STYLE_USAGE(.BOTH.,#422);
#282=FACE_OUTER_BOUND('',#423,.T.);
#283=PLANE('',#424);
#284=CURVE_STYLE('',#425,POSITIVE_LENGTH_MEASURE(1.0E-006),#426);
#285=CIRCLE('',#427,6.35);
#286=SURFACE_STYLE_USAGE(.BOTH.,#428);
#287=FACE_OUTER_BOUND('',#429,.T.);
#288=CONICAL_SURFACE('',#430,6.12079194313172,0.523598775598301);
#289=SURFACE_STYLE_USAGE(.BOTH.,#431);
#290=FACE_OUTER_BOUND('',#432,.T.);
#291=PLANE('',#433);
#292=SURFACE_STYLE_USAGE(.BOTH.,#434);
#293=FACE_OUTER_BOUND('',#435,.T.);
#294=CYLINDRICAL_SURFACE('',#436,6.35);
#295=CURVE_STYLE('',#437,POSITIVE_LENGTH_MEASURE(1.0E-006),#438);
#296=CIRCLE('',#439,9.13203950012438);
#297=CURVE_STYLE('',#440,POSITIVE_LENGTH_MEASURE(1.0E-006),#441);
#298=CIRCLE('',#442,9.13203950012438);
#299=PRODUCT_CONTEXT('',#61,'mechanical');
#300=PRODUCT_DEFINITION_FORMATION_WITH_SPECIFIED_SOURCE(' ','NONE',#173,.NOT_KNOWN.);
#301=CARTESIAN_POINT('',(0.0,0.0,0.0));
#302=DIRECTION('',(0.0,0.0,1.0));
#303=DIRECTION('',(1.0,0.0,0.0));
#304=PRODUCT_CONTEXT('',#66,'mechanical');
#305=PRODUCT_DEFINITION_FORMATION_WITH_SPECIFIED_SOURCE(' ','NONE',#176,.NOT_KNOWN.);
#306=CARTESIAN_POINT('',(0.0,0.0,0.0));
#307=DIRECTION('',(0.0,0.0,1.0));
#308=DIRECTION('',(1.0,0.0,0.0));
#309= (NAMED_UNIT(#184)LENGTH_UNIT()SI_UNIT(.MILLI.,.METRE.));
#310=SURFACE_SIDE_STYLE('',(#444));
#311=EDGE_LOOP('',(#445,#446,#447,#448));
#312=AXIS2_PLACEMENT_3D('',#449,#450,#451);
#313=DRAUGHTING_PRE_DEFINED_CURVE_FONT('continuous');
#314=COLOUR_RGB('',0.498039215803146,0.498039215803146,0.498039215803146);
#315=CARTESIAN_POINT('',(-7.49556070398392E-016,6.12079194313172,-0.386999999999993));
#316=VECTOR('',#452,1.0);
#317=DRAUGHTING_PRE_DEFINED_CURVE_FONT('continuous');
#318=COLOUR_RGB('',0.800000011920929,0.800000011920929,0.800000011920929);
#319=AXIS2_PLACEMENT_3D('',#453,#454,#455);
#320=DRAUGHTING_PRE_DEFINED_CURVE_FONT('continuous');
#321=COLOUR_RGB('',0.498039215803146,0.498039215803146,0.498039215803146);
#322=CARTESIAN_POINT('',(7.49556070398392E-016,-6.12079194313172,-0.386999999999993));
#323=VECTOR('',#456,1.0);
#324=DRAUGHTING_PRE_DEFINED_CURVE_FONT('continuous');
#325=COLOUR_RGB('',0.800000011920929,0.800000011920929,0.800000011920929);
#326=CARTESIAN_POINT('',(9.47970197099067E-016,-7.74101975006219,-66.69));
#327=VECTOR('',#457,1.0);
#328=PRE_DEFINED_MARKER('');
#329=COLOUR_RGB('',0.498039215803146,0.498039215803146,0.498039215803146);
#330=SURFACE_SIDE_STYLE('',(#458));
#331=EDGE_LOOP('',(#459,#460));
#332=EDGE_LOOP('',(#461,#462));
#333=AXIS2_PLACEMENT_3D('',#463,#464,#465);
#334=SURFACE_SIDE_STYLE('',(#466));
#335=EDGE_LOOP('',(#467,#468,#469,#470));
#336=AXIS2_PLACEMENT_3D('',#471,#472,#473);
#337=DRAUGHTING_PRE_DEFINED_CURVE_FONT('continuous');
#338=COLOUR_RGB('',0.800000011920929,0.800000011920929,0.800000011920929);
#339=CARTESIAN_POINT('',(5.58851528172006E-016,-4.56351975006219,-50.795));
#340=VECTOR('',#474,1.0);
#341=DRAUGHTING_PRE_DEFINED_CURVE_FONT('continuous');
#342=COLOUR_RGB('',0.800000011920929,0.800000011920929,0.800000011920929);
#343=CARTESIAN_POINT('',(-5.58851528172007E-016,4.56351975006219,-50.795));
#344=VECTOR('',#475,1.0);
#345=DRAUGHTING_PRE_DEFINED_CURVE_FONT('continuous');
#346=COLOUR_RGB('',0.800000011920929,0.800000011920929,0.800000011920929);
#347=AXIS2_PLACEMENT_3D('',#476,#477,#478);
#348=DRAUGHTING_PRE_DEFINED_CURVE_FONT('continuous');
#349=COLOUR_RGB('',0.498039215803146,0.498039215803146,0.498039215803146);
#350=CARTESIAN_POINT('',(-7.7762503467721E-016,6.35,-19.437));
#351=VECTOR('',#479,1.0);
#352=SURFACE_SIDE_STYLE('',(#480));
#353=PRE_DEFINED_MARKER('');
#354=COLOUR_RGB('',0.800000011920929,0.800000011920929,0.800000011920929);
#355=DRAUGHTING_PRE_DEFINED_CURVE_FONT('continuous');
#356=COLOUR_RGB('',0.498039215803146,0.498039215803146,0.498039215803146);
#357=AXIS2_PLACEMENT_3D('',#481,#482,#483);
#358=SURFACE_SIDE_STYLE('',(#484));
#359=EDGE_LOOP('',(#485,#486,#487));
#360=AXIS2_PLACEMENT_3D('',#488,#489,#490);
#361=SURFACE_SIDE_STYLE('',(#491));
#362=EDGE_LOOP('',(#492,#493));
#363=AXIS2_PLACEMENT_3D('',#494,#495,#496);
#364=PRE_DEFINED_MARKER('');
#365=COLOUR_RGB('',0.498039215803146,0.498039215803146,0.498039215803146);
#366=PRE_DEFINED_MARKER('');
#367=COLOUR_RGB('',0.800000011920929,0.800000011920929,0.800000011920929);
#368=DRAUGHTING_PRE_DEFINED_CURVE_FONT('continuous');
#369=COLOUR_RGB('',0.800000011920929,0.800000011920929,0.800000011920929);
#370=AXIS2_PLACEMENT_3D('',#497,#498,#499);
#371=PRE_DEFINED_MARKER('');
#372=COLOUR_RGB('',0.800000011920929,0.800000011920929,0.800000011920929);
#373=PRE_DEFINED_MARKER('');
#374=COLOUR_RGB('',0.498039215803146,0.498039215803146,0.498039215803146);
#375=PRE_DEFINED_MARKER('');
#376=COLOUR_RGB('',0.800000011920929,0.800000011920929,0.800000011920929);
#377=PRE_DEFINED_MARKER('');
#378=COLOUR_RGB('',0.800000011920929,0.800000011920929,0.800000011920929);
#379=DRAUGHTING_PRE_DEFINED_CURVE_FONT('continuous');
#380=COLOUR_RGB('',0.800000011920929,0.800000011920929,0.800000011920929);
#381=CARTESIAN_POINT('',(-9.47970197099067E-016,7.74101975006219,-66.69));
#382=VECTOR('',#500,1.0);
#383=PRE_DEFINED_MARKER('');
#384=COLOUR_RGB('',0.498039215803146,0.498039215803146,0.498039215803146);
#385=DRAUGHTING_PRE_DEFINED_CURVE_FONT('continuous');
#386=COLOUR_RGB('',0.498039215803146,0.498039215803146,0.498039215803146);
#387=CARTESIAN_POINT('',(7.7762503467721E-016,-6.35,-19.437));
#388=VECTOR('',#501,1.0);
#389=DRAUGHTING_PRE_DEFINED_CURVE_FONT('continuous');
#390=COLOUR_RGB('',0.498039215803146,0.498039215803146,0.498039215803146);
#391=AXIS2_PLACEMENT_3D('',#502,#503,#504);
#392=DRAUGHTING_PRE_DEFINED_CURVE_FONT('continuous');
#393=COLOUR_RGB('',0.498039215803146,0.498039215803146,0.498039215803146);
#394=AXIS2_PLACEMENT_3D('',#505,#506,#507);
#395=SURFACE_SIDE_STYLE('',(#508));
#396=EDGE_LOOP('',(#509,#510,#511,#512));
#397=AXIS2_PLACEMENT_3D('',#513,#514,#515);
#398=DRAUGHTING_PRE_DEFINED_CURVE_FONT('continuous');
#399=COLOUR_RGB('',0.498039215803146,0.498039215803146,0.498039215803146);
#400=AXIS2_PLACEMENT_3D('',#516,#517,#518);
#401=SURFACE_SIDE_STYLE('',(#519));
#402=SURFACE_SIDE_STYLE('',(#520));
#403=EDGE_LOOP('',(#521,#522,#523,#524));
#404=AXIS2_PLACEMENT_3D('',#525,#526,#527);
#405=SURFACE_SIDE_STYLE('',(#528));
#406=EDGE_LOOP('',(#529,#530,#531));
#407=AXIS2_PLACEMENT_3D('',#532,#533,#534);
#408=PRE_DEFINED_MARKER('');
#409=COLOUR_RGB('',0.800000011920929,0.800000011920929,0.800000011920929);
#410=PRE_DEFINED_MARKER('');
#411=COLOUR_RGB('',0.800000011920929,0.800000011920929,0.800000011920929);
#412=PRE_DEFINED_MARKER('');
#413=COLOUR_RGB('',0.498039215803146,0.498039215803146,0.498039215803146);
#414=DRAUGHTING_PRE_DEFINED_CURVE_FONT('continuous');
#415=COLOUR_RGB('',0.800000011920929,0.800000011920929,0.800000011920929);
#416=AXIS2_PLACEMENT_3D('',#535,#536,#537);
#417=DRAUGHTING_PRE_DEFINED_CURVE_FONT('continuous');
#418=COLOUR_RGB('',0.498039215803146,0.498039215803146,0.498039215803146);
#419=AXIS2_PLACEMENT_3D('',#538,#539,#540);
#420=PRE_DEFINED_MARKER('');
#421=COLOUR_RGB('',0.498039215803146,0.498039215803146,0.498039215803146);
#422=SURFACE_SIDE_STYLE('',(#541));
#423=EDGE_LOOP('',(#542,#543));
#424=AXIS2_PLACEMENT_3D('',#544,#545,#546);
#425=DRAUGHTING_PRE_DEFINED_CURVE_FONT('continuous');
#426=COLOUR_RGB('',0.498039215803146,0.498039215803146,0.498039215803146);
#427=AXIS2_PLACEMENT_3D('',#547,#548,#549);
#428=SURFACE_SIDE_STYLE('',(#550));
#429=EDGE_LOOP('',(#551,#552,#553,#554));
#430=AXIS2_PLACEMENT_3D('',#555,#556,#557);
#431=SURFACE_SIDE_STYLE('',(#558));
#432=EDGE_LOOP('',(#559,#560));
#433=AXIS2_PLACEMENT_3D('',#561,#562,#563);
#434=SURFACE_SIDE_STYLE('',(#564));
#435=EDGE_LOOP('',(#565,#566,#567,#568));
#436=AXIS2_PLACEMENT_3D('',#569,#570,#571);
#437=DRAUGHTING_PRE_DEFINED_CURVE_FONT('continuous');
#438=COLOUR_RGB('',0.800000011920929,0.800000011920929,0.800000011920929);
#439=AXIS2_PLACEMENT_3D('',#572,#573,#574);
#440=DRAUGHTING_PRE_DEFINED_CURVE_FONT('continuous');
#441=COLOUR_RGB('',0.800000011920929,0.800000011920929,0.800000011920929);
#442=AXIS2_PLACEMENT_3D('',#575,#576,#577);
#444=SURFACE_STYLE_FILL_AREA(#578);
#445=ORIENTED_EDGE('',*,*,#102,.F.);
#446=ORIENTED_EDGE('',*,*,#108,.T.);
#447=ORIENTED_EDGE('',*,*,#132,.F.);
#448=ORIENTED_EDGE('',*,*,#140,.F.);
#449=CARTESIAN_POINT('',(0.0,0.0,-19.437));
#450=DIRECTION('',(-0.0,-0.0,1.0));
#451=DIRECTION('',(0.0,1.0,0.0));
#452=DIRECTION('',(-6.12303176911191E-017,0.500000000000002,-0.866025403784438));
#453=CARTESIAN_POINT('',(0.0,0.0,-82.59));
#454=DIRECTION('',(0.0,0.0,-1.0));
#455=DIRECTION('',(0.0,1.0,0.0));
#456=DIRECTION('',(-6.12303176911191E-017,0.500000000000002,0.866025403784438));
#457=DIRECTION('',(1.06727669171112E-017,-0.0871526338549379,0.996194970079726));
#458=SURFACE_STYLE_FILL_AREA(#579);
#459=ORIENTED_EDGE('',*,*,#170,.F.);
#460=ORIENTED_EDGE('',*,*,#172,.F.);
#461=ORIENTED_EDGE('',*,*,#100,.T.);
#462=ORIENTED_EDGE('',*,*,#154,.T.);
#463=CARTESIAN_POINT('',(0.0,9.12953950012438,-50.79));
#464=DIRECTION('',(-0.0,0.0,1.0));
#465=DIRECTION('',(0.0,-1.0,0.0));
#466=SURFACE_STYLE_FILL_AREA(#580);
#467=ORIENTED_EDGE('',*,*,#82,.F.);
#468=ORIENTED_EDGE('',*,*,#134,.T.);
#469=ORIENTED_EDGE('',*,*,#86,.F.);
#470=ORIENTED_EDGE('',*,*,#108,.F.);
#471=CARTESIAN_POINT('',(0.0,0.0,-0.386999999999993));
#472=DIRECTION('',(0.0,-0.0,-1.0));
#473=DIRECTION('',(0.0,1.0,0.0));
#474=DIRECTION('',(1.22460561879035E-016,-0.99999939978098,0.00109564486903727));
#475=DIRECTION('',(1.22460561879035E-016,-0.99999939978098,-0.00109564486903727));
#476=CARTESIAN_POINT('',(0.0,0.0,-50.79));
#477=DIRECTION('',(0.0,0.0,-1.0));
#478=DIRECTION('',(0.0,1.0,0.0));
#479=DIRECTION('',(0.0,0.0,-1.0));
#480=SURFACE_STYLE_FILL_AREA(#581);
#481=CARTESIAN_POINT('',(0.0,0.0,-0.783999999999992));
#482=DIRECTION('',(0.0,0.0,-1.0));
#483=DIRECTION('',(0.0,1.0,0.0));
#484=SURFACE_STYLE_FILL_AREA(#582);
#485=ORIENTED_EDGE('',*,*,#96,.T.);
#486=ORIENTED_EDGE('',*,*,#100,.F.);
#487=ORIENTED_EDGE('',*,*,#98,.T.);
#488=CARTESIAN_POINT('',(0.0,0.0,-50.795));
#489=DIRECTION('',(-0.0,-0.0,1.0));
#490=DIRECTION('',(0.0,1.0,0.0));
#491=SURFACE_STYLE_FILL_AREA(#583);
#492=ORIENTED_EDGE('',*,*,#118,.T.);
#493=ORIENTED_EDGE('',*,*,#84,.T.);
#494=CARTESIAN_POINT('',(0.0,3.1725,-82.59));
#495=DIRECTION('',(0.0,0.0,-1.0));
#496=DIRECTION('',(0.0,1.0,0.0));
#497=CARTESIAN_POINT('',(0.0,0.0,-82.59));
#498=DIRECTION('',(0.0,0.0,-1.0));
#499=DIRECTION('',(0.0,1.0,0.0));
#500=DIRECTION('',(1.06727669171112E-017,-0.0871526338549379,-0.996194970079726));
#501=DIRECTION('',(-0.0,-0.0,1.0));
#502=CARTESIAN_POINT('',(0.0,0.0,0.0100000000000051));
#503=DIRECTION('',(0.0,0.0,-1.0));
#504=DIRECTION('',(0.0,1.0,0.0));
#505=CARTESIAN_POINT('',(0.0,0.0,-50.79));
#506=DIRECTION('',(0.0,0.0,-1.0));
#507=DIRECTION('',(0.0,-1.0,0.0));
#508=SURFACE_STYLE_FILL_AREA(#584);
#509=ORIENTED_EDGE('',*,*,#128,.F.);
#510=ORIENTED_EDGE('',*,*,#170,.T.);
#511=ORIENTED_EDGE('',*,*,#88,.F.);
#512=ORIENTED_EDGE('',*,*,#118,.F.);
#513=CARTESIAN_POINT('',(0.0,0.0,-66.69));
#514=DIRECTION('',(-0.0,-0.0,1.0));
#515=DIRECTION('',(0.0,1.0,0.0));
#516=CARTESIAN_POINT('',(0.0,0.0,-50.79));
#517=DIRECTION('',(0.0,0.0,-1.0));
#518=DIRECTION('',(0.0,-1.0,0.0));
#519=SURFACE_STYLE_FILL_AREA(#585);
#520=SURFACE_STYLE_FILL_AREA(#586);
#521=ORIENTED_EDGE('',*,*,#128,.T.);
#522=ORIENTED_EDGE('',*,*,#84,.F.);
#523=ORIENTED_EDGE('',*,*,#88,.T.);
#524=ORIENTED_EDGE('',*,*,#172,.T.);
#525=CARTESIAN_POINT('',(0.0,0.0,-66.69));
#526=DIRECTION('',(-0.0,-0.0,1.0));
#527=DIRECTION('',(0.0,1.0,0.0));
#528=SURFACE_STYLE_FILL_AREA(#587);
#529=ORIENTED_EDGE('',*,*,#96,.F.);
#530=ORIENTED_EDGE('',*,*,#98,.F.);
#531=ORIENTED_EDGE('',*,*,#154,.F.);
#532=CARTESIAN_POINT('',(0.0,0.0,-50.795));
#533=DIRECTION('',(-0.0,-0.0,1.0));
#534=DIRECTION('',(0.0,1.0,0.0));
#535=CARTESIAN_POINT('',(0.0,0.0,-50.79));
#536=DIRECTION('',(0.0,0.0,-1.0));
#537=DIRECTION('',(0.0,1.0,0.0));
#538=CARTESIAN_POINT('',(0.0,0.0,0.0100000000000051));
#539=DIRECTION('',(0.0,0.0,-1.0));
#540=DIRECTION('',(0.0,1.0,0.0));
#541=SURFACE_STYLE_FILL_AREA(#588);
#542=ORIENTED_EDGE('',*,*,#136,.T.);
#543=ORIENTED_EDGE('',*,*,#140,.T.);
#544=CARTESIAN_POINT('',(0.0,0.0,-50.79));
#545=DIRECTION('',(0.0,0.0,-1.0));
#546=DIRECTION('',(0.0,-1.0,0.0));
#547=CARTESIAN_POINT('',(0.0,0.0,-0.783999999999992));
#548=DIRECTION('',(0.0,0.0,-1.0));
#549=DIRECTION('',(0.0,1.0,0.0));
#550=SURFACE_STYLE_FILL_AREA(#589);
#551=ORIENTED_EDGE('',*,*,#82,.T.);
#552=ORIENTED_EDGE('',*,*,#162,.F.);
#553=ORIENTED_EDGE('',*,*,#86,.T.);
#554=ORIENTED_EDGE('',*,*,#156,.T.);
#555=CARTESIAN_POINT('',(0.0,0.0,-0.386999999999993));
#556=DIRECTION('',(0.0,-0.0,-1.0));
#557=DIRECTION('',(0.0,1.0,0.0));
#558=SURFACE_STYLE_FILL_AREA(#590);
#559=ORIENTED_EDGE('',*,*,#134,.F.);
#560=ORIENTED_EDGE('',*,*,#156,.F.);
#561=CARTESIAN_POINT('',(0.0,2.94579194313172,0.0100000000000051));
#562=DIRECTION('',(-0.0,0.0,1.0));
#563=DIRECTION('',(0.0,-1.0,0.0));
#564=SURFACE_STYLE_FILL_AREA(#591);
#565=ORIENTED_EDGE('',*,*,#102,.T.);
#566=ORIENTED_EDGE('',*,*,#136,.F.);
#567=ORIENTED_EDGE('',*,*,#132,.T.);
#568=ORIENTED_EDGE('',*,*,#162,.T.);
#569=CARTESIAN_POINT('',(0.0,0.0,-19.437));
#570=DIRECTION('',(-0.0,-0.0,1.0));
#571=DIRECTION('',(0.0,1.0,0.0));
#572=CARTESIAN_POINT('',(0.0,0.0,-50.79));
#573=DIRECTION('',(0.0,0.0,-1.0));
#574=DIRECTION('',(0.0,1.0,0.0));
#575=CARTESIAN_POINT('',(0.0,0.0,-50.79));
#576=DIRECTION('',(0.0,0.0,-1.0));
#577=DIRECTION('',(0.0,1.0,0.0));
#578=FILL_AREA_STYLE('',(#592));
#579=FILL_AREA_STYLE('',(#593));
#580=FILL_AREA_STYLE('',(#594));
#581=FILL_AREA_STYLE('',(#595));
#582=FILL_AREA_STYLE('',(#596));
#583=FILL_AREA_STYLE('',(#597));
#584=FILL_AREA_STYLE('',(#598));
#585=FILL_AREA_STYLE('',(#599));
#586=FILL_AREA_STYLE('',(#600));
#587=FILL_AREA_STYLE('',(#601));
#588=FILL_AREA_STYLE('',(#602));
#589=FILL_AREA_STYLE('',(#603));
#590=FILL_AREA_STYLE('',(#604));
#591=FILL_AREA_STYLE('',(#605));
#592=FILL_AREA_STYLE_COLOUR('',#606);
#593=FILL_AREA_STYLE_COLOUR('',#607);
#594=FILL_AREA_STYLE_COLOUR('',#608);
#595=FILL_AREA_STYLE_COLOUR('',#609);
#596=FILL_AREA_STYLE_COLOUR('',#610);
#597=FILL_AREA_STYLE_COLOUR('',#611);
#598=FILL_AREA_STYLE_COLOUR('',#612);
#599=FILL_AREA_STYLE_COLOUR('',#613);
#600=FILL_AREA_STYLE_COLOUR('',#614);
#601=FILL_AREA_STYLE_COLOUR('',#615);
#602=FILL_AREA_STYLE_COLOUR('',#616);
#603=FILL_AREA_STYLE_COLOUR('',#617);
#604=FILL_AREA_STYLE_COLOUR('',#618);
#605=FILL_AREA_STYLE_COLOUR('',#619);
#606=COLOUR_RGB('',0.498039215803146,0.498039215803146,0.498039215803146);
#607=COLOUR_RGB('',0.800000011920929,0.800000011920929,0.800000011920929);
#608=COLOUR_RGB('',0.498039215803146,0.498039215803146,0.498039215803146);
#609=COLOUR_RGB('',0.800000011920929,0.800000011920929,0.800000011920929);
#610=COLOUR_RGB('',0.800000011920929,0.800000011920929,0.800000011920929);
#611=COLOUR_RGB('',0.800000011920929,0.800000011920929,0.800000011920929);
#612=COLOUR_RGB('',0.800000011920929,0.800000011920929,0.800000011920929);
#613=COLOUR_RGB('',0.800000011920929,0.800000011920929,0.800000011920929);
#614=COLOUR_RGB('',0.800000011920929,0.800000011920929,0.800000011920929);
#615=COLOUR_RGB('',0.800000011920929,0.800000011920929,0.800000011920929);
#616=COLOUR_RGB('',0.498039215803146,0.498039215803146,0.498039215803146);
#617=COLOUR_RGB('',0.498039215803146,0.498039215803146,0.498039215803146);
#618=COLOUR_RGB('',0.498039215803146,0.498039215803146,0.498039215803146);
#619=COLOUR_RGB('',0.498039215803146,0.498039215803146,0.498039215803146);
#620=AXIS2_PLACEMENT_3D('PCS',#621,#622,#623);
#621=CARTESIAN_POINT('',(0.0,0.0,0.0));
#622=DIRECTION('',(0.0,0.0,1.0));
#623=DIRECTION('',(1.0,0.0,0.0));
#624=AXIS2_PLACEMENT_3D('CIP',#625,#626,#627);
#625=CARTESIAN_POINT('',(0.0,0.0,-82.6));
#626=DIRECTION('',(0.0,0.0,1.0));
#627=DIRECTION('',(1.0,0.0,0.0));
#628=AXIS2_PLACEMENT_3D('CRP',#629,#630,#631);
#629=CARTESIAN_POINT('',(-6.35,0.0,-82.6));
#630=DIRECTION('',(0.0,0.0,1.0));
#631=DIRECTION('',(1.0,0.0,0.0));
#632=AXIS2_PLACEMENT_3D('MCS',#633,#634,#635);
#633=CARTESIAN_POINT('',(0.0,0.0,-38.1));
#634=DIRECTION('',(0.0,0.0,1.0));
#635=DIRECTION('',(1.0,0.0,0.0));
#636=CONSTRUCTIVE_GEOMETRY_REPRESENTATION_RELATIONSHIP('coordinate systems',$,#65,#637);
#637=CONSTRUCTIVE_GEOMETRY_REPRESENTATION('coordinate systems',(#620,#624,#628,#632),#10);
ENDSEC;
END-ISO-10303-21;
