ISO-10303-21;
HEADER;
FILE_DESCRIPTION(('no description'),'unknown implementation level');
FILE_NAME('solidBhyVhVZkG4DIq1jqlxwJ9sPR6JA_1.STP','  ',('CIMSOURCE GmbH'),('CADClick - KiM GmbH - www.kimweb.de'),'unknown preprocess','ACIS','unknown authorization');
FILE_SCHEMA(('automotive_design'));
ENDSEC;
DATA;
#1=MECHANICAL_DESIGN_GEOMETRIC_PRESENTATION_REPRESENTATION(' ',(#14,#15,#16,#17,#18,#19,#20,#21,#22,#23,#24,#25,#26,#27,#28,#29,#30,#31,#32,#33,#34,#35,#36,#37,#38,#39,#40,#41,#42,#43,#44,#45,#46,#47,#48,#49,#50,#51,#52,#53,#54,#55,#56,#57,#58,#59,#60),#10);
#2=PRODUCT_DEFINITION_CONTEXT('',#61,'design');
#3=APPLICATION_PROTOCOL_DEFINITION('INTERNATIONAL STANDARD','automotive_design',1994,#61);
#4=PRODUCT_CATEGORY_RELATIONSHIP('NONE','NONE',#62,#63);
#5=SHAPE_DEFINITION_REPRESENTATION(#64,#65);
#6=PRODUCT_DEFINITION_CONTEXT('',#66,'design');
#7=APPLICATION_PROTOCOL_DEFINITION('INTERNATIONAL STANDARD','automotive_design',1994,#66);
#8=PRODUCT_CATEGORY_RELATIONSHIP('NONE','NONE',#67,#68);
#9=SHAPE_DEFINITION_REPRESENTATION(#69,#70);
#10= (GEOMETRIC_REPRESENTATION_CONTEXT(3)GLOBAL_UNCERTAINTY_ASSIGNED_CONTEXT((#73))GLOBAL_UNIT_ASSIGNED_CONTEXT((#75,#76,#77))REPRESENTATION_CONTEXT('NONE','WORKSPACE'));
#14=STYLED_ITEM('',(#79),#80);
#15=STYLED_ITEM('',(#81),#82);
#16=STYLED_ITEM('',(#83),#84);
#17=STYLED_ITEM('',(#85),#86);
#18=STYLED_ITEM('',(#87),#88);
#19=STYLED_ITEM('',(#89),#90);
#20=STYLED_ITEM('',(#91),#92);
#21=STYLED_ITEM('',(#93),#94);
#22=STYLED_ITEM('',(#95),#96);
#23=STYLED_ITEM('',(#97),#98);
#24=STYLED_ITEM('',(#99),#100);
#25=STYLED_ITEM('',(#101),#102);
#26=STYLED_ITEM('',(#103),#104);
#27=STYLED_ITEM('',(#105),#106);
#28=STYLED_ITEM('',(#107),#108);
#29=STYLED_ITEM('',(#109),#110);
#30=STYLED_ITEM('',(#111),#112);
#31=STYLED_ITEM('',(#113),#114);
#32=STYLED_ITEM('',(#115),#116);
#33=STYLED_ITEM('',(#117),#118);
#34=STYLED_ITEM('',(#119),#120);
#35=STYLED_ITEM('',(#121),#122);
#36=STYLED_ITEM('',(#123),#124);
#37=STYLED_ITEM('',(#125),#126);
#38=STYLED_ITEM('',(#127),#128);
#39=STYLED_ITEM('',(#129),#130);
#40=STYLED_ITEM('',(#131),#132);
#41=STYLED_ITEM('',(#133),#134);
#42=STYLED_ITEM('',(#135),#136);
#43=STYLED_ITEM('',(#137),#138);
#44=STYLED_ITEM('',(#139),#140);
#45=STYLED_ITEM('',(#141),#142);
#46=STYLED_ITEM('',(#143),#144);
#47=STYLED_ITEM('',(#145),#146);
#48=STYLED_ITEM('',(#147),#148);
#49=STYLED_ITEM('',(#149),#150);
#50=STYLED_ITEM('',(#151),#152);
#51=STYLED_ITEM('',(#153),#154);
#52=STYLED_ITEM('',(#155),#156);
#53=STYLED_ITEM('',(#157),#158);
#54=STYLED_ITEM('',(#159),#160);
#55=STYLED_ITEM('',(#161),#162);
#56=STYLED_ITEM('',(#163),#164);
#57=STYLED_ITEM('',(#165),#166);
#58=STYLED_ITEM('',(#167),#168);
#59=STYLED_ITEM('',(#169),#170);
#60=STYLED_ITEM('',(#171),#172);
#61=APPLICATION_CONTEXT(' ');
#62=PRODUCT_CATEGORY('part','NONE');
#63=PRODUCT_RELATED_PRODUCT_CATEGORY('detail',' ',(#173));
#64=PRODUCT_DEFINITION_SHAPE('NONE','NONE',#174);
#65=ADVANCED_BREP_SHAPE_REPRESENTATION('1',(#96,#175),#10);
#66=APPLICATION_CONTEXT(' ');
#67=PRODUCT_CATEGORY('part','NONE');
#68=PRODUCT_RELATED_PRODUCT_CATEGORY('detail',' ',(#176));
#69=PRODUCT_DEFINITION_SHAPE('NONE','NONE',#177);
#70=ADVANCED_BREP_SHAPE_REPRESENTATION('2',(#130,#178),#10);
#73=UNCERTAINTY_MEASURE_WITH_UNIT(LENGTH_MEASURE(1.0E-006),#75,'','');
#75= (CONVERSION_BASED_UNIT('MILLIMETRE',#181)LENGTH_UNIT()NAMED_UNIT(#184));
#76= (NAMED_UNIT(#186)PLANE_ANGLE_UNIT()SI_UNIT($,.RADIAN.));
#77= (NAMED_UNIT(#186)SOLID_ANGLE_UNIT()SI_UNIT($,.STERADIAN.));
#79=PRESENTATION_STYLE_ASSIGNMENT((#192));
#80=EDGE_CURVE('',#112,#146,#193,.T.);
#81=PRESENTATION_STYLE_ASSIGNMENT((#194));
#82=EDGE_CURVE('',#110,#128,#195,.T.);
#83=PRESENTATION_STYLE_ASSIGNMENT((#196));
#84=VERTEX_POINT('',#197);
#85=PRESENTATION_STYLE_ASSIGNMENT((#198));
#86=EDGE_CURVE('',#128,#110,#199,.T.);
#87=PRESENTATION_STYLE_ASSIGNMENT((#200));
#88=ADVANCED_FACE('',(#201),#202,.T.);
#89=PRESENTATION_STYLE_ASSIGNMENT((#203));
#90=VERTEX_POINT('',#204);
#91=PRESENTATION_STYLE_ASSIGNMENT((#205));
#92=VERTEX_POINT('',#206);
#93=PRESENTATION_STYLE_ASSIGNMENT((#207));
#94=VERTEX_POINT('',#208);
#95=PRESENTATION_STYLE_ASSIGNMENT((#209));
#96=MANIFOLD_SOLID_BREP('1',#210);
#97=PRESENTATION_STYLE_ASSIGNMENT((#211));
#98=ADVANCED_FACE('',(#212),#213,.T.);
#99=PRESENTATION_STYLE_ASSIGNMENT((#214));
#100=EDGE_CURVE('',#90,#136,#215,.T.);
#101=PRESENTATION_STYLE_ASSIGNMENT((#216));
#102=EDGE_CURVE('',#124,#90,#217,.T.);
#103=PRESENTATION_STYLE_ASSIGNMENT((#218));
#104=EDGE_CURVE('',#150,#112,#219,.T.);
#105=PRESENTATION_STYLE_ASSIGNMENT((#220));
#106=EDGE_CURVE('',#94,#136,#221,.T.);
#107=PRESENTATION_STYLE_ASSIGNMENT((#222));
#108=EDGE_CURVE('',#136,#94,#223,.T.);
#109=PRESENTATION_STYLE_ASSIGNMENT((#224));
#110=VERTEX_POINT('',#225);
#111=PRESENTATION_STYLE_ASSIGNMENT((#226));
#112=VERTEX_POINT('',#227);
#113=PRESENTATION_STYLE_ASSIGNMENT((#228));
#114=ADVANCED_FACE('',(#229),#230,.T.);
#115=PRESENTATION_STYLE_ASSIGNMENT((#231));
#116=EDGE_CURVE('',#92,#150,#232,.T.);
#117=PRESENTATION_STYLE_ASSIGNMENT((#233));
#118=ADVANCED_FACE('',(#234,#235),#236,.T.);
#119=PRESENTATION_STYLE_ASSIGNMENT((#237));
#120=VERTEX_POINT('',#238);
#121=PRESENTATION_STYLE_ASSIGNMENT((#239));
#122=VERTEX_POINT('',#240);
#123=PRESENTATION_STYLE_ASSIGNMENT((#241));
#124=VERTEX_POINT('',#242);
#125=PRESENTATION_STYLE_ASSIGNMENT((#243));
#126=EDGE_CURVE('',#146,#112,#244,.T.);
#127=PRESENTATION_STYLE_ASSIGNMENT((#245));
#128=VERTEX_POINT('',#246);
#129=PRESENTATION_STYLE_ASSIGNMENT((#247));
#130=MANIFOLD_SOLID_BREP('2',#248);
#131=PRESENTATION_STYLE_ASSIGNMENT((#249));
#132=EDGE_CURVE('',#112,#128,#250,.T.);
#133=PRESENTATION_STYLE_ASSIGNMENT((#251));
#134=ADVANCED_FACE('',(#252),#253,.T.);
#135=PRESENTATION_STYLE_ASSIGNMENT((#254));
#136=VERTEX_POINT('',#255);
#137=PRESENTATION_STYLE_ASSIGNMENT((#256));
#138=EDGE_CURVE('',#84,#122,#257,.T.);
#139=PRESENTATION_STYLE_ASSIGNMENT((#258));
#140=ADVANCED_FACE('',(#259),#260,.T.);
#141=PRESENTATION_STYLE_ASSIGNMENT((#261));
#142=ADVANCED_FACE('',(#262),#263,.T.);
#143=PRESENTATION_STYLE_ASSIGNMENT((#264));
#144=EDGE_CURVE('',#94,#124,#265,.T.);
#145=PRESENTATION_STYLE_ASSIGNMENT((#266));
#146=VERTEX_POINT('',#267);
#147=PRESENTATION_STYLE_ASSIGNMENT((#268));
#148=EDGE_CURVE('',#146,#92,#269,.T.);
#149=PRESENTATION_STYLE_ASSIGNMENT((#270));
#150=VERTEX_POINT('',#271);
#151=PRESENTATION_STYLE_ASSIGNMENT((#272));
#152=EDGE_CURVE('',#110,#146,#273,.T.);
#153=PRESENTATION_STYLE_ASSIGNMENT((#274));
#154=ADVANCED_FACE('',(#275),#276,.T.);
#155=PRESENTATION_STYLE_ASSIGNMENT((#277));
#156=ADVANCED_FACE('',(#278),#279,.T.);
#157=PRESENTATION_STYLE_ASSIGNMENT((#280));
#158=ADVANCED_FACE('',(#281),#282,.T.);
#159=PRESENTATION_STYLE_ASSIGNMENT((#283));
#160=ADVANCED_FACE('',(#284),#285,.F.);
#161=PRESENTATION_STYLE_ASSIGNMENT((#286));
#162=EDGE_CURVE('',#90,#124,#287,.T.);
#163=PRESENTATION_STYLE_ASSIGNMENT((#288));
#164=ADVANCED_FACE('',(#289),#290,.F.);
#165=PRESENTATION_STYLE_ASSIGNMENT((#291));
#166=EDGE_CURVE('',#120,#122,#292,.T.);
#167=PRESENTATION_STYLE_ASSIGNMENT((#293));
#168=EDGE_CURVE('',#150,#92,#294,.T.);
#169=PRESENTATION_STYLE_ASSIGNMENT((#295));
#170=EDGE_CURVE('',#84,#120,#296,.T.);
#171=PRESENTATION_STYLE_ASSIGNMENT((#297));
#172=EDGE_CURVE('',#122,#84,#298,.T.);
#173=PRODUCT('1','1','PART-1-DESC',(#299));
#174=PRODUCT_DEFINITION('NONE','NONE',#300,#2);
#175=AXIS2_PLACEMENT_3D('',#301,#302,#303);
#176=PRODUCT('2','2','PART-2-DESC',(#304));
#177=PRODUCT_DEFINITION('NONE','NONE',#305,#6);
#178=AXIS2_PLACEMENT_3D('',#306,#307,#308);
#181=LENGTH_MEASURE_WITH_UNIT(LENGTH_MEASURE(1.0),#309);
#184=DIMENSIONAL_EXPONENTS(1.0,0.0,0.0,0.0,0.0,0.0,0.0);
#186=DIMENSIONAL_EXPONENTS(0.0,0.0,0.0,0.0,0.0,0.0,0.0);
#192=CURVE_STYLE('',#310,POSITIVE_LENGTH_MEASURE(1.0E-006),#311);
#193=CIRCLE('',#312,4.7625);
#194=CURVE_STYLE('',#313,POSITIVE_LENGTH_MEASURE(1.0E-006),#314);
#195=CIRCLE('',#315,4.30408388626344);
#196=POINT_STYLE(' ',#316,POSITIVE_LENGTH_MEASURE(1.0E-006),#317);
#197=CARTESIAN_POINT('',(0.0,5.08994903671236,-44.39));
#198=CURVE_STYLE('',#318,POSITIVE_LENGTH_MEASURE(1.0E-006),#319);
#199=CIRCLE('',#320,4.30408388626344);
#200=SURFACE_STYLE_USAGE(.BOTH.,#321);
#201=FACE_OUTER_BOUND('',#322,.T.);
#202=CONICAL_SURFACE('',#323,3.14272451835618,0.122169949689169);
#203=POINT_STYLE(' ',#324,POSITIVE_LENGTH_MEASURE(1.0E-006),#325);
#204=CARTESIAN_POINT('',(1.45789386422554E-016,-1.1905,-76.19));
#205=POINT_STYLE(' ',#326,POSITIVE_LENGTH_MEASURE(1.0E-006),#327);
#206=CARTESIAN_POINT('',(-5.83218776007907E-016,4.7625,-44.39));
#207=POINT_STYLE(' ',#328,POSITIVE_LENGTH_MEASURE(1.0E-006),#329);
#208=CARTESIAN_POINT('',(0.0,5.09494903671236,-44.39));
#209=SURFACE_STYLE_USAGE(.BOTH.,#330);
#210=CLOSED_SHELL('',(#88,#164,#160,#118,#140,#156));
#211=SURFACE_STYLE_USAGE(.BOTH.,#331);
#212=FACE_OUTER_BOUND('',#332,.T.);
#213=CYLINDRICAL_SURFACE('',#333,4.7625);
#214=CURVE_STYLE('',#334,POSITIVE_LENGTH_MEASURE(1.0E-006),#335);
#215=LINE('',#336,#337);
#216=CURVE_STYLE('',#338,POSITIVE_LENGTH_MEASURE(1.0E-006),#339);
#217=CIRCLE('',#340,1.1905);
#218=CURVE_STYLE('',#341,POSITIVE_LENGTH_MEASURE(1.0E-006),#342);
#219=LINE('',#343,#344);
#220=CURVE_STYLE('',#345,POSITIVE_LENGTH_MEASURE(1.0E-006),#346);
#221=CIRCLE('',#347,5.09494903671236);
#222=CURVE_STYLE('',#348,POSITIVE_LENGTH_MEASURE(1.0E-006),#349);
#223=CIRCLE('',#350,5.09494903671236);
#224=POINT_STYLE(' ',#351,POSITIVE_LENGTH_MEASURE(1.0E-006),#352);
#225=CARTESIAN_POINT('',(0.0,4.30408388626344,0.00999999999999091));
#226=POINT_STYLE(' ',#353,POSITIVE_LENGTH_MEASURE(1.0E-006),#354);
#227=CARTESIAN_POINT('',(5.83218776007907E-016,-4.7625,-0.784000000000006));
#228=SURFACE_STYLE_USAGE(.BOTH.,#355);
#229=FACE_OUTER_BOUND('',#356,.T.);
#230=CONICAL_SURFACE('',#357,4.53329194313172,0.523598775598301);
#231=CURVE_STYLE('',#358,POSITIVE_LENGTH_MEASURE(1.0E-006),#359);
#232=CIRCLE('',#360,4.7625);
#233=SURFACE_STYLE_USAGE(.BOTH.,#361);
#234=FACE_OUTER_BOUND('',#362,.T.);
#235=FACE_BOUND('',#363,.T.);
#236=PLANE('',#364);
#237=POINT_STYLE(' ',#365,POSITIVE_LENGTH_MEASURE(1.0E-006),#366);
#238=CARTESIAN_POINT('',(0.0,0.0,-44.4));
#239=POINT_STYLE(' ',#367,POSITIVE_LENGTH_MEASURE(1.0E-006),#368);
#240=CARTESIAN_POINT('',(6.23318393099005E-016,-5.08994903671236,-44.39));
#241=POINT_STYLE(' ',#369,POSITIVE_LENGTH_MEASURE(1.0E-006),#370);
#242=CARTESIAN_POINT('',(0.0,1.1905,-76.19));
#243=CURVE_STYLE('',#371,POSITIVE_LENGTH_MEASURE(1.0E-006),#372);
#244=CIRCLE('',#373,4.7625);
#245=POINT_STYLE(' ',#374,POSITIVE_LENGTH_MEASURE(1.0E-006),#375);
#246=CARTESIAN_POINT('',(5.27080847450271E-016,-4.30408388626344,0.00999999999999091));
#247=SURFACE_STYLE_USAGE(.BOTH.,#376);
#248=CLOSED_SHELL('',(#134,#154,#142,#158,#114,#98));
#249=CURVE_STYLE('',#377,POSITIVE_LENGTH_MEASURE(1.0E-006),#378);
#250=LINE('',#379,#380);
#251=SURFACE_STYLE_USAGE(.BOTH.,#381);
#252=FACE_OUTER_BOUND('',#382,.T.);
#253=CYLINDRICAL_SURFACE('',#383,4.7625);
#254=POINT_STYLE(' ',#384,POSITIVE_LENGTH_MEASURE(1.0E-006),#385);
#255=CARTESIAN_POINT('',(6.23930696275916E-016,-5.09494903671236,-44.39));
#256=CURVE_STYLE('',#386,POSITIVE_LENGTH_MEASURE(1.0E-006),#387);
#257=CIRCLE('',#388,5.08994903671236);
#258=SURFACE_STYLE_USAGE(.BOTH.,#389);
#259=FACE_OUTER_BOUND('',#390,.T.);
#260=CONICAL_SURFACE('',#391,3.14272451835618,0.122169949689169);
#261=SURFACE_STYLE_USAGE(.BOTH.,#392);
#262=FACE_OUTER_BOUND('',#393,.T.);
#263=PLANE('',#394);
#264=CURVE_STYLE('',#395,POSITIVE_LENGTH_MEASURE(1.0E-006),#396);
#265=LINE('',#397,#398);
#266=POINT_STYLE(' ',#399,POSITIVE_LENGTH_MEASURE(1.0E-006),#400);
#267=CARTESIAN_POINT('',(0.0,4.7625,-0.784000000000006));
#268=CURVE_STYLE('',#401,POSITIVE_LENGTH_MEASURE(1.0E-006),#402);
#269=LINE('',#403,#404);
#270=POINT_STYLE(' ',#405,POSITIVE_LENGTH_MEASURE(1.0E-006),#406);
#271=CARTESIAN_POINT('',(0.0,-4.7625,-44.39));
#272=CURVE_STYLE('',#407,POSITIVE_LENGTH_MEASURE(1.0E-006),#408);
#273=LINE('',#409,#410);
#274=SURFACE_STYLE_USAGE(.BOTH.,#411);
#275=FACE_OUTER_BOUND('',#412,.T.);
#276=CONICAL_SURFACE('',#413,4.53329194313172,0.523598775598301);
#277=SURFACE_STYLE_USAGE(.BOTH.,#414);
#278=FACE_OUTER_BOUND('',#415,.T.);
#279=PLANE('',#416);
#280=SURFACE_STYLE_USAGE(.BOTH.,#417);
#281=FACE_OUTER_BOUND('',#418,.T.);
#282=PLANE('',#419);
#283=SURFACE_STYLE_USAGE(.BOTH.,#420);
#284=FACE_OUTER_BOUND('',#421,.T.);
#285=CONICAL_SURFACE('',#422,2.54497451835618,1.56883167310944);
#286=CURVE_STYLE('',#423,POSITIVE_LENGTH_MEASURE(1.0E-006),#424);
#287=CIRCLE('',#425,1.1905);
#288=SURFACE_STYLE_USAGE(.BOTH.,#426);
#289=FACE_OUTER_BOUND('',#427,.T.);
#290=CONICAL_SURFACE('',#428,2.54497451835618,1.56883167310944);
#291=CURVE_STYLE('',#429,POSITIVE_LENGTH_MEASURE(1.0E-006),#430);
#292=LINE('',#431,#432);
#293=CURVE_STYLE('',#433,POSITIVE_LENGTH_MEASURE(1.0E-006),#434);
#294=CIRCLE('',#435,4.7625);
#295=CURVE_STYLE('',#436,POSITIVE_LENGTH_MEASURE(1.0E-006),#437);
#296=LINE('',#438,#439);
#297=CURVE_STYLE('',#440,POSITIVE_LENGTH_MEASURE(1.0E-006),#441);
#298=CIRCLE('',#442,5.08994903671236);
#299=PRODUCT_CONTEXT('',#61,'mechanical');
#300=PRODUCT_DEFINITION_FORMATION_WITH_SPECIFIED_SOURCE(' ','NONE',#173,.NOT_KNOWN.);
#301=CARTESIAN_POINT('',(0.0,0.0,0.0));
#302=DIRECTION('',(0.0,0.0,1.0));
#303=DIRECTION('',(1.0,0.0,0.0));
#304=PRODUCT_CONTEXT('',#66,'mechanical');
#305=PRODUCT_DEFINITION_FORMATION_WITH_SPECIFIED_SOURCE(' ','NONE',#176,.NOT_KNOWN.);
#306=CARTESIAN_POINT('',(0.0,0.0,0.0));
#307=DIRECTION('',(0.0,0.0,1.0));
#308=DIRECTION('',(1.0,0.0,0.0));
#309= (NAMED_UNIT(#184)LENGTH_UNIT()SI_UNIT(.MILLI.,.METRE.));
#310=DRAUGHTING_PRE_DEFINED_CURVE_FONT('continuous');
#311=COLOUR_RGB('',0.498039215803146,0.498039215803146,0.498039215803146);
#312=AXIS2_PLACEMENT_3D('',#444,#445,#446);
#313=DRAUGHTING_PRE_DEFINED_CURVE_FONT('continuous');
#314=COLOUR_RGB('',0.498039215803146,0.498039215803146,0.498039215803146);
#315=AXIS2_PLACEMENT_3D('',#447,#448,#449);
#316=PRE_DEFINED_MARKER('');
#317=COLOUR_RGB('',0.800000011920929,0.800000011920929,0.800000011920929);
#318=DRAUGHTING_PRE_DEFINED_CURVE_FONT('continuous');
#319=COLOUR_RGB('',0.498039215803146,0.498039215803146,0.498039215803146);
#320=AXIS2_PLACEMENT_3D('',#450,#451,#452);
#321=SURFACE_SIDE_STYLE('',(#453));
#322=EDGE_LOOP('',(#454,#455,#456,#457));
#323=AXIS2_PLACEMENT_3D('',#458,#459,#460);
#324=PRE_DEFINED_MARKER('');
#325=COLOUR_RGB('',0.800000011920929,0.800000011920929,0.800000011920929);
#326=PRE_DEFINED_MARKER('');
#327=COLOUR_RGB('',0.498039215803146,0.498039215803146,0.498039215803146);
#328=PRE_DEFINED_MARKER('');
#329=COLOUR_RGB('',0.800000011920929,0.800000011920929,0.800000011920929);
#330=SURFACE_SIDE_STYLE('',(#461));
#331=SURFACE_SIDE_STYLE('',(#462));
#332=EDGE_LOOP('',(#463,#464,#465,#466));
#333=AXIS2_PLACEMENT_3D('',#467,#468,#469);
#334=DRAUGHTING_PRE_DEFINED_CURVE_FONT('continuous');
#335=COLOUR_RGB('',0.800000011920929,0.800000011920929,0.800000011920929);
#336=CARTESIAN_POINT('',(3.84860041349235E-016,-3.14272451835618,-60.29));
#337=VECTOR('',#470,1.0);
#338=DRAUGHTING_PRE_DEFINED_CURVE_FONT('continuous');
#339=COLOUR_RGB('',0.800000011920929,0.800000011920929,0.800000011920929);
#340=AXIS2_PLACEMENT_3D('',#471,#472,#473);
#341=DRAUGHTING_PRE_DEFINED_CURVE_FONT('continuous');
#342=COLOUR_RGB('',0.498039215803146,0.498039215803146,0.498039215803146);
#343=CARTESIAN_POINT('',(5.83218776007907E-016,-4.7625,-21.3965));
#344=VECTOR('',#474,1.0);
#345=DRAUGHTING_PRE_DEFINED_CURVE_FONT('continuous');
#346=COLOUR_RGB('',0.800000011920929,0.800000011920929,0.800000011920929);
#347=AXIS2_PLACEMENT_3D('',#475,#476,#477);
#348=DRAUGHTING_PRE_DEFINED_CURVE_FONT('continuous');
#349=COLOUR_RGB('',0.800000011920929,0.800000011920929,0.800000011920929);
#350=AXIS2_PLACEMENT_3D('',#478,#479,#480);
#351=PRE_DEFINED_MARKER('');
#352=COLOUR_RGB('',0.498039215803146,0.498039215803146,0.498039215803146);
#353=PRE_DEFINED_MARKER('');
#354=COLOUR_RGB('',0.498039215803146,0.498039215803146,0.498039215803146);
#355=SURFACE_SIDE_STYLE('',(#481));
#356=EDGE_LOOP('',(#482,#483,#484,#485));
#357=AXIS2_PLACEMENT_3D('',#486,#487,#488);
#358=DRAUGHTING_PRE_DEFINED_CURVE_FONT('continuous');
#359=COLOUR_RGB('',0.498039215803146,0.498039215803146,0.498039215803146);
#360=AXIS2_PLACEMENT_3D('',#489,#490,#491);
#361=SURFACE_SIDE_STYLE('',(#492));
#362=EDGE_LOOP('',(#493,#494));
#363=EDGE_LOOP('',(#495,#496));
#364=AXIS2_PLACEMENT_3D('',#497,#498,#499);
#365=PRE_DEFINED_MARKER('');
#366=COLOUR_RGB('',0.800000011920929,0.800000011920929,0.800000011920929);
#367=PRE_DEFINED_MARKER('');
#368=COLOUR_RGB('',0.800000011920929,0.800000011920929,0.800000011920929);
#369=PRE_DEFINED_MARKER('');
#370=COLOUR_RGB('',0.800000011920929,0.800000011920929,0.800000011920929);
#371=DRAUGHTING_PRE_DEFINED_CURVE_FONT('continuous');
#372=COLOUR_RGB('',0.498039215803146,0.498039215803146,0.498039215803146);
#373=AXIS2_PLACEMENT_3D('',#500,#501,#502);
#374=PRE_DEFINED_MARKER('');
#375=COLOUR_RGB('',0.498039215803146,0.498039215803146,0.498039215803146);
#376=SURFACE_SIDE_STYLE('',(#503));
#377=DRAUGHTING_PRE_DEFINED_CURVE_FONT('continuous');
#378=COLOUR_RGB('',0.498039215803146,0.498039215803146,0.498039215803146);
#379=CARTESIAN_POINT('',(5.55149811729089E-016,-4.53329194313172,-0.387000000000008));
#380=VECTOR('',#504,1.0);
#381=SURFACE_SIDE_STYLE('',(#505));
#382=EDGE_LOOP('',(#506,#507,#508,#509));
#383=AXIS2_PLACEMENT_3D('',#510,#511,#512);
#384=PRE_DEFINED_MARKER('');
#385=COLOUR_RGB('',0.800000011920929,0.800000011920929,0.800000011920929);
#386=DRAUGHTING_PRE_DEFINED_CURVE_FONT('continuous');
#387=COLOUR_RGB('',0.800000011920929,0.800000011920929,0.800000011920929);
#388=AXIS2_PLACEMENT_3D('',#513,#514,#515);
#389=SURFACE_SIDE_STYLE('',(#516));
#390=EDGE_LOOP('',(#517,#518,#519,#520));
#391=AXIS2_PLACEMENT_3D('',#521,#522,#523);
#392=SURFACE_SIDE_STYLE('',(#524));
#393=EDGE_LOOP('',(#525,#526));
#394=AXIS2_PLACEMENT_3D('',#527,#528,#529);
#395=DRAUGHTING_PRE_DEFINED_CURVE_FONT('continuous');
#396=COLOUR_RGB('',0.800000011920929,0.800000011920929,0.800000011920929);
#397=CARTESIAN_POINT('',(-3.84860041349235E-016,3.14272451835618,-60.29));
#398=VECTOR('',#530,1.0);
#399=PRE_DEFINED_MARKER('');
#400=COLOUR_RGB('',0.498039215803146,0.498039215803146,0.498039215803146);
#401=DRAUGHTING_PRE_DEFINED_CURVE_FONT('continuous');
#402=COLOUR_RGB('',0.498039215803146,0.498039215803146,0.498039215803146);
#403=CARTESIAN_POINT('',(-5.83218776007907E-016,4.7625,-21.3965));
#404=VECTOR('',#531,1.0);
#405=PRE_DEFINED_MARKER('');
#406=COLOUR_RGB('',0.498039215803146,0.498039215803146,0.498039215803146);
#407=DRAUGHTING_PRE_DEFINED_CURVE_FONT('continuous');
#408=COLOUR_RGB('',0.498039215803146,0.498039215803146,0.498039215803146);
#409=CARTESIAN_POINT('',(-5.5514981172909E-016,4.53329194313172,-0.387000000000008));
#410=VECTOR('',#532,1.0);
#411=SURFACE_SIDE_STYLE('',(#533));
#412=EDGE_LOOP('',(#534,#535,#536,#537));
#413=AXIS2_PLACEMENT_3D('',#538,#539,#540);
#414=SURFACE_SIDE_STYLE('',(#541));
#415=EDGE_LOOP('',(#542,#543));
#416=AXIS2_PLACEMENT_3D('',#544,#545,#546);
#417=SURFACE_SIDE_STYLE('',(#547));
#418=EDGE_LOOP('',(#548,#549));
#419=AXIS2_PLACEMENT_3D('',#550,#551,#552);
#420=SURFACE_SIDE_STYLE('',(#553));
#421=EDGE_LOOP('',(#554,#555,#556));
#422=AXIS2_PLACEMENT_3D('',#557,#558,#559);
#423=DRAUGHTING_PRE_DEFINED_CURVE_FONT('continuous');
#424=COLOUR_RGB('',0.800000011920929,0.800000011920929,0.800000011920929);
#425=AXIS2_PLACEMENT_3D('',#560,#561,#562);
#426=SURFACE_SIDE_STYLE('',(#563));
#427=EDGE_LOOP('',(#564,#565,#566));
#428=AXIS2_PLACEMENT_3D('',#567,#568,#569);
#429=DRAUGHTING_PRE_DEFINED_CURVE_FONT('continuous');
#430=COLOUR_RGB('',0.800000011920929,0.800000011920929,0.800000011920929);
#431=CARTESIAN_POINT('',(3.11659196549502E-016,-2.54497451835618,-44.395));
#432=VECTOR('',#570,1.0);
#433=DRAUGHTING_PRE_DEFINED_CURVE_FONT('continuous');
#434=COLOUR_RGB('',0.498039215803146,0.498039215803146,0.498039215803146);
#435=AXIS2_PLACEMENT_3D('',#571,#572,#573);
#436=DRAUGHTING_PRE_DEFINED_CURVE_FONT('continuous');
#437=COLOUR_RGB('',0.800000011920929,0.800000011920929,0.800000011920929);
#438=CARTESIAN_POINT('',(-3.11659196549502E-016,2.54497451835618,-44.395));
#439=VECTOR('',#574,1.0);
#440=DRAUGHTING_PRE_DEFINED_CURVE_FONT('continuous');
#441=COLOUR_RGB('',0.800000011920929,0.800000011920929,0.800000011920929);
#442=AXIS2_PLACEMENT_3D('',#575,#576,#577);
#444=CARTESIAN_POINT('',(0.0,0.0,-0.784000000000006));
#445=DIRECTION('',(0.0,0.0,-1.0));
#446=DIRECTION('',(0.0,1.0,0.0));
#447=CARTESIAN_POINT('',(0.0,0.0,0.00999999999999091));
#448=DIRECTION('',(0.0,0.0,-1.0));
#449=DIRECTION('',(0.0,1.0,0.0));
#450=CARTESIAN_POINT('',(0.0,0.0,0.00999999999999091));
#451=DIRECTION('',(0.0,0.0,-1.0));
#452=DIRECTION('',(0.0,1.0,0.0));
#453=SURFACE_STYLE_FILL_AREA(#578);
#454=ORIENTED_EDGE('',*,*,#144,.F.);
#455=ORIENTED_EDGE('',*,*,#106,.T.);
#456=ORIENTED_EDGE('',*,*,#100,.F.);
#457=ORIENTED_EDGE('',*,*,#102,.F.);
#458=CARTESIAN_POINT('',(0.0,0.0,-60.29));
#459=DIRECTION('',(-0.0,-0.0,1.0));
#460=DIRECTION('',(0.0,1.0,0.0));
#461=SURFACE_STYLE_FILL_AREA(#579);
#462=SURFACE_STYLE_FILL_AREA(#580);
#463=ORIENTED_EDGE('',*,*,#148,.T.);
#464=ORIENTED_EDGE('',*,*,#168,.F.);
#465=ORIENTED_EDGE('',*,*,#104,.T.);
#466=ORIENTED_EDGE('',*,*,#80,.T.);
#467=CARTESIAN_POINT('',(0.0,0.0,-21.3965));
#468=DIRECTION('',(-0.0,-0.0,1.0));
#469=DIRECTION('',(0.0,1.0,0.0));
#470=DIRECTION('',(1.49238206777788E-017,-0.121866268545782,0.992546529181744));
#471=CARTESIAN_POINT('',(0.0,0.0,-76.19));
#472=DIRECTION('',(0.0,0.0,-1.0));
#473=DIRECTION('',(0.0,1.0,0.0));
#474=DIRECTION('',(-0.0,-0.0,1.0));
#475=CARTESIAN_POINT('',(0.0,0.0,-44.39));
#476=DIRECTION('',(0.0,0.0,-1.0));
#477=DIRECTION('',(0.0,1.0,0.0));
#478=CARTESIAN_POINT('',(0.0,0.0,-44.39));
#479=DIRECTION('',(0.0,0.0,-1.0));
#480=DIRECTION('',(0.0,1.0,0.0));
#481=SURFACE_STYLE_FILL_AREA(#581);
#482=ORIENTED_EDGE('',*,*,#152,.T.);
#483=ORIENTED_EDGE('',*,*,#80,.F.);
#484=ORIENTED_EDGE('',*,*,#132,.T.);
#485=ORIENTED_EDGE('',*,*,#86,.T.);
#486=CARTESIAN_POINT('',(0.0,0.0,-0.387000000000008));
#487=DIRECTION('',(0.0,-0.0,-1.0));
#488=DIRECTION('',(0.0,1.0,0.0));
#489=CARTESIAN_POINT('',(0.0,0.0,-44.39));
#490=DIRECTION('',(0.0,0.0,-1.0));
#491=DIRECTION('',(0.0,-1.0,0.0));
#492=SURFACE_STYLE_FILL_AREA(#582);
#493=ORIENTED_EDGE('',*,*,#106,.F.);
#494=ORIENTED_EDGE('',*,*,#108,.F.);
#495=ORIENTED_EDGE('',*,*,#138,.T.);
#496=ORIENTED_EDGE('',*,*,#172,.T.);
#497=CARTESIAN_POINT('',(0.0,5.09244903671236,-44.39));
#498=DIRECTION('',(-0.0,0.0,1.0));
#499=DIRECTION('',(0.0,-1.0,0.0));
#500=CARTESIAN_POINT('',(0.0,0.0,-0.784000000000006));
#501=DIRECTION('',(0.0,0.0,-1.0));
#502=DIRECTION('',(0.0,1.0,0.0));
#503=SURFACE_STYLE_FILL_AREA(#583);
#504=DIRECTION('',(-6.12303176911191E-017,0.500000000000002,0.866025403784438));
#505=SURFACE_STYLE_FILL_AREA(#584);
#506=ORIENTED_EDGE('',*,*,#148,.F.);
#507=ORIENTED_EDGE('',*,*,#126,.T.);
#508=ORIENTED_EDGE('',*,*,#104,.F.);
#509=ORIENTED_EDGE('',*,*,#116,.F.);
#510=CARTESIAN_POINT('',(0.0,0.0,-21.3965));
#511=DIRECTION('',(-0.0,-0.0,1.0));
#512=DIRECTION('',(0.0,1.0,0.0));
#513=CARTESIAN_POINT('',(0.0,0.0,-44.39));
#514=DIRECTION('',(0.0,0.0,-1.0));
#515=DIRECTION('',(0.0,1.0,0.0));
#516=SURFACE_STYLE_FILL_AREA(#585);
#517=ORIENTED_EDGE('',*,*,#144,.T.);
#518=ORIENTED_EDGE('',*,*,#162,.F.);
#519=ORIENTED_EDGE('',*,*,#100,.T.);
#520=ORIENTED_EDGE('',*,*,#108,.T.);
#521=CARTESIAN_POINT('',(0.0,0.0,-60.29));
#522=DIRECTION('',(-0.0,-0.0,1.0));
#523=DIRECTION('',(0.0,1.0,0.0));
#524=SURFACE_STYLE_FILL_AREA(#586);
#525=ORIENTED_EDGE('',*,*,#168,.T.);
#526=ORIENTED_EDGE('',*,*,#116,.T.);
#527=CARTESIAN_POINT('',(0.0,0.0,-44.39));
#528=DIRECTION('',(0.0,0.0,-1.0));
#529=DIRECTION('',(0.0,-1.0,0.0));
#530=DIRECTION('',(1.49238206777788E-017,-0.121866268545782,-0.992546529181744));
#531=DIRECTION('',(0.0,0.0,-1.0));
#532=DIRECTION('',(-6.12303176911191E-017,0.500000000000002,-0.866025403784438));
#533=SURFACE_STYLE_FILL_AREA(#587);
#534=ORIENTED_EDGE('',*,*,#152,.F.);
#535=ORIENTED_EDGE('',*,*,#82,.T.);
#536=ORIENTED_EDGE('',*,*,#132,.F.);
#537=ORIENTED_EDGE('',*,*,#126,.F.);
#538=CARTESIAN_POINT('',(0.0,0.0,-0.387000000000008));
#539=DIRECTION('',(0.0,-0.0,-1.0));
#540=DIRECTION('',(0.0,1.0,0.0));
#541=SURFACE_STYLE_FILL_AREA(#588);
#542=ORIENTED_EDGE('',*,*,#102,.T.);
#543=ORIENTED_EDGE('',*,*,#162,.T.);
#544=CARTESIAN_POINT('',(0.0,0.59275,-76.19));
#545=DIRECTION('',(0.0,0.0,-1.0));
#546=DIRECTION('',(0.0,1.0,0.0));
#547=SURFACE_STYLE_FILL_AREA(#589);
#548=ORIENTED_EDGE('',*,*,#82,.F.);
#549=ORIENTED_EDGE('',*,*,#86,.F.);
#550=CARTESIAN_POINT('',(0.0,2.15204194313172,0.00999999999999091));
#551=DIRECTION('',(-0.0,0.0,1.0));
#552=DIRECTION('',(0.0,-1.0,0.0));
#553=SURFACE_STYLE_FILL_AREA(#590);
#554=ORIENTED_EDGE('',*,*,#166,.T.);
#555=ORIENTED_EDGE('',*,*,#138,.F.);
#556=ORIENTED_EDGE('',*,*,#170,.T.);
#557=CARTESIAN_POINT('',(0.0,0.0,-44.395));
#558=DIRECTION('',(-0.0,-0.0,1.0));
#559=DIRECTION('',(0.0,1.0,0.0));
#560=CARTESIAN_POINT('',(0.0,0.0,-76.19));
#561=DIRECTION('',(0.0,0.0,-1.0));
#562=DIRECTION('',(0.0,1.0,0.0));
#563=SURFACE_STYLE_FILL_AREA(#591);
#564=ORIENTED_EDGE('',*,*,#166,.F.);
#565=ORIENTED_EDGE('',*,*,#170,.F.);
#566=ORIENTED_EDGE('',*,*,#172,.F.);
#567=CARTESIAN_POINT('',(0.0,0.0,-44.395));
#568=DIRECTION('',(-0.0,-0.0,1.0));
#569=DIRECTION('',(0.0,1.0,0.0));
#570=DIRECTION('',(1.22460399041608E-016,-0.999998070068569,0.00196465242157855));
#571=CARTESIAN_POINT('',(0.0,0.0,-44.39));
#572=DIRECTION('',(0.0,0.0,-1.0));
#573=DIRECTION('',(0.0,-1.0,0.0));
#574=DIRECTION('',(1.22460399041608E-016,-0.999998070068569,-0.00196465242157855));
#575=CARTESIAN_POINT('',(0.0,0.0,-44.39));
#576=DIRECTION('',(0.0,0.0,-1.0));
#577=DIRECTION('',(0.0,1.0,0.0));
#578=FILL_AREA_STYLE('',(#592));
#579=FILL_AREA_STYLE('',(#593));
#580=FILL_AREA_STYLE('',(#594));
#581=FILL_AREA_STYLE('',(#595));
#582=FILL_AREA_STYLE('',(#596));
#583=FILL_AREA_STYLE('',(#597));
#584=FILL_AREA_STYLE('',(#598));
#585=FILL_AREA_STYLE('',(#599));
#586=FILL_AREA_STYLE('',(#600));
#587=FILL_AREA_STYLE('',(#601));
#588=FILL_AREA_STYLE('',(#602));
#589=FILL_AREA_STYLE('',(#603));
#590=FILL_AREA_STYLE('',(#604));
#591=FILL_AREA_STYLE('',(#605));
#592=FILL_AREA_STYLE_COLOUR('',#606);
#593=FILL_AREA_STYLE_COLOUR('',#607);
#594=FILL_AREA_STYLE_COLOUR('',#608);
#595=FILL_AREA_STYLE_COLOUR('',#609);
#596=FILL_AREA_STYLE_COLOUR('',#610);
#597=FILL_AREA_STYLE_COLOUR('',#611);
#598=FILL_AREA_STYLE_COLOUR('',#612);
#599=FILL_AREA_STYLE_COLOUR('',#613);
#600=FILL_AREA_STYLE_COLOUR('',#614);
#601=FILL_AREA_STYLE_COLOUR('',#615);
#602=FILL_AREA_STYLE_COLOUR('',#616);
#603=FILL_AREA_STYLE_COLOUR('',#617);
#604=FILL_AREA_STYLE_COLOUR('',#618);
#605=FILL_AREA_STYLE_COLOUR('',#619);
#606=COLOUR_RGB('',0.800000011920929,0.800000011920929,0.800000011920929);
#607=COLOUR_RGB('',0.800000011920929,0.800000011920929,0.800000011920929);
#608=COLOUR_RGB('',0.498039215803146,0.498039215803146,0.498039215803146);
#609=COLOUR_RGB('',0.498039215803146,0.498039215803146,0.498039215803146);
#610=COLOUR_RGB('',0.800000011920929,0.800000011920929,0.800000011920929);
#611=COLOUR_RGB('',0.800000011920929,0.800000011920929,0.800000011920929);
#612=COLOUR_RGB('',0.498039215803146,0.498039215803146,0.498039215803146);
#613=COLOUR_RGB('',0.800000011920929,0.800000011920929,0.800000011920929);
#614=COLOUR_RGB('',0.498039215803146,0.498039215803146,0.498039215803146);
#615=COLOUR_RGB('',0.498039215803146,0.498039215803146,0.498039215803146);
#616=COLOUR_RGB('',0.800000011920929,0.800000011920929,0.800000011920929);
#617=COLOUR_RGB('',0.498039215803146,0.498039215803146,0.498039215803146);
#618=COLOUR_RGB('',0.800000011920929,0.800000011920929,0.800000011920929);
#619=COLOUR_RGB('',0.800000011920929,0.800000011920929,0.800000011920929);
#620=AXIS2_PLACEMENT_3D('PCS',#621,#622,#623);
#621=CARTESIAN_POINT('',(0.0,0.0,0.0));
#622=DIRECTION('',(0.0,0.0,1.0));
#623=DIRECTION('',(1.0,0.0,0.0));
#624=AXIS2_PLACEMENT_3D('CIP',#625,#626,#627);
#625=CARTESIAN_POINT('',(0.0,0.0,-76.2));
#626=DIRECTION('',(0.0,0.0,1.0));
#627=DIRECTION('',(1.0,0.0,0.0));
#628=AXIS2_PLACEMENT_3D('CRP',#629,#630,#631);
#629=CARTESIAN_POINT('',(-1.1905,0.0,-76.2));
#630=DIRECTION('',(0.0,0.0,1.0));
#631=DIRECTION('',(1.0,0.0,0.0));
#632=AXIS2_PLACEMENT_3D('MCS',#633,#634,#635);
#633=CARTESIAN_POINT('',(0.0,0.0,-42.019));
#634=DIRECTION('',(0.0,0.0,1.0));
#635=DIRECTION('',(1.0,0.0,0.0));
#636=CONSTRUCTIVE_GEOMETRY_REPRESENTATION_RELATIONSHIP('coordinate systems',$,#65,#637);
#637=CONSTRUCTIVE_GEOMETRY_REPRESENTATION('coordinate systems',(#620,#624,#628,#632),#10);
ENDSEC;
END-ISO-10303-21;
