ISO-10303-21;
HEADER;
FILE_DESCRIPTION(('no description'),'unknown implementation level');
FILE_NAME('solidVHjn6nGrctuperlkkYx7vZ_TwQI_1.STP','  ',('CIMSOURCE GmbH'),('CADClick - KiM GmbH - www.kimweb.de'),'unknown preprocess','ACIS','unknown authorization');
FILE_SCHEMA(('automotive_design'));
ENDSEC;
DATA;
#1=MECHANICAL_DESIGN_GEOMETRIC_PRESENTATION_REPRESENTATION(' ',(#14,#15,#16,#17,#18,#19,#20,#21,#22,#23,#24,#25,#26,#27,#28,#29,#30,#31,#32,#33,#34,#35,#36,#37,#38,#39,#40,#41,#42,#43,#44,#45,#46,#47,#48,#49,#50,#51,#52,#53,#54,#55,#56,#57,#58,#59,#60),#10);
#2=PRODUCT_DEFINITION_CONTEXT('',#61,'design');
#3=APPLICATION_PROTOCOL_DEFINITION('INTERNATIONAL STANDARD','automotive_design',1994,#61);
#4=PRODUCT_CATEGORY_RELATIONSHIP('NONE','NONE',#62,#63);
#5=SHAPE_DEFINITION_REPRESENTATION(#64,#65);
#6=PRODUCT_DEFINITION_CONTEXT('',#66,'design');
#7=APPLICATION_PROTOCOL_DEFINITION('INTERNATIONAL STANDARD','automotive_design',1994,#66);
#8=PRODUCT_CATEGORY_RELATIONSHIP('NONE','NONE',#67,#68);
#9=SHAPE_DEFINITION_REPRESENTATION(#69,#70);
#10= (GEOMETRIC_REPRESENTATION_CONTEXT(3)GLOBAL_UNCERTAINTY_ASSIGNED_CONTEXT((#73))GLOBAL_UNIT_ASSIGNED_CONTEXT((#75,#76,#77))REPRESENTATION_CONTEXT('NONE','WORKSPACE'));
#14=STYLED_ITEM('',(#79),#80);
#15=STYLED_ITEM('',(#81),#82);
#16=STYLED_ITEM('',(#83),#84);
#17=STYLED_ITEM('',(#85),#86);
#18=STYLED_ITEM('',(#87),#88);
#19=STYLED_ITEM('',(#89),#90);
#20=STYLED_ITEM('',(#91),#92);
#21=STYLED_ITEM('',(#93),#94);
#22=STYLED_ITEM('',(#95),#96);
#23=STYLED_ITEM('',(#97),#98);
#24=STYLED_ITEM('',(#99),#100);
#25=STYLED_ITEM('',(#101),#102);
#26=STYLED_ITEM('',(#103),#104);
#27=STYLED_ITEM('',(#105),#106);
#28=STYLED_ITEM('',(#107),#108);
#29=STYLED_ITEM('',(#109),#110);
#30=STYLED_ITEM('',(#111),#112);
#31=STYLED_ITEM('',(#113),#114);
#32=STYLED_ITEM('',(#115),#116);
#33=STYLED_ITEM('',(#117),#118);
#34=STYLED_ITEM('',(#119),#120);
#35=STYLED_ITEM('',(#121),#122);
#36=STYLED_ITEM('',(#123),#124);
#37=STYLED_ITEM('',(#125),#126);
#38=STYLED_ITEM('',(#127),#128);
#39=STYLED_ITEM('',(#129),#130);
#40=STYLED_ITEM('',(#131),#132);
#41=STYLED_ITEM('',(#133),#134);
#42=STYLED_ITEM('',(#135),#136);
#43=STYLED_ITEM('',(#137),#138);
#44=STYLED_ITEM('',(#139),#140);
#45=STYLED_ITEM('',(#141),#142);
#46=STYLED_ITEM('',(#143),#144);
#47=STYLED_ITEM('',(#145),#146);
#48=STYLED_ITEM('',(#147),#148);
#49=STYLED_ITEM('',(#149),#150);
#50=STYLED_ITEM('',(#151),#152);
#51=STYLED_ITEM('',(#153),#154);
#52=STYLED_ITEM('',(#155),#156);
#53=STYLED_ITEM('',(#157),#158);
#54=STYLED_ITEM('',(#159),#160);
#55=STYLED_ITEM('',(#161),#162);
#56=STYLED_ITEM('',(#163),#164);
#57=STYLED_ITEM('',(#165),#166);
#58=STYLED_ITEM('',(#167),#168);
#59=STYLED_ITEM('',(#169),#170);
#60=STYLED_ITEM('',(#171),#172);
#61=APPLICATION_CONTEXT(' ');
#62=PRODUCT_CATEGORY('part','NONE');
#63=PRODUCT_RELATED_PRODUCT_CATEGORY('detail',' ',(#173));
#64=PRODUCT_DEFINITION_SHAPE('NONE','NONE',#174);
#65=ADVANCED_BREP_SHAPE_REPRESENTATION('1',(#170,#175),#10);
#66=APPLICATION_CONTEXT(' ');
#67=PRODUCT_CATEGORY('part','NONE');
#68=PRODUCT_RELATED_PRODUCT_CATEGORY('detail',' ',(#176));
#69=PRODUCT_DEFINITION_SHAPE('NONE','NONE',#177);
#70=ADVANCED_BREP_SHAPE_REPRESENTATION('2',(#114,#178),#10);
#73=UNCERTAINTY_MEASURE_WITH_UNIT(LENGTH_MEASURE(1.0E-006),#75,'','');
#75= (CONVERSION_BASED_UNIT('MILLIMETRE',#181)LENGTH_UNIT()NAMED_UNIT(#184));
#76= (NAMED_UNIT(#186)PLANE_ANGLE_UNIT()SI_UNIT($,.RADIAN.));
#77= (NAMED_UNIT(#186)SOLID_ANGLE_UNIT()SI_UNIT($,.STERADIAN.));
#79=PRESENTATION_STYLE_ASSIGNMENT((#192));
#80=EDGE_CURVE('',#154,#160,#193,.T.);
#81=PRESENTATION_STYLE_ASSIGNMENT((#194));
#82=ADVANCED_FACE('',(#195),#196,.T.);
#83=PRESENTATION_STYLE_ASSIGNMENT((#197));
#84=EDGE_CURVE('',#118,#90,#198,.T.);
#85=PRESENTATION_STYLE_ASSIGNMENT((#199));
#86=EDGE_CURVE('',#130,#138,#200,.T.);
#87=PRESENTATION_STYLE_ASSIGNMENT((#201));
#88=EDGE_CURVE('',#154,#142,#202,.T.);
#89=PRESENTATION_STYLE_ASSIGNMENT((#203));
#90=VERTEX_POINT('',#204);
#91=PRESENTATION_STYLE_ASSIGNMENT((#205));
#92=EDGE_CURVE('',#124,#160,#206,.T.);
#93=PRESENTATION_STYLE_ASSIGNMENT((#207));
#94=EDGE_CURVE('',#96,#128,#208,.T.);
#95=PRESENTATION_STYLE_ASSIGNMENT((#209));
#96=VERTEX_POINT('',#210);
#97=PRESENTATION_STYLE_ASSIGNMENT((#211));
#98=EDGE_CURVE('',#122,#96,#212,.T.);
#99=PRESENTATION_STYLE_ASSIGNMENT((#213));
#100=EDGE_CURVE('',#138,#150,#214,.T.);
#101=PRESENTATION_STYLE_ASSIGNMENT((#215));
#102=EDGE_CURVE('',#128,#116,#216,.T.);
#103=PRESENTATION_STYLE_ASSIGNMENT((#217));
#104=EDGE_CURVE('',#142,#154,#218,.T.);
#105=PRESENTATION_STYLE_ASSIGNMENT((#219));
#106=ADVANCED_FACE('',(#220),#221,.T.);
#107=PRESENTATION_STYLE_ASSIGNMENT((#222));
#108=ADVANCED_FACE('',(#223),#224,.T.);
#109=PRESENTATION_STYLE_ASSIGNMENT((#225));
#110=ADVANCED_FACE('',(#226),#227,.T.);
#111=PRESENTATION_STYLE_ASSIGNMENT((#228));
#112=EDGE_CURVE('',#160,#124,#229,.T.);
#113=PRESENTATION_STYLE_ASSIGNMENT((#230));
#114=MANIFOLD_SOLID_BREP('2',#231);
#115=PRESENTATION_STYLE_ASSIGNMENT((#232));
#116=VERTEX_POINT('',#233);
#117=PRESENTATION_STYLE_ASSIGNMENT((#234));
#118=VERTEX_POINT('',#235);
#119=PRESENTATION_STYLE_ASSIGNMENT((#236));
#120=ADVANCED_FACE('',(#237),#238,.T.);
#121=PRESENTATION_STYLE_ASSIGNMENT((#239));
#122=VERTEX_POINT('',#240);
#123=PRESENTATION_STYLE_ASSIGNMENT((#241));
#124=VERTEX_POINT('',#242);
#125=PRESENTATION_STYLE_ASSIGNMENT((#243));
#126=EDGE_CURVE('',#124,#142,#244,.T.);
#127=PRESENTATION_STYLE_ASSIGNMENT((#245));
#128=VERTEX_POINT('',#246);
#129=PRESENTATION_STYLE_ASSIGNMENT((#247));
#130=VERTEX_POINT('',#248);
#131=PRESENTATION_STYLE_ASSIGNMENT((#249));
#132=EDGE_CURVE('',#150,#130,#250,.T.);
#133=PRESENTATION_STYLE_ASSIGNMENT((#251));
#134=ADVANCED_FACE('',(#252,#253),#254,.T.);
#135=PRESENTATION_STYLE_ASSIGNMENT((#255));
#136=ADVANCED_FACE('',(#256),#257,.F.);
#137=PRESENTATION_STYLE_ASSIGNMENT((#258));
#138=VERTEX_POINT('',#259);
#139=PRESENTATION_STYLE_ASSIGNMENT((#260));
#140=ADVANCED_FACE('',(#261),#262,.T.);
#141=PRESENTATION_STYLE_ASSIGNMENT((#263));
#142=VERTEX_POINT('',#264);
#143=PRESENTATION_STYLE_ASSIGNMENT((#265));
#144=EDGE_CURVE('',#116,#122,#266,.T.);
#145=PRESENTATION_STYLE_ASSIGNMENT((#267));
#146=EDGE_CURVE('',#142,#90,#268,.T.);
#147=PRESENTATION_STYLE_ASSIGNMENT((#269));
#148=EDGE_CURVE('',#90,#118,#270,.T.);
#149=PRESENTATION_STYLE_ASSIGNMENT((#271));
#150=VERTEX_POINT('',#272);
#151=PRESENTATION_STYLE_ASSIGNMENT((#273));
#152=EDGE_CURVE('',#96,#122,#274,.T.);
#153=PRESENTATION_STYLE_ASSIGNMENT((#275));
#154=VERTEX_POINT('',#276);
#155=PRESENTATION_STYLE_ASSIGNMENT((#277));
#156=ADVANCED_FACE('',(#278),#279,.F.);
#157=PRESENTATION_STYLE_ASSIGNMENT((#280));
#158=EDGE_CURVE('',#150,#138,#281,.T.);
#159=PRESENTATION_STYLE_ASSIGNMENT((#282));
#160=VERTEX_POINT('',#283);
#161=PRESENTATION_STYLE_ASSIGNMENT((#284));
#162=EDGE_CURVE('',#118,#154,#285,.T.);
#163=PRESENTATION_STYLE_ASSIGNMENT((#286));
#164=ADVANCED_FACE('',(#287),#288,.T.);
#165=PRESENTATION_STYLE_ASSIGNMENT((#289));
#166=ADVANCED_FACE('',(#290),#291,.T.);
#167=PRESENTATION_STYLE_ASSIGNMENT((#292));
#168=ADVANCED_FACE('',(#293),#294,.T.);
#169=PRESENTATION_STYLE_ASSIGNMENT((#295));
#170=MANIFOLD_SOLID_BREP('1',#296);
#171=PRESENTATION_STYLE_ASSIGNMENT((#297));
#172=EDGE_CURVE('',#116,#128,#298,.T.);
#173=PRODUCT('1','1','PART-1-DESC',(#299));
#174=PRODUCT_DEFINITION('NONE','NONE',#300,#2);
#175=AXIS2_PLACEMENT_3D('',#301,#302,#303);
#176=PRODUCT('2','2','PART-2-DESC',(#304));
#177=PRODUCT_DEFINITION('NONE','NONE',#305,#6);
#178=AXIS2_PLACEMENT_3D('',#306,#307,#308);
#181=LENGTH_MEASURE_WITH_UNIT(LENGTH_MEASURE(1.0),#309);
#184=DIMENSIONAL_EXPONENTS(1.0,0.0,0.0,0.0,0.0,0.0,0.0);
#186=DIMENSIONAL_EXPONENTS(0.0,0.0,0.0,0.0,0.0,0.0,0.0);
#192=CURVE_STYLE('',#310,POSITIVE_LENGTH_MEASURE(1.0E-006),#311);
#193=LINE('',#312,#313);
#194=SURFACE_STYLE_USAGE(.BOTH.,#314);
#195=FACE_OUTER_BOUND('',#315,.T.);
#196=CONICAL_SURFACE('',#316,8.27408844182306,0.122171325352765);
#197=CURVE_STYLE('',#317,POSITIVE_LENGTH_MEASURE(1.0E-006),#318);
#198=CIRCLE('',#319,9.525);
#199=CURVE_STYLE('',#320,POSITIVE_LENGTH_MEASURE(1.0E-006),#321);
#200=LINE('',#322,#323);
#201=CURVE_STYLE('',#324,POSITIVE_LENGTH_MEASURE(1.0E-006),#325);
#202=CIRCLE('',#326,9.525);
#203=POINT_STYLE(' ',#327,POSITIVE_LENGTH_MEASURE(1.0E-006),#328);
#204=CARTESIAN_POINT('',(-1.16643755201581E-015,9.525,-57.09));
#205=CURVE_STYLE('',#329,POSITIVE_LENGTH_MEASURE(1.0E-006),#330);
#206=CIRCLE('',#331,8.83737582939516);
#207=CURVE_STYLE('',#332,POSITIVE_LENGTH_MEASURE(1.0E-006),#333);
#208=LINE('',#334,#335);
#209=POINT_STYLE(' ',#336,POSITIVE_LENGTH_MEASURE(1.0E-006),#337);
#210=CARTESIAN_POINT('',(5.83218776007907E-016,-4.7625,-114.29));
#211=CURVE_STYLE('',#338,POSITIVE_LENGTH_MEASURE(1.0E-006),#339);
#212=CIRCLE('',#340,4.7625);
#213=CURVE_STYLE('',#341,POSITIVE_LENGTH_MEASURE(1.0E-006),#342);
#214=CIRCLE('',#343,11.7806768836461);
#215=CURVE_STYLE('',#344,POSITIVE_LENGTH_MEASURE(1.0E-006),#345);
#216=CIRCLE('',#346,11.7856768836461);
#217=CURVE_STYLE('',#347,POSITIVE_LENGTH_MEASURE(1.0E-006),#348);
#218=CIRCLE('',#349,9.525);
#219=SURFACE_STYLE_USAGE(.BOTH.,#350);
#220=FACE_OUTER_BOUND('',#351,.T.);
#221=PLANE('',#352);
#222=SURFACE_STYLE_USAGE(.BOTH.,#353);
#223=FACE_OUTER_BOUND('',#354,.T.);
#224=PLANE('',#355);
#225=SURFACE_STYLE_USAGE(.BOTH.,#356);
#226=FACE_OUTER_BOUND('',#357,.T.);
#227=CYLINDRICAL_SURFACE('',#358,9.525);
#228=CURVE_STYLE('',#359,POSITIVE_LENGTH_MEASURE(1.0E-006),#360);
#229=CIRCLE('',#361,8.83737582939516);
#230=SURFACE_STYLE_USAGE(.BOTH.,#362);
#231=CLOSED_SHELL('',(#168,#120,#106,#108,#140,#110));
#232=POINT_STYLE(' ',#363,POSITIVE_LENGTH_MEASURE(1.0E-006),#364);
#233=CARTESIAN_POINT('',(0.0,11.7856768836461,-57.09));
#234=POINT_STYLE(' ',#365,POSITIVE_LENGTH_MEASURE(1.0E-006),#366);
#235=CARTESIAN_POINT('',(0.0,-9.525,-57.09));
#236=SURFACE_STYLE_USAGE(.BOTH.,#367);
#237=FACE_OUTER_BOUND('',#368,.T.);
#238=CONICAL_SURFACE('',#369,9.18118791469758,0.523598775598298);
#239=POINT_STYLE(' ',#370,POSITIVE_LENGTH_MEASURE(1.0E-006),#371);
#240=CARTESIAN_POINT('',(0.0,4.7625,-114.29));
#241=POINT_STYLE(' ',#372,POSITIVE_LENGTH_MEASURE(1.0E-006),#373);
#242=CARTESIAN_POINT('',(0.0,8.83737582939516,0.00999999999999801));
#243=CURVE_STYLE('',#374,POSITIVE_LENGTH_MEASURE(1.0E-006),#375);
#244=LINE('',#376,#377);
#245=POINT_STYLE(' ',#378,POSITIVE_LENGTH_MEASURE(1.0E-006),#379);
#246=CARTESIAN_POINT('',(1.44328147958106E-015,-11.7856768836461,-57.09));
#247=POINT_STYLE(' ',#380,POSITIVE_LENGTH_MEASURE(1.0E-006),#381);
#248=CARTESIAN_POINT('',(0.0,0.0,-57.1));
#249=CURVE_STYLE('',#382,POSITIVE_LENGTH_MEASURE(1.0E-006),#383);
#250=LINE('',#384,#385);
#251=SURFACE_STYLE_USAGE(.BOTH.,#386);
#252=FACE_OUTER_BOUND('',#387,.T.);
#253=FACE_BOUND('',#388,.T.);
#254=PLANE('',#389);
#255=SURFACE_STYLE_USAGE(.BOTH.,#390);
#256=FACE_OUTER_BOUND('',#391,.T.);
#257=CONICAL_SURFACE('',#392,5.89033844182306,1.56994747933927);
#258=POINT_STYLE(' ',#393,POSITIVE_LENGTH_MEASURE(1.0E-006),#394);
#259=CARTESIAN_POINT('',(1.44266917640414E-015,-11.7806768836461,-57.09));
#260=SURFACE_STYLE_USAGE(.BOTH.,#395);
#261=FACE_OUTER_BOUND('',#396,.T.);
#262=CONICAL_SURFACE('',#397,9.18118791469758,0.523598775598298);
#263=POINT_STYLE(' ',#398,POSITIVE_LENGTH_MEASURE(1.0E-006),#399);
#264=CARTESIAN_POINT('',(0.0,9.525,-1.181));
#265=CURVE_STYLE('',#400,POSITIVE_LENGTH_MEASURE(1.0E-006),#401);
#266=LINE('',#402,#403);
#267=CURVE_STYLE('',#404,POSITIVE_LENGTH_MEASURE(1.0E-006),#405);
#268=LINE('',#406,#407);
#269=CURVE_STYLE('',#408,POSITIVE_LENGTH_MEASURE(1.0E-006),#409);
#270=CIRCLE('',#410,9.525);
#271=POINT_STYLE(' ',#411,POSITIVE_LENGTH_MEASURE(1.0E-006),#412);
#272=CARTESIAN_POINT('',(0.0,11.7806768836461,-57.09));
#273=CURVE_STYLE('',#413,POSITIVE_LENGTH_MEASURE(1.0E-006),#414);
#274=CIRCLE('',#415,4.7625);
#275=POINT_STYLE(' ',#416,POSITIVE_LENGTH_MEASURE(1.0E-006),#417);
#276=CARTESIAN_POINT('',(1.16643755201581E-015,-9.525,-1.181));
#277=SURFACE_STYLE_USAGE(.BOTH.,#418);
#278=FACE_OUTER_BOUND('',#419,.T.);
#279=CONICAL_SURFACE('',#420,5.89033844182306,1.56994747933927);
#280=CURVE_STYLE('',#421,POSITIVE_LENGTH_MEASURE(1.0E-006),#422);
#281=CIRCLE('',#423,11.7806768836461);
#282=POINT_STYLE(' ',#424,POSITIVE_LENGTH_MEASURE(1.0E-006),#425);
#283=CARTESIAN_POINT('',(1.08223065917936E-015,-8.83737582939516,0.00999999999999801));
#284=CURVE_STYLE('',#426,POSITIVE_LENGTH_MEASURE(1.0E-006),#427);
#285=LINE('',#428,#429);
#286=SURFACE_STYLE_USAGE(.BOTH.,#430);
#287=FACE_OUTER_BOUND('',#431,.T.);
#288=CONICAL_SURFACE('',#432,8.27408844182306,0.122171325352765);
#289=SURFACE_STYLE_USAGE(.BOTH.,#433);
#290=FACE_OUTER_BOUND('',#434,.T.);
#291=PLANE('',#435);
#292=SURFACE_STYLE_USAGE(.BOTH.,#436);
#293=FACE_OUTER_BOUND('',#437,.T.);
#294=CYLINDRICAL_SURFACE('',#438,9.525);
#295=SURFACE_STYLE_USAGE(.BOTH.,#439);
#296=CLOSED_SHELL('',(#164,#136,#156,#134,#82,#166));
#297=CURVE_STYLE('',#440,POSITIVE_LENGTH_MEASURE(1.0E-006),#441);
#298=CIRCLE('',#442,11.7856768836461);
#299=PRODUCT_CONTEXT('',#61,'mechanical');
#300=PRODUCT_DEFINITION_FORMATION_WITH_SPECIFIED_SOURCE(' ','NONE',#173,.NOT_KNOWN.);
#301=CARTESIAN_POINT('',(0.0,0.0,0.0));
#302=DIRECTION('',(0.0,0.0,1.0));
#303=DIRECTION('',(1.0,0.0,0.0));
#304=PRODUCT_CONTEXT('',#66,'mechanical');
#305=PRODUCT_DEFINITION_FORMATION_WITH_SPECIFIED_SOURCE(' ','NONE',#176,.NOT_KNOWN.);
#306=CARTESIAN_POINT('',(0.0,0.0,0.0));
#307=DIRECTION('',(0.0,0.0,1.0));
#308=DIRECTION('',(1.0,0.0,0.0));
#309= (NAMED_UNIT(#184)LENGTH_UNIT()SI_UNIT(.MILLI.,.METRE.));
#310=DRAUGHTING_PRE_DEFINED_CURVE_FONT('continuous');
#311=COLOUR_RGB('',0.498039215803146,0.498039215803146,0.498039215803146);
#312=CARTESIAN_POINT('',(1.12433410559759E-015,-9.18118791469758,-0.585500000000003));
#313=VECTOR('',#444,1.0);
#314=SURFACE_SIDE_STYLE('',(#445));
#315=EDGE_LOOP('',(#446,#447,#448,#449));
#316=AXIS2_PLACEMENT_3D('',#450,#451,#452);
#317=DRAUGHTING_PRE_DEFINED_CURVE_FONT('continuous');
#318=COLOUR_RGB('',0.498039215803146,0.498039215803146,0.498039215803146);
#319=AXIS2_PLACEMENT_3D('',#453,#454,#455);
#320=DRAUGHTING_PRE_DEFINED_CURVE_FONT('continuous');
#321=COLOUR_RGB('',0.800000011920929,0.800000011920929,0.800000011920929);
#322=CARTESIAN_POINT('',(7.21334588202072E-016,-5.89033844182306,-57.095));
#323=VECTOR('',#456,1.0);
#324=DRAUGHTING_PRE_DEFINED_CURVE_FONT('continuous');
#325=COLOUR_RGB('',0.498039215803146,0.498039215803146,0.498039215803146);
#326=AXIS2_PLACEMENT_3D('',#457,#458,#459);
#327=PRE_DEFINED_MARKER('');
#328=COLOUR_RGB('',0.498039215803146,0.498039215803146,0.498039215803146);
#329=DRAUGHTING_PRE_DEFINED_CURVE_FONT('continuous');
#330=COLOUR_RGB('',0.498039215803146,0.498039215803146,0.498039215803146);
#331=AXIS2_PLACEMENT_3D('',#460,#461,#462);
#332=DRAUGHTING_PRE_DEFINED_CURVE_FONT('continuous');
#333=COLOUR_RGB('',0.800000011920929,0.800000011920929,0.800000011920929);
#334=CARTESIAN_POINT('',(1.01325012779448E-015,-8.27408844182307,-85.69));
#335=VECTOR('',#463,1.0);
#336=PRE_DEFINED_MARKER('');
#337=COLOUR_RGB('',0.800000011920929,0.800000011920929,0.800000011920929);
#338=DRAUGHTING_PRE_DEFINED_CURVE_FONT('continuous');
#339=COLOUR_RGB('',0.800000011920929,0.800000011920929,0.800000011920929);
#340=AXIS2_PLACEMENT_3D('',#464,#465,#466);
#341=DRAUGHTING_PRE_DEFINED_CURVE_FONT('continuous');
#342=COLOUR_RGB('',0.800000011920929,0.800000011920929,0.800000011920929);
#343=AXIS2_PLACEMENT_3D('',#467,#468,#469);
#344=DRAUGHTING_PRE_DEFINED_CURVE_FONT('continuous');
#345=COLOUR_RGB('',0.800000011920929,0.800000011920929,0.800000011920929);
#346=AXIS2_PLACEMENT_3D('',#470,#471,#472);
#347=DRAUGHTING_PRE_DEFINED_CURVE_FONT('continuous');
#348=COLOUR_RGB('',0.498039215803146,0.498039215803146,0.498039215803146);
#349=AXIS2_PLACEMENT_3D('',#473,#474,#475);
#350=SURFACE_SIDE_STYLE('',(#476));
#351=EDGE_LOOP('',(#477,#478));
#352=AXIS2_PLACEMENT_3D('',#479,#480,#481);
#353=SURFACE_SIDE_STYLE('',(#482));
#354=EDGE_LOOP('',(#483,#484));
#355=AXIS2_PLACEMENT_3D('',#485,#486,#487);
#356=SURFACE_SIDE_STYLE('',(#488));
#357=EDGE_LOOP('',(#489,#490,#491,#492));
#358=AXIS2_PLACEMENT_3D('',#493,#494,#495);
#359=DRAUGHTING_PRE_DEFINED_CURVE_FONT('continuous');
#360=COLOUR_RGB('',0.498039215803146,0.498039215803146,0.498039215803146);
#361=AXIS2_PLACEMENT_3D('',#496,#497,#498);
#362=SURFACE_SIDE_STYLE('',(#499));
#363=PRE_DEFINED_MARKER('');
#364=COLOUR_RGB('',0.800000011920929,0.800000011920929,0.800000011920929);
#365=PRE_DEFINED_MARKER('');
#366=COLOUR_RGB('',0.498039215803146,0.498039215803146,0.498039215803146);
#367=SURFACE_SIDE_STYLE('',(#500));
#368=EDGE_LOOP('',(#501,#502,#503,#504));
#369=AXIS2_PLACEMENT_3D('',#505,#506,#507);
#370=PRE_DEFINED_MARKER('');
#371=COLOUR_RGB('',0.800000011920929,0.800000011920929,0.800000011920929);
#372=PRE_DEFINED_MARKER('');
#373=COLOUR_RGB('',0.498039215803146,0.498039215803146,0.498039215803146);
#374=DRAUGHTING_PRE_DEFINED_CURVE_FONT('continuous');
#375=COLOUR_RGB('',0.498039215803146,0.498039215803146,0.498039215803146);
#376=CARTESIAN_POINT('',(-1.12433410559759E-015,9.18118791469758,-0.585500000000003));
#377=VECTOR('',#508,1.0);
#378=PRE_DEFINED_MARKER('');
#379=COLOUR_RGB('',0.800000011920929,0.800000011920929,0.800000011920929);
#380=PRE_DEFINED_MARKER('');
#381=COLOUR_RGB('',0.800000011920929,0.800000011920929,0.800000011920929);
#382=DRAUGHTING_PRE_DEFINED_CURVE_FONT('continuous');
#383=COLOUR_RGB('',0.800000011920929,0.800000011920929,0.800000011920929);
#384=CARTESIAN_POINT('',(-7.21334588202072E-016,5.89033844182306,-57.095));
#385=VECTOR('',#509,1.0);
#386=SURFACE_SIDE_STYLE('',(#510));
#387=EDGE_LOOP('',(#511,#512));
#388=EDGE_LOOP('',(#513,#514));
#389=AXIS2_PLACEMENT_3D('',#515,#516,#517);
#390=SURFACE_SIDE_STYLE('',(#518));
#391=EDGE_LOOP('',(#519,#520,#521));
#392=AXIS2_PLACEMENT_3D('',#522,#523,#524);
#393=PRE_DEFINED_MARKER('');
#394=COLOUR_RGB('',0.800000011920929,0.800000011920929,0.800000011920929);
#395=SURFACE_SIDE_STYLE('',(#525));
#396=EDGE_LOOP('',(#526,#527,#528,#529));
#397=AXIS2_PLACEMENT_3D('',#530,#531,#532);
#398=PRE_DEFINED_MARKER('');
#399=COLOUR_RGB('',0.498039215803146,0.498039215803146,0.498039215803146);
#400=DRAUGHTING_PRE_DEFINED_CURVE_FONT('continuous');
#401=COLOUR_RGB('',0.800000011920929,0.800000011920929,0.800000011920929);
#402=CARTESIAN_POINT('',(-1.01325012779448E-015,8.27408844182307,-85.69));
#403=VECTOR('',#533,1.0);
#404=DRAUGHTING_PRE_DEFINED_CURVE_FONT('continuous');
#405=COLOUR_RGB('',0.498039215803146,0.498039215803146,0.498039215803146);
#406=CARTESIAN_POINT('',(-1.16643755201581E-015,9.525,-24.373));
#407=VECTOR('',#534,1.0);
#408=DRAUGHTING_PRE_DEFINED_CURVE_FONT('continuous');
#409=COLOUR_RGB('',0.498039215803146,0.498039215803146,0.498039215803146);
#410=AXIS2_PLACEMENT_3D('',#535,#536,#537);
#411=PRE_DEFINED_MARKER('');
#412=COLOUR_RGB('',0.800000011920929,0.800000011920929,0.800000011920929);
#413=DRAUGHTING_PRE_DEFINED_CURVE_FONT('continuous');
#414=COLOUR_RGB('',0.800000011920929,0.800000011920929,0.800000011920929);
#415=AXIS2_PLACEMENT_3D('',#538,#539,#540);
#416=PRE_DEFINED_MARKER('');
#417=COLOUR_RGB('',0.498039215803146,0.498039215803146,0.498039215803146);
#418=SURFACE_SIDE_STYLE('',(#541));
#419=EDGE_LOOP('',(#542,#543,#544));
#420=AXIS2_PLACEMENT_3D('',#545,#546,#547);
#421=DRAUGHTING_PRE_DEFINED_CURVE_FONT('continuous');
#422=COLOUR_RGB('',0.800000011920929,0.800000011920929,0.800000011920929);
#423=AXIS2_PLACEMENT_3D('',#548,#549,#550);
#424=PRE_DEFINED_MARKER('');
#425=COLOUR_RGB('',0.498039215803146,0.498039215803146,0.498039215803146);
#426=DRAUGHTING_PRE_DEFINED_CURVE_FONT('continuous');
#427=COLOUR_RGB('',0.498039215803146,0.498039215803146,0.498039215803146);
#428=CARTESIAN_POINT('',(1.16643755201581E-015,-9.525,-24.373));
#429=VECTOR('',#551,1.0);
#430=SURFACE_SIDE_STYLE('',(#552));
#431=EDGE_LOOP('',(#553,#554,#555,#556));
#432=AXIS2_PLACEMENT_3D('',#557,#558,#559);
#433=SURFACE_SIDE_STYLE('',(#560));
#434=EDGE_LOOP('',(#561,#562));
#435=AXIS2_PLACEMENT_3D('',#563,#564,#565);
#436=SURFACE_SIDE_STYLE('',(#566));
#437=EDGE_LOOP('',(#567,#568,#569,#570));
#438=AXIS2_PLACEMENT_3D('',#571,#572,#573);
#439=SURFACE_SIDE_STYLE('',(#574));
#440=DRAUGHTING_PRE_DEFINED_CURVE_FONT('continuous');
#441=COLOUR_RGB('',0.800000011920929,0.800000011920929,0.800000011920929);
#442=AXIS2_PLACEMENT_3D('',#575,#576,#577);
#444=DIRECTION('',(-6.12303176911187E-017,0.499999999999999,0.866025403784439));
#445=SURFACE_STYLE_FILL_AREA(#578);
#446=ORIENTED_EDGE('',*,*,#144,.T.);
#447=ORIENTED_EDGE('',*,*,#152,.F.);
#448=ORIENTED_EDGE('',*,*,#94,.T.);
#449=ORIENTED_EDGE('',*,*,#102,.T.);
#450=CARTESIAN_POINT('',(0.0,0.0,-85.69));
#451=DIRECTION('',(-0.0,-0.0,1.0));
#452=DIRECTION('',(0.0,1.0,0.0));
#453=CARTESIAN_POINT('',(0.0,0.0,-57.09));
#454=DIRECTION('',(0.0,0.0,-1.0));
#455=DIRECTION('',(0.0,-1.0,0.0));
#456=DIRECTION('',(1.22460591263225E-016,-0.99999963972902,0.000848847353683772));
#457=CARTESIAN_POINT('',(0.0,0.0,-1.181));
#458=DIRECTION('',(0.0,0.0,-1.0));
#459=DIRECTION('',(0.0,1.0,0.0));
#460=CARTESIAN_POINT('',(0.0,0.0,0.00999999999999801));
#461=DIRECTION('',(0.0,0.0,-1.0));
#462=DIRECTION('',(0.0,1.0,0.0));
#463=DIRECTION('',(1.49239878867564E-017,-0.121867633955793,0.992546361533816));
#464=CARTESIAN_POINT('',(0.0,0.0,-114.29));
#465=DIRECTION('',(0.0,0.0,-1.0));
#466=DIRECTION('',(0.0,1.0,0.0));
#467=CARTESIAN_POINT('',(0.0,0.0,-57.09));
#468=DIRECTION('',(0.0,0.0,-1.0));
#469=DIRECTION('',(0.0,1.0,0.0));
#470=CARTESIAN_POINT('',(0.0,0.0,-57.09));
#471=DIRECTION('',(0.0,0.0,-1.0));
#472=DIRECTION('',(0.0,1.0,0.0));
#473=CARTESIAN_POINT('',(0.0,0.0,-1.181));
#474=DIRECTION('',(0.0,0.0,-1.0));
#475=DIRECTION('',(0.0,1.0,0.0));
#476=SURFACE_STYLE_FILL_AREA(#579);
#477=ORIENTED_EDGE('',*,*,#84,.T.);
#478=ORIENTED_EDGE('',*,*,#148,.T.);
#479=CARTESIAN_POINT('',(0.0,0.0,-57.09));
#480=DIRECTION('',(0.0,0.0,-1.0));
#481=DIRECTION('',(0.0,-1.0,0.0));
#482=SURFACE_STYLE_FILL_AREA(#580);
#483=ORIENTED_EDGE('',*,*,#92,.F.);
#484=ORIENTED_EDGE('',*,*,#112,.F.);
#485=CARTESIAN_POINT('',(0.0,4.41868791469758,0.00999999999999801));
#486=DIRECTION('',(-0.0,0.0,1.0));
#487=DIRECTION('',(0.0,-1.0,0.0));
#488=SURFACE_STYLE_FILL_AREA(#581);
#489=ORIENTED_EDGE('',*,*,#146,.T.);
#490=ORIENTED_EDGE('',*,*,#84,.F.);
#491=ORIENTED_EDGE('',*,*,#162,.T.);
#492=ORIENTED_EDGE('',*,*,#88,.T.);
#493=CARTESIAN_POINT('',(0.0,0.0,-24.373));
#494=DIRECTION('',(-0.0,-0.0,1.0));
#495=DIRECTION('',(0.0,1.0,0.0));
#496=CARTESIAN_POINT('',(0.0,0.0,0.00999999999999801));
#497=DIRECTION('',(0.0,0.0,-1.0));
#498=DIRECTION('',(0.0,1.0,0.0));
#499=SURFACE_STYLE_FILL_AREA(#582);
#500=SURFACE_STYLE_FILL_AREA(#583);
#501=ORIENTED_EDGE('',*,*,#126,.F.);
#502=ORIENTED_EDGE('',*,*,#92,.T.);
#503=ORIENTED_EDGE('',*,*,#80,.F.);
#504=ORIENTED_EDGE('',*,*,#104,.F.);
#505=CARTESIAN_POINT('',(0.0,0.0,-0.585500000000003));
#506=DIRECTION('',(0.0,-0.0,-1.0));
#507=DIRECTION('',(0.0,1.0,0.0));
#508=DIRECTION('',(-6.12303176911187E-017,0.499999999999999,-0.866025403784439));
#509=DIRECTION('',(1.22460591263225E-016,-0.99999963972902,-0.000848847353683772));
#510=SURFACE_STYLE_FILL_AREA(#584);
#511=ORIENTED_EDGE('',*,*,#172,.F.);
#512=ORIENTED_EDGE('',*,*,#102,.F.);
#513=ORIENTED_EDGE('',*,*,#158,.T.);
#514=ORIENTED_EDGE('',*,*,#100,.T.);
#515=CARTESIAN_POINT('',(0.0,11.7831768836461,-57.09));
#516=DIRECTION('',(-0.0,0.0,1.0));
#517=DIRECTION('',(0.0,-1.0,0.0));
#518=SURFACE_STYLE_FILL_AREA(#585);
#519=ORIENTED_EDGE('',*,*,#86,.F.);
#520=ORIENTED_EDGE('',*,*,#132,.F.);
#521=ORIENTED_EDGE('',*,*,#100,.F.);
#522=CARTESIAN_POINT('',(0.0,0.0,-57.095));
#523=DIRECTION('',(-0.0,-0.0,1.0));
#524=DIRECTION('',(0.0,1.0,0.0));
#525=SURFACE_STYLE_FILL_AREA(#586);
#526=ORIENTED_EDGE('',*,*,#126,.T.);
#527=ORIENTED_EDGE('',*,*,#88,.F.);
#528=ORIENTED_EDGE('',*,*,#80,.T.);
#529=ORIENTED_EDGE('',*,*,#112,.T.);
#530=CARTESIAN_POINT('',(0.0,0.0,-0.585500000000003));
#531=DIRECTION('',(0.0,-0.0,-1.0));
#532=DIRECTION('',(0.0,1.0,0.0));
#533=DIRECTION('',(1.49239878867564E-017,-0.121867633955793,-0.992546361533816));
#534=DIRECTION('',(0.0,0.0,-1.0));
#535=CARTESIAN_POINT('',(0.0,0.0,-57.09));
#536=DIRECTION('',(0.0,0.0,-1.0));
#537=DIRECTION('',(0.0,-1.0,0.0));
#538=CARTESIAN_POINT('',(0.0,0.0,-114.29));
#539=DIRECTION('',(0.0,0.0,-1.0));
#540=DIRECTION('',(0.0,1.0,0.0));
#541=SURFACE_STYLE_FILL_AREA(#587);
#542=ORIENTED_EDGE('',*,*,#86,.T.);
#543=ORIENTED_EDGE('',*,*,#158,.F.);
#544=ORIENTED_EDGE('',*,*,#132,.T.);
#545=CARTESIAN_POINT('',(0.0,0.0,-57.095));
#546=DIRECTION('',(-0.0,-0.0,1.0));
#547=DIRECTION('',(0.0,1.0,0.0));
#548=CARTESIAN_POINT('',(0.0,0.0,-57.09));
#549=DIRECTION('',(0.0,0.0,-1.0));
#550=DIRECTION('',(0.0,1.0,0.0));
#551=DIRECTION('',(-0.0,-0.0,1.0));
#552=SURFACE_STYLE_FILL_AREA(#588);
#553=ORIENTED_EDGE('',*,*,#144,.F.);
#554=ORIENTED_EDGE('',*,*,#172,.T.);
#555=ORIENTED_EDGE('',*,*,#94,.F.);
#556=ORIENTED_EDGE('',*,*,#98,.F.);
#557=CARTESIAN_POINT('',(0.0,0.0,-85.69));
#558=DIRECTION('',(-0.0,-0.0,1.0));
#559=DIRECTION('',(0.0,1.0,0.0));
#560=SURFACE_STYLE_FILL_AREA(#589);
#561=ORIENTED_EDGE('',*,*,#98,.T.);
#562=ORIENTED_EDGE('',*,*,#152,.T.);
#563=CARTESIAN_POINT('',(0.0,2.37875,-114.29));
#564=DIRECTION('',(0.0,0.0,-1.0));
#565=DIRECTION('',(0.0,1.0,0.0));
#566=SURFACE_STYLE_FILL_AREA(#590);
#567=ORIENTED_EDGE('',*,*,#146,.F.);
#568=ORIENTED_EDGE('',*,*,#104,.T.);
#569=ORIENTED_EDGE('',*,*,#162,.F.);
#570=ORIENTED_EDGE('',*,*,#148,.F.);
#571=CARTESIAN_POINT('',(0.0,0.0,-24.373));
#572=DIRECTION('',(-0.0,-0.0,1.0));
#573=DIRECTION('',(0.0,1.0,0.0));
#574=SURFACE_STYLE_FILL_AREA(#591);
#575=CARTESIAN_POINT('',(0.0,0.0,-57.09));
#576=DIRECTION('',(0.0,0.0,-1.0));
#577=DIRECTION('',(0.0,1.0,0.0));
#578=FILL_AREA_STYLE('',(#592));
#579=FILL_AREA_STYLE('',(#593));
#580=FILL_AREA_STYLE('',(#594));
#581=FILL_AREA_STYLE('',(#595));
#582=FILL_AREA_STYLE('',(#596));
#583=FILL_AREA_STYLE('',(#597));
#584=FILL_AREA_STYLE('',(#598));
#585=FILL_AREA_STYLE('',(#599));
#586=FILL_AREA_STYLE('',(#600));
#587=FILL_AREA_STYLE('',(#601));
#588=FILL_AREA_STYLE('',(#602));
#589=FILL_AREA_STYLE('',(#603));
#590=FILL_AREA_STYLE('',(#604));
#591=FILL_AREA_STYLE('',(#605));
#592=FILL_AREA_STYLE_COLOUR('',#606);
#593=FILL_AREA_STYLE_COLOUR('',#607);
#594=FILL_AREA_STYLE_COLOUR('',#608);
#595=FILL_AREA_STYLE_COLOUR('',#609);
#596=FILL_AREA_STYLE_COLOUR('',#610);
#597=FILL_AREA_STYLE_COLOUR('',#611);
#598=FILL_AREA_STYLE_COLOUR('',#612);
#599=FILL_AREA_STYLE_COLOUR('',#613);
#600=FILL_AREA_STYLE_COLOUR('',#614);
#601=FILL_AREA_STYLE_COLOUR('',#615);
#602=FILL_AREA_STYLE_COLOUR('',#616);
#603=FILL_AREA_STYLE_COLOUR('',#617);
#604=FILL_AREA_STYLE_COLOUR('',#618);
#605=FILL_AREA_STYLE_COLOUR('',#619);
#606=COLOUR_RGB('',0.800000011920929,0.800000011920929,0.800000011920929);
#607=COLOUR_RGB('',0.498039215803146,0.498039215803146,0.498039215803146);
#608=COLOUR_RGB('',0.498039215803146,0.498039215803146,0.498039215803146);
#609=COLOUR_RGB('',0.498039215803146,0.498039215803146,0.498039215803146);
#610=COLOUR_RGB('',0.800000011920929,0.800000011920929,0.800000011920929);
#611=COLOUR_RGB('',0.498039215803146,0.498039215803146,0.498039215803146);
#612=COLOUR_RGB('',0.800000011920929,0.800000011920929,0.800000011920929);
#613=COLOUR_RGB('',0.800000011920929,0.800000011920929,0.800000011920929);
#614=COLOUR_RGB('',0.498039215803146,0.498039215803146,0.498039215803146);
#615=COLOUR_RGB('',0.800000011920929,0.800000011920929,0.800000011920929);
#616=COLOUR_RGB('',0.800000011920929,0.800000011920929,0.800000011920929);
#617=COLOUR_RGB('',0.800000011920929,0.800000011920929,0.800000011920929);
#618=COLOUR_RGB('',0.498039215803146,0.498039215803146,0.498039215803146);
#619=COLOUR_RGB('',0.800000011920929,0.800000011920929,0.800000011920929);
#620=AXIS2_PLACEMENT_3D('PCS',#621,#622,#623);
#621=CARTESIAN_POINT('',(0.0,0.0,0.0));
#622=DIRECTION('',(0.0,0.0,1.0));
#623=DIRECTION('',(1.0,0.0,0.0));
#624=AXIS2_PLACEMENT_3D('CIP',#625,#626,#627);
#625=CARTESIAN_POINT('',(0.0,0.0,-114.3));
#626=DIRECTION('',(0.0,0.0,1.0));
#627=DIRECTION('',(1.0,0.0,0.0));
#628=AXIS2_PLACEMENT_3D('CRP',#629,#630,#631);
#629=CARTESIAN_POINT('',(-4.7625,0.0,-114.3));
#630=DIRECTION('',(0.0,0.0,1.0));
#631=DIRECTION('',(1.0,0.0,0.0));
#632=AXIS2_PLACEMENT_3D('MCS',#633,#634,#635);
#633=CARTESIAN_POINT('',(0.0,0.0,-47.575));
#634=DIRECTION('',(0.0,0.0,1.0));
#635=DIRECTION('',(1.0,0.0,0.0));
#636=CONSTRUCTIVE_GEOMETRY_REPRESENTATION_RELATIONSHIP('coordinate systems',$,#65,#637);
#637=CONSTRUCTIVE_GEOMETRY_REPRESENTATION('coordinate systems',(#620,#624,#628,#632),#10);
ENDSEC;
END-ISO-10303-21;
