ISO-10303-21;
HEADER;
FILE_DESCRIPTION(('no description'),'unknown implementation level');
FILE_NAME('solid3VBA25bf_hAMVZS34dDxcBGcJ_M_1.STP','  ',('CIMSOURCE GmbH'),('CADClick - KiM GmbH - www.kimweb.de'),'unknown preprocess','ACIS','unknown authorization');
FILE_SCHEMA(('automotive_design'));
ENDSEC;
DATA;
#1=MECHANICAL_DESIGN_GEOMETRIC_PRESENTATION_REPRESENTATION(' ',(#14,#15,#16,#17,#18,#19,#20,#21,#22,#23,#24,#25,#26,#27,#28,#29,#30,#31,#32,#33,#34,#35,#36,#37,#38,#39,#40,#41,#42,#43,#44,#45,#46,#47,#48,#49,#50,#51,#52,#53,#54,#55,#56,#57,#58,#59,#60),#10);
#2=PRODUCT_DEFINITION_CONTEXT('',#61,'design');
#3=APPLICATION_PROTOCOL_DEFINITION('INTERNATIONAL STANDARD','automotive_design',1994,#61);
#4=PRODUCT_CATEGORY_RELATIONSHIP('NONE','NONE',#62,#63);
#5=SHAPE_DEFINITION_REPRESENTATION(#64,#65);
#6=PRODUCT_DEFINITION_CONTEXT('',#66,'design');
#7=APPLICATION_PROTOCOL_DEFINITION('INTERNATIONAL STANDARD','automotive_design',1994,#66);
#8=PRODUCT_CATEGORY_RELATIONSHIP('NONE','NONE',#67,#68);
#9=SHAPE_DEFINITION_REPRESENTATION(#69,#70);
#10= (GEOMETRIC_REPRESENTATION_CONTEXT(3)GLOBAL_UNCERTAINTY_ASSIGNED_CONTEXT((#73))GLOBAL_UNIT_ASSIGNED_CONTEXT((#75,#76,#77))REPRESENTATION_CONTEXT('NONE','WORKSPACE'));
#14=STYLED_ITEM('',(#79),#80);
#15=STYLED_ITEM('',(#81),#82);
#16=STYLED_ITEM('',(#83),#84);
#17=STYLED_ITEM('',(#85),#86);
#18=STYLED_ITEM('',(#87),#88);
#19=STYLED_ITEM('',(#89),#90);
#20=STYLED_ITEM('',(#91),#92);
#21=STYLED_ITEM('',(#93),#94);
#22=STYLED_ITEM('',(#95),#96);
#23=STYLED_ITEM('',(#97),#98);
#24=STYLED_ITEM('',(#99),#100);
#25=STYLED_ITEM('',(#101),#102);
#26=STYLED_ITEM('',(#103),#104);
#27=STYLED_ITEM('',(#105),#106);
#28=STYLED_ITEM('',(#107),#108);
#29=STYLED_ITEM('',(#109),#110);
#30=STYLED_ITEM('',(#111),#112);
#31=STYLED_ITEM('',(#113),#114);
#32=STYLED_ITEM('',(#115),#116);
#33=STYLED_ITEM('',(#117),#118);
#34=STYLED_ITEM('',(#119),#120);
#35=STYLED_ITEM('',(#121),#122);
#36=STYLED_ITEM('',(#123),#124);
#37=STYLED_ITEM('',(#125),#126);
#38=STYLED_ITEM('',(#127),#128);
#39=STYLED_ITEM('',(#129),#130);
#40=STYLED_ITEM('',(#131),#132);
#41=STYLED_ITEM('',(#133),#134);
#42=STYLED_ITEM('',(#135),#136);
#43=STYLED_ITEM('',(#137),#138);
#44=STYLED_ITEM('',(#139),#140);
#45=STYLED_ITEM('',(#141),#142);
#46=STYLED_ITEM('',(#143),#144);
#47=STYLED_ITEM('',(#145),#146);
#48=STYLED_ITEM('',(#147),#148);
#49=STYLED_ITEM('',(#149),#150);
#50=STYLED_ITEM('',(#151),#152);
#51=STYLED_ITEM('',(#153),#154);
#52=STYLED_ITEM('',(#155),#156);
#53=STYLED_ITEM('',(#157),#158);
#54=STYLED_ITEM('',(#159),#160);
#55=STYLED_ITEM('',(#161),#162);
#56=STYLED_ITEM('',(#163),#164);
#57=STYLED_ITEM('',(#165),#166);
#58=STYLED_ITEM('',(#167),#168);
#59=STYLED_ITEM('',(#169),#170);
#60=STYLED_ITEM('',(#171),#172);
#61=APPLICATION_CONTEXT(' ');
#62=PRODUCT_CATEGORY('part','NONE');
#63=PRODUCT_RELATED_PRODUCT_CATEGORY('detail',' ',(#173));
#64=PRODUCT_DEFINITION_SHAPE('NONE','NONE',#174);
#65=ADVANCED_BREP_SHAPE_REPRESENTATION('1',(#170,#175),#10);
#66=APPLICATION_CONTEXT(' ');
#67=PRODUCT_CATEGORY('part','NONE');
#68=PRODUCT_RELATED_PRODUCT_CATEGORY('detail',' ',(#176));
#69=PRODUCT_DEFINITION_SHAPE('NONE','NONE',#177);
#70=ADVANCED_BREP_SHAPE_REPRESENTATION('2',(#126,#178),#10);
#73=UNCERTAINTY_MEASURE_WITH_UNIT(LENGTH_MEASURE(1.0E-006),#75,'','');
#75= (CONVERSION_BASED_UNIT('MILLIMETRE',#181)LENGTH_UNIT()NAMED_UNIT(#184));
#76= (NAMED_UNIT(#186)PLANE_ANGLE_UNIT()SI_UNIT($,.RADIAN.));
#77= (NAMED_UNIT(#186)SOLID_ANGLE_UNIT()SI_UNIT($,.STERADIAN.));
#79=PRESENTATION_STYLE_ASSIGNMENT((#192));
#80=EDGE_CURVE('',#114,#96,#193,.T.);
#81=PRESENTATION_STYLE_ASSIGNMENT((#194));
#82=EDGE_CURVE('',#138,#140,#195,.T.);
#83=PRESENTATION_STYLE_ASSIGNMENT((#196));
#84=VERTEX_POINT('',#197);
#85=PRESENTATION_STYLE_ASSIGNMENT((#198));
#86=EDGE_CURVE('',#116,#104,#199,.T.);
#87=PRESENTATION_STYLE_ASSIGNMENT((#200));
#88=EDGE_CURVE('',#96,#128,#201,.T.);
#89=PRESENTATION_STYLE_ASSIGNMENT((#202));
#90=EDGE_CURVE('',#124,#156,#203,.T.);
#91=PRESENTATION_STYLE_ASSIGNMENT((#204));
#92=EDGE_CURVE('',#104,#116,#205,.T.);
#93=PRESENTATION_STYLE_ASSIGNMENT((#206));
#94=ADVANCED_FACE('',(#207),#208,.F.);
#95=PRESENTATION_STYLE_ASSIGNMENT((#209));
#96=VERTEX_POINT('',#210);
#97=PRESENTATION_STYLE_ASSIGNMENT((#211));
#98=ADVANCED_FACE('',(#212),#213,.T.);
#99=PRESENTATION_STYLE_ASSIGNMENT((#214));
#100=ADVANCED_FACE('',(#215),#216,.T.);
#101=PRESENTATION_STYLE_ASSIGNMENT((#217));
#102=ADVANCED_FACE('',(#218),#219,.T.);
#103=PRESENTATION_STYLE_ASSIGNMENT((#220));
#104=VERTEX_POINT('',#221);
#105=PRESENTATION_STYLE_ASSIGNMENT((#222));
#106=ADVANCED_FACE('',(#223),#224,.T.);
#107=PRESENTATION_STYLE_ASSIGNMENT((#225));
#108=EDGE_CURVE('',#172,#156,#226,.T.);
#109=PRESENTATION_STYLE_ASSIGNMENT((#227));
#110=EDGE_CURVE('',#156,#172,#228,.T.);
#111=PRESENTATION_STYLE_ASSIGNMENT((#229));
#112=ADVANCED_FACE('',(#230,#231),#232,.T.);
#113=PRESENTATION_STYLE_ASSIGNMENT((#233));
#114=VERTEX_POINT('',#234);
#115=PRESENTATION_STYLE_ASSIGNMENT((#235));
#116=VERTEX_POINT('',#236);
#117=PRESENTATION_STYLE_ASSIGNMENT((#237));
#118=EDGE_CURVE('',#168,#116,#238,.T.);
#119=PRESENTATION_STYLE_ASSIGNMENT((#239));
#120=EDGE_CURVE('',#154,#168,#240,.T.);
#121=PRESENTATION_STYLE_ASSIGNMENT((#241));
#122=ADVANCED_FACE('',(#242),#243,.T.);
#123=PRESENTATION_STYLE_ASSIGNMENT((#244));
#124=VERTEX_POINT('',#245);
#125=PRESENTATION_STYLE_ASSIGNMENT((#246));
#126=MANIFOLD_SOLID_BREP('2',#247);
#127=PRESENTATION_STYLE_ASSIGNMENT((#248));
#128=VERTEX_POINT('',#249);
#129=PRESENTATION_STYLE_ASSIGNMENT((#250));
#130=EDGE_CURVE('',#96,#114,#251,.T.);
#131=PRESENTATION_STYLE_ASSIGNMENT((#252));
#132=ADVANCED_FACE('',(#253),#254,.T.);
#133=PRESENTATION_STYLE_ASSIGNMENT((#255));
#134=EDGE_CURVE('',#168,#154,#256,.T.);
#135=PRESENTATION_STYLE_ASSIGNMENT((#257));
#136=ADVANCED_FACE('',(#258),#259,.T.);
#137=PRESENTATION_STYLE_ASSIGNMENT((#260));
#138=VERTEX_POINT('',#261);
#139=PRESENTATION_STYLE_ASSIGNMENT((#262));
#140=VERTEX_POINT('',#263);
#141=PRESENTATION_STYLE_ASSIGNMENT((#264));
#142=ADVANCED_FACE('',(#265),#266,.F.);
#143=PRESENTATION_STYLE_ASSIGNMENT((#267));
#144=EDGE_CURVE('',#128,#114,#268,.T.);
#145=PRESENTATION_STYLE_ASSIGNMENT((#269));
#146=ADVANCED_FACE('',(#270),#271,.T.);
#147=PRESENTATION_STYLE_ASSIGNMENT((#272));
#148=ADVANCED_FACE('',(#273),#274,.T.);
#149=PRESENTATION_STYLE_ASSIGNMENT((#275));
#150=EDGE_CURVE('',#104,#154,#276,.T.);
#151=PRESENTATION_STYLE_ASSIGNMENT((#277));
#152=EDGE_CURVE('',#124,#138,#278,.T.);
#153=PRESENTATION_STYLE_ASSIGNMENT((#279));
#154=VERTEX_POINT('',#280);
#155=PRESENTATION_STYLE_ASSIGNMENT((#281));
#156=VERTEX_POINT('',#282);
#157=PRESENTATION_STYLE_ASSIGNMENT((#283));
#158=EDGE_CURVE('',#84,#124,#284,.T.);
#159=PRESENTATION_STYLE_ASSIGNMENT((#285));
#160=EDGE_CURVE('',#140,#84,#286,.T.);
#161=PRESENTATION_STYLE_ASSIGNMENT((#287));
#162=EDGE_CURVE('',#138,#124,#288,.T.);
#163=PRESENTATION_STYLE_ASSIGNMENT((#289));
#164=EDGE_CURVE('',#172,#138,#290,.T.);
#165=PRESENTATION_STYLE_ASSIGNMENT((#291));
#166=EDGE_CURVE('',#84,#140,#292,.T.);
#167=PRESENTATION_STYLE_ASSIGNMENT((#293));
#168=VERTEX_POINT('',#294);
#169=PRESENTATION_STYLE_ASSIGNMENT((#295));
#170=MANIFOLD_SOLID_BREP('1',#296);
#171=PRESENTATION_STYLE_ASSIGNMENT((#297));
#172=VERTEX_POINT('',#298);
#173=PRODUCT('1','1','PART-1-DESC',(#299));
#174=PRODUCT_DEFINITION('NONE','NONE',#300,#2);
#175=AXIS2_PLACEMENT_3D('',#301,#302,#303);
#176=PRODUCT('2','2','PART-2-DESC',(#304));
#177=PRODUCT_DEFINITION('NONE','NONE',#305,#6);
#178=AXIS2_PLACEMENT_3D('',#306,#307,#308);
#181=LENGTH_MEASURE_WITH_UNIT(LENGTH_MEASURE(1.0),#309);
#184=DIMENSIONAL_EXPONENTS(1.0,0.0,0.0,0.0,0.0,0.0,0.0);
#186=DIMENSIONAL_EXPONENTS(0.0,0.0,0.0,0.0,0.0,0.0,0.0);
#192=CURVE_STYLE('',#310,POSITIVE_LENGTH_MEASURE(1.0E-006),#311);
#193=CIRCLE('',#312,8.77709798652919);
#194=CURVE_STYLE('',#313,POSITIVE_LENGTH_MEASURE(1.0E-006),#314);
#195=LINE('',#315,#316);
#196=POINT_STYLE(' ',#317,POSITIVE_LENGTH_MEASURE(1.0E-006),#318);
#197=CARTESIAN_POINT('',(0.0,-7.9375,-53.89));
#198=CURVE_STYLE('',#319,POSITIVE_LENGTH_MEASURE(1.0E-006),#320);
#199=CIRCLE('',#321,8.78209798652919);
#200=CURVE_STYLE('',#322,POSITIVE_LENGTH_MEASURE(1.0E-006),#323);
#201=LINE('',#324,#325);
#202=CURVE_STYLE('',#326,POSITIVE_LENGTH_MEASURE(1.0E-006),#327);
#203=LINE('',#328,#329);
#204=CURVE_STYLE('',#330,POSITIVE_LENGTH_MEASURE(1.0E-006),#331);
#205=CIRCLE('',#332,8.78209798652919);
#206=SURFACE_STYLE_USAGE(.BOTH.,#333);
#207=FACE_OUTER_BOUND('',#334,.T.);
#208=CONICAL_SURFACE('',#335,4.38854899326459,1.56965699854672);
#209=POINT_STYLE(' ',#336,POSITIVE_LENGTH_MEASURE(1.0E-006),#337);
#210=CARTESIAN_POINT('',(0.0,8.77709798652919,-53.89));
#211=SURFACE_STYLE_USAGE(.BOTH.,#338);
#212=FACE_OUTER_BOUND('',#339,.T.);
#213=CYLINDRICAL_SURFACE('',#340,7.9375);
#214=SURFACE_STYLE_USAGE(.BOTH.,#341);
#215=FACE_OUTER_BOUND('',#342,.T.);
#216=PLANE('',#343);
#217=SURFACE_STYLE_USAGE(.BOTH.,#344);
#218=FACE_OUTER_BOUND('',#345,.T.);
#219=CONICAL_SURFACE('',#346,7.70829194313172,0.523598775598301);
#220=POINT_STYLE(' ',#347,POSITIVE_LENGTH_MEASURE(1.0E-006),#348);
#221=CARTESIAN_POINT('',(0.0,8.78209798652919,-53.89));
#222=SURFACE_STYLE_USAGE(.BOTH.,#349);
#223=FACE_OUTER_BOUND('',#350,.T.);
#224=PLANE('',#351);
#225=CURVE_STYLE('',#352,POSITIVE_LENGTH_MEASURE(1.0E-006),#353);
#226=CIRCLE('',#354,7.47908388626344);
#227=CURVE_STYLE('',#355,POSITIVE_LENGTH_MEASURE(1.0E-006),#356);
#228=CIRCLE('',#357,7.47908388626344);
#229=SURFACE_STYLE_USAGE(.BOTH.,#358);
#230=FACE_OUTER_BOUND('',#359,.T.);
#231=FACE_BOUND('',#360,.T.);
#232=PLANE('',#361);
#233=POINT_STYLE(' ',#362,POSITIVE_LENGTH_MEASURE(1.0E-006),#363);
#234=CARTESIAN_POINT('',(1.07484899624252E-015,-8.77709798652918,-53.89));
#235=POINT_STYLE(' ',#364,POSITIVE_LENGTH_MEASURE(1.0E-006),#365);
#236=CARTESIAN_POINT('',(1.07546129941944E-015,-8.78209798652919,-53.89));
#237=CURVE_STYLE('',#366,POSITIVE_LENGTH_MEASURE(1.0E-006),#367);
#238=LINE('',#368,#369);
#239=CURVE_STYLE('',#370,POSITIVE_LENGTH_MEASURE(1.0E-006),#371);
#240=CIRCLE('',#372,3.175);
#241=SURFACE_STYLE_USAGE(.BOTH.,#373);
#242=FACE_OUTER_BOUND('',#374,.T.);
#243=CONICAL_SURFACE('',#375,7.70829194313172,0.523598775598301);
#244=POINT_STYLE(' ',#376,POSITIVE_LENGTH_MEASURE(1.0E-006),#377);
#245=CARTESIAN_POINT('',(9.72031293346512E-016,-7.9375,-0.784000000000006));
#246=SURFACE_STYLE_USAGE(.BOTH.,#378);
#247=CLOSED_SHELL('',(#146,#102,#106,#148,#122,#98));
#248=POINT_STYLE(' ',#379,POSITIVE_LENGTH_MEASURE(1.0E-006),#380);
#249=CARTESIAN_POINT('',(0.0,0.0,-53.9));
#250=CURVE_STYLE('',#381,POSITIVE_LENGTH_MEASURE(1.0E-006),#382);
#251=CIRCLE('',#383,8.77709798652919);
#252=SURFACE_STYLE_USAGE(.BOTH.,#384);
#253=FACE_OUTER_BOUND('',#385,.T.);
#254=CONICAL_SURFACE('',#386,5.97854899326459,0.174529875366628);
#255=CURVE_STYLE('',#387,POSITIVE_LENGTH_MEASURE(1.0E-006),#388);
#256=CIRCLE('',#389,3.175);
#257=SURFACE_STYLE_USAGE(.BOTH.,#390);
#258=FACE_OUTER_BOUND('',#391,.T.);
#259=CONICAL_SURFACE('',#392,5.97854899326459,0.174529875366628);
#260=POINT_STYLE(' ',#393,POSITIVE_LENGTH_MEASURE(1.0E-006),#394);
#261=CARTESIAN_POINT('',(0.0,7.9375,-0.784000000000006));
#262=POINT_STYLE(' ',#395,POSITIVE_LENGTH_MEASURE(1.0E-006),#396);
#263=CARTESIAN_POINT('',(-9.72031293346512E-016,7.9375,-53.89));
#264=SURFACE_STYLE_USAGE(.BOTH.,#397);
#265=FACE_OUTER_BOUND('',#398,.T.);
#266=CONICAL_SURFACE('',#399,4.38854899326459,1.56965699854672);
#267=CURVE_STYLE('',#400,POSITIVE_LENGTH_MEASURE(1.0E-006),#401);
#268=LINE('',#402,#403);
#269=SURFACE_STYLE_USAGE(.BOTH.,#404);
#270=FACE_OUTER_BOUND('',#405,.T.);
#271=CYLINDRICAL_SURFACE('',#406,7.9375);
#272=SURFACE_STYLE_USAGE(.BOTH.,#407);
#273=FACE_OUTER_BOUND('',#408,.T.);
#274=PLANE('',#409);
#275=CURVE_STYLE('',#410,POSITIVE_LENGTH_MEASURE(1.0E-006),#411);
#276=LINE('',#412,#413);
#277=CURVE_STYLE('',#414,POSITIVE_LENGTH_MEASURE(1.0E-006),#415);
#278=CIRCLE('',#416,7.9375);
#279=POINT_STYLE(' ',#417,POSITIVE_LENGTH_MEASURE(1.0E-006),#418);
#280=CARTESIAN_POINT('',(0.0,3.175,-85.69));
#281=POINT_STYLE(' ',#419,POSITIVE_LENGTH_MEASURE(1.0E-006),#420);
#282=CARTESIAN_POINT('',(9.15893364788876E-016,-7.47908388626344,0.00999999999999091));
#283=CURVE_STYLE('',#421,POSITIVE_LENGTH_MEASURE(1.0E-006),#422);
#284=LINE('',#423,#424);
#285=CURVE_STYLE('',#425,POSITIVE_LENGTH_MEASURE(1.0E-006),#426);
#286=CIRCLE('',#427,7.9375);
#287=CURVE_STYLE('',#428,POSITIVE_LENGTH_MEASURE(1.0E-006),#429);
#288=CIRCLE('',#430,7.9375);
#289=CURVE_STYLE('',#431,POSITIVE_LENGTH_MEASURE(1.0E-006),#432);
#290=LINE('',#433,#434);
#291=CURVE_STYLE('',#435,POSITIVE_LENGTH_MEASURE(1.0E-006),#436);
#292=CIRCLE('',#437,7.9375);
#293=POINT_STYLE(' ',#438,POSITIVE_LENGTH_MEASURE(1.0E-006),#439);
#294=CARTESIAN_POINT('',(3.88812517338605E-016,-3.175,-85.69));
#295=SURFACE_STYLE_USAGE(.BOTH.,#440);
#296=CLOSED_SHELL('',(#132,#94,#142,#112,#136,#100));
#297=POINT_STYLE(' ',#441,POSITIVE_LENGTH_MEASURE(1.0E-006),#442);
#298=CARTESIAN_POINT('',(0.0,7.47908388626344,0.00999999999999091));
#299=PRODUCT_CONTEXT('',#61,'mechanical');
#300=PRODUCT_DEFINITION_FORMATION_WITH_SPECIFIED_SOURCE(' ','NONE',#173,.NOT_KNOWN.);
#301=CARTESIAN_POINT('',(0.0,0.0,0.0));
#302=DIRECTION('',(0.0,0.0,1.0));
#303=DIRECTION('',(1.0,0.0,0.0));
#304=PRODUCT_CONTEXT('',#66,'mechanical');
#305=PRODUCT_DEFINITION_FORMATION_WITH_SPECIFIED_SOURCE(' ','NONE',#176,.NOT_KNOWN.);
#306=CARTESIAN_POINT('',(0.0,0.0,0.0));
#307=DIRECTION('',(0.0,0.0,1.0));
#308=DIRECTION('',(1.0,0.0,0.0));
#309= (NAMED_UNIT(#184)LENGTH_UNIT()SI_UNIT(.MILLI.,.METRE.));
#310=DRAUGHTING_PRE_DEFINED_CURVE_FONT('continuous');
#311=COLOUR_RGB('',0.800000011920929,0.800000011920929,0.800000011920929);
#312=AXIS2_PLACEMENT_3D('',#444,#445,#446);
#313=DRAUGHTING_PRE_DEFINED_CURVE_FONT('continuous');
#314=COLOUR_RGB('',0.498039215803146,0.498039215803146,0.498039215803146);
#315=CARTESIAN_POINT('',(-9.72031293346512E-016,7.9375,-24.162));
#316=VECTOR('',#447,1.0);
#317=PRE_DEFINED_MARKER('');
#318=COLOUR_RGB('',0.498039215803146,0.498039215803146,0.498039215803146);
#319=DRAUGHTING_PRE_DEFINED_CURVE_FONT('continuous');
#320=COLOUR_RGB('',0.800000011920929,0.800000011920929,0.800000011920929);
#321=AXIS2_PLACEMENT_3D('',#448,#449,#450);
#322=DRAUGHTING_PRE_DEFINED_CURVE_FONT('continuous');
#323=COLOUR_RGB('',0.800000011920929,0.800000011920929,0.800000011920929);
#324=CARTESIAN_POINT('',(-5.37424498121262E-016,4.38854899326459,-53.895));
#325=VECTOR('',#451,1.0);
#326=DRAUGHTING_PRE_DEFINED_CURVE_FONT('continuous');
#327=COLOUR_RGB('',0.498039215803146,0.498039215803146,0.498039215803146);
#328=CARTESIAN_POINT('',(9.43962329067694E-016,-7.70829194313172,-0.387000000000008));
#329=VECTOR('',#452,1.0);
#330=DRAUGHTING_PRE_DEFINED_CURVE_FONT('continuous');
#331=COLOUR_RGB('',0.800000011920929,0.800000011920929,0.800000011920929);
#332=AXIS2_PLACEMENT_3D('',#453,#454,#455);
#333=SURFACE_SIDE_STYLE('',(#456));
#334=EDGE_LOOP('',(#457,#458,#459));
#335=AXIS2_PLACEMENT_3D('',#460,#461,#462);
#336=PRE_DEFINED_MARKER('');
#337=COLOUR_RGB('',0.800000011920929,0.800000011920929,0.800000011920929);
#338=SURFACE_SIDE_STYLE('',(#463));
#339=EDGE_LOOP('',(#464,#465,#466,#467));
#340=AXIS2_PLACEMENT_3D('',#468,#469,#470);
#341=SURFACE_SIDE_STYLE('',(#471));
#342=EDGE_LOOP('',(#472,#473));
#343=AXIS2_PLACEMENT_3D('',#474,#475,#476);
#344=SURFACE_SIDE_STYLE('',(#477));
#345=EDGE_LOOP('',(#478,#479,#480,#481));
#346=AXIS2_PLACEMENT_3D('',#482,#483,#484);
#347=PRE_DEFINED_MARKER('');
#348=COLOUR_RGB('',0.800000011920929,0.800000011920929,0.800000011920929);
#349=SURFACE_SIDE_STYLE('',(#485));
#350=EDGE_LOOP('',(#486,#487));
#351=AXIS2_PLACEMENT_3D('',#488,#489,#490);
#352=DRAUGHTING_PRE_DEFINED_CURVE_FONT('continuous');
#353=COLOUR_RGB('',0.498039215803146,0.498039215803146,0.498039215803146);
#354=AXIS2_PLACEMENT_3D('',#491,#492,#493);
#355=DRAUGHTING_PRE_DEFINED_CURVE_FONT('continuous');
#356=COLOUR_RGB('',0.498039215803146,0.498039215803146,0.498039215803146);
#357=AXIS2_PLACEMENT_3D('',#494,#495,#496);
#358=SURFACE_SIDE_STYLE('',(#497));
#359=EDGE_LOOP('',(#498,#499));
#360=EDGE_LOOP('',(#500,#501));
#361=AXIS2_PLACEMENT_3D('',#502,#503,#504);
#362=PRE_DEFINED_MARKER('');
#363=COLOUR_RGB('',0.800000011920929,0.800000011920929,0.800000011920929);
#364=PRE_DEFINED_MARKER('');
#365=COLOUR_RGB('',0.800000011920929,0.800000011920929,0.800000011920929);
#366=DRAUGHTING_PRE_DEFINED_CURVE_FONT('continuous');
#367=COLOUR_RGB('',0.800000011920929,0.800000011920929,0.800000011920929);
#368=CARTESIAN_POINT('',(7.3213690837902E-016,-5.9785489932646,-69.79));
#369=VECTOR('',#505,1.0);
#370=DRAUGHTING_PRE_DEFINED_CURVE_FONT('continuous');
#371=COLOUR_RGB('',0.800000011920929,0.800000011920929,0.800000011920929);
#372=AXIS2_PLACEMENT_3D('',#506,#507,#508);
#373=SURFACE_SIDE_STYLE('',(#509));
#374=EDGE_LOOP('',(#510,#511,#512,#513));
#375=AXIS2_PLACEMENT_3D('',#514,#515,#516);
#376=PRE_DEFINED_MARKER('');
#377=COLOUR_RGB('',0.498039215803146,0.498039215803146,0.498039215803146);
#378=SURFACE_SIDE_STYLE('',(#517));
#379=PRE_DEFINED_MARKER('');
#380=COLOUR_RGB('',0.800000011920929,0.800000011920929,0.800000011920929);
#381=DRAUGHTING_PRE_DEFINED_CURVE_FONT('continuous');
#382=COLOUR_RGB('',0.800000011920929,0.800000011920929,0.800000011920929);
#383=AXIS2_PLACEMENT_3D('',#518,#519,#520);
#384=SURFACE_SIDE_STYLE('',(#521));
#385=EDGE_LOOP('',(#522,#523,#524,#525));
#386=AXIS2_PLACEMENT_3D('',#526,#527,#528);
#387=DRAUGHTING_PRE_DEFINED_CURVE_FONT('continuous');
#388=COLOUR_RGB('',0.800000011920929,0.800000011920929,0.800000011920929);
#389=AXIS2_PLACEMENT_3D('',#529,#530,#531);
#390=SURFACE_SIDE_STYLE('',(#532));
#391=EDGE_LOOP('',(#533,#534,#535,#536));
#392=AXIS2_PLACEMENT_3D('',#537,#538,#539);
#393=PRE_DEFINED_MARKER('');
#394=COLOUR_RGB('',0.498039215803146,0.498039215803146,0.498039215803146);
#395=PRE_DEFINED_MARKER('');
#396=COLOUR_RGB('',0.498039215803146,0.498039215803146,0.498039215803146);
#397=SURFACE_SIDE_STYLE('',(#540));
#398=EDGE_LOOP('',(#541,#542,#543));
#399=AXIS2_PLACEMENT_3D('',#544,#545,#546);
#400=DRAUGHTING_PRE_DEFINED_CURVE_FONT('continuous');
#401=COLOUR_RGB('',0.800000011920929,0.800000011920929,0.800000011920929);
#402=CARTESIAN_POINT('',(5.37424498121262E-016,-4.38854899326459,-53.895));
#403=VECTOR('',#547,1.0);
#404=SURFACE_SIDE_STYLE('',(#548));
#405=EDGE_LOOP('',(#549,#550,#551,#552));
#406=AXIS2_PLACEMENT_3D('',#553,#554,#555);
#407=SURFACE_SIDE_STYLE('',(#556));
#408=EDGE_LOOP('',(#557,#558));
#409=AXIS2_PLACEMENT_3D('',#559,#560,#561);
#410=DRAUGHTING_PRE_DEFINED_CURVE_FONT('continuous');
#411=COLOUR_RGB('',0.800000011920929,0.800000011920929,0.800000011920929);
#412=CARTESIAN_POINT('',(-7.3213690837902E-016,5.9785489932646,-69.79));
#413=VECTOR('',#562,1.0);
#414=DRAUGHTING_PRE_DEFINED_CURVE_FONT('continuous');
#415=COLOUR_RGB('',0.498039215803146,0.498039215803146,0.498039215803146);
#416=AXIS2_PLACEMENT_3D('',#563,#564,#565);
#417=PRE_DEFINED_MARKER('');
#418=COLOUR_RGB('',0.800000011920929,0.800000011920929,0.800000011920929);
#419=PRE_DEFINED_MARKER('');
#420=COLOUR_RGB('',0.498039215803146,0.498039215803146,0.498039215803146);
#421=DRAUGHTING_PRE_DEFINED_CURVE_FONT('continuous');
#422=COLOUR_RGB('',0.498039215803146,0.498039215803146,0.498039215803146);
#423=CARTESIAN_POINT('',(9.72031293346512E-016,-7.9375,-24.162));
#424=VECTOR('',#566,1.0);
#425=DRAUGHTING_PRE_DEFINED_CURVE_FONT('continuous');
#426=COLOUR_RGB('',0.498039215803146,0.498039215803146,0.498039215803146);
#427=AXIS2_PLACEMENT_3D('',#567,#568,#569);
#428=DRAUGHTING_PRE_DEFINED_CURVE_FONT('continuous');
#429=COLOUR_RGB('',0.498039215803146,0.498039215803146,0.498039215803146);
#430=AXIS2_PLACEMENT_3D('',#570,#571,#572);
#431=DRAUGHTING_PRE_DEFINED_CURVE_FONT('continuous');
#432=COLOUR_RGB('',0.498039215803146,0.498039215803146,0.498039215803146);
#433=CARTESIAN_POINT('',(-9.43962329067694E-016,7.70829194313172,-0.387000000000008));
#434=VECTOR('',#573,1.0);
#435=DRAUGHTING_PRE_DEFINED_CURVE_FONT('continuous');
#436=COLOUR_RGB('',0.498039215803146,0.498039215803146,0.498039215803146);
#437=AXIS2_PLACEMENT_3D('',#574,#575,#576);
#438=PRE_DEFINED_MARKER('');
#439=COLOUR_RGB('',0.800000011920929,0.800000011920929,0.800000011920929);
#440=SURFACE_SIDE_STYLE('',(#577));
#441=PRE_DEFINED_MARKER('');
#442=COLOUR_RGB('',0.498039215803146,0.498039215803146,0.498039215803146);
#444=CARTESIAN_POINT('',(0.0,0.0,-53.89));
#445=DIRECTION('',(0.0,0.0,-1.0));
#446=DIRECTION('',(0.0,1.0,0.0));
#447=DIRECTION('',(0.0,0.0,-1.0));
#448=CARTESIAN_POINT('',(0.0,0.0,-53.89));
#449=DIRECTION('',(0.0,0.0,-1.0));
#450=DIRECTION('',(0.0,1.0,0.0));
#451=DIRECTION('',(1.22460555901078E-016,-0.999999350965642,-0.00113932800169318));
#452=DIRECTION('',(-6.12303176911191E-017,0.500000000000002,0.866025403784438));
#453=CARTESIAN_POINT('',(0.0,0.0,-53.89));
#454=DIRECTION('',(0.0,0.0,-1.0));
#455=DIRECTION('',(0.0,1.0,0.0));
#456=SURFACE_STYLE_FILL_AREA(#578);
#457=ORIENTED_EDGE('',*,*,#144,.F.);
#458=ORIENTED_EDGE('',*,*,#88,.F.);
#459=ORIENTED_EDGE('',*,*,#80,.F.);
#460=CARTESIAN_POINT('',(0.0,0.0,-53.895));
#461=DIRECTION('',(-0.0,-0.0,1.0));
#462=DIRECTION('',(0.0,1.0,0.0));
#463=SURFACE_STYLE_FILL_AREA(#579);
#464=ORIENTED_EDGE('',*,*,#82,.T.);
#465=ORIENTED_EDGE('',*,*,#166,.F.);
#466=ORIENTED_EDGE('',*,*,#158,.T.);
#467=ORIENTED_EDGE('',*,*,#152,.T.);
#468=CARTESIAN_POINT('',(0.0,0.0,-24.162));
#469=DIRECTION('',(-0.0,-0.0,1.0));
#470=DIRECTION('',(0.0,1.0,0.0));
#471=SURFACE_STYLE_FILL_AREA(#580);
#472=ORIENTED_EDGE('',*,*,#120,.T.);
#473=ORIENTED_EDGE('',*,*,#134,.T.);
#474=CARTESIAN_POINT('',(0.0,1.585,-85.69));
#475=DIRECTION('',(0.0,0.0,-1.0));
#476=DIRECTION('',(0.0,1.0,0.0));
#477=SURFACE_STYLE_FILL_AREA(#581);
#478=ORIENTED_EDGE('',*,*,#164,.F.);
#479=ORIENTED_EDGE('',*,*,#108,.T.);
#480=ORIENTED_EDGE('',*,*,#90,.F.);
#481=ORIENTED_EDGE('',*,*,#162,.F.);
#482=CARTESIAN_POINT('',(0.0,0.0,-0.387000000000008));
#483=DIRECTION('',(0.0,-0.0,-1.0));
#484=DIRECTION('',(0.0,1.0,0.0));
#485=SURFACE_STYLE_FILL_AREA(#582);
#486=ORIENTED_EDGE('',*,*,#166,.T.);
#487=ORIENTED_EDGE('',*,*,#160,.T.);
#488=CARTESIAN_POINT('',(0.0,0.0,-53.89));
#489=DIRECTION('',(0.0,0.0,-1.0));
#490=DIRECTION('',(0.0,-1.0,0.0));
#491=CARTESIAN_POINT('',(0.0,0.0,0.00999999999999091));
#492=DIRECTION('',(0.0,0.0,-1.0));
#493=DIRECTION('',(0.0,1.0,0.0));
#494=CARTESIAN_POINT('',(0.0,0.0,0.00999999999999091));
#495=DIRECTION('',(0.0,0.0,-1.0));
#496=DIRECTION('',(0.0,1.0,0.0));
#497=SURFACE_STYLE_FILL_AREA(#583);
#498=ORIENTED_EDGE('',*,*,#92,.F.);
#499=ORIENTED_EDGE('',*,*,#86,.F.);
#500=ORIENTED_EDGE('',*,*,#130,.T.);
#501=ORIENTED_EDGE('',*,*,#80,.T.);
#502=CARTESIAN_POINT('',(0.0,8.77959798652919,-53.89));
#503=DIRECTION('',(-0.0,0.0,1.0));
#504=DIRECTION('',(0.0,-1.0,0.0));
#505=DIRECTION('',(2.12646983595662E-017,-0.173645174167131,0.984808282605537));
#506=CARTESIAN_POINT('',(0.0,0.0,-85.69));
#507=DIRECTION('',(0.0,0.0,-1.0));
#508=DIRECTION('',(0.0,1.0,0.0));
#509=SURFACE_STYLE_FILL_AREA(#584);
#510=ORIENTED_EDGE('',*,*,#164,.T.);
#511=ORIENTED_EDGE('',*,*,#152,.F.);
#512=ORIENTED_EDGE('',*,*,#90,.T.);
#513=ORIENTED_EDGE('',*,*,#110,.T.);
#514=CARTESIAN_POINT('',(0.0,0.0,-0.387000000000008));
#515=DIRECTION('',(0.0,-0.0,-1.0));
#516=DIRECTION('',(0.0,1.0,0.0));
#517=SURFACE_STYLE_FILL_AREA(#585);
#518=CARTESIAN_POINT('',(0.0,0.0,-53.89));
#519=DIRECTION('',(0.0,0.0,-1.0));
#520=DIRECTION('',(0.0,1.0,0.0));
#521=SURFACE_STYLE_FILL_AREA(#586);
#522=ORIENTED_EDGE('',*,*,#150,.F.);
#523=ORIENTED_EDGE('',*,*,#92,.T.);
#524=ORIENTED_EDGE('',*,*,#118,.F.);
#525=ORIENTED_EDGE('',*,*,#120,.F.);
#526=CARTESIAN_POINT('',(0.0,0.0,-69.79));
#527=DIRECTION('',(-0.0,-0.0,1.0));
#528=DIRECTION('',(0.0,1.0,0.0));
#529=CARTESIAN_POINT('',(0.0,0.0,-85.69));
#530=DIRECTION('',(0.0,0.0,-1.0));
#531=DIRECTION('',(0.0,1.0,0.0));
#532=SURFACE_STYLE_FILL_AREA(#587);
#533=ORIENTED_EDGE('',*,*,#150,.T.);
#534=ORIENTED_EDGE('',*,*,#134,.F.);
#535=ORIENTED_EDGE('',*,*,#118,.T.);
#536=ORIENTED_EDGE('',*,*,#86,.T.);
#537=CARTESIAN_POINT('',(0.0,0.0,-69.79));
#538=DIRECTION('',(-0.0,-0.0,1.0));
#539=DIRECTION('',(0.0,1.0,0.0));
#540=SURFACE_STYLE_FILL_AREA(#588);
#541=ORIENTED_EDGE('',*,*,#144,.T.);
#542=ORIENTED_EDGE('',*,*,#130,.F.);
#543=ORIENTED_EDGE('',*,*,#88,.T.);
#544=CARTESIAN_POINT('',(0.0,0.0,-53.895));
#545=DIRECTION('',(-0.0,-0.0,1.0));
#546=DIRECTION('',(0.0,1.0,0.0));
#547=DIRECTION('',(1.22460555901078E-016,-0.999999350965642,0.00113932800169318));
#548=SURFACE_STYLE_FILL_AREA(#589);
#549=ORIENTED_EDGE('',*,*,#82,.F.);
#550=ORIENTED_EDGE('',*,*,#162,.T.);
#551=ORIENTED_EDGE('',*,*,#158,.F.);
#552=ORIENTED_EDGE('',*,*,#160,.F.);
#553=CARTESIAN_POINT('',(0.0,0.0,-24.162));
#554=DIRECTION('',(-0.0,-0.0,1.0));
#555=DIRECTION('',(0.0,1.0,0.0));
#556=SURFACE_STYLE_FILL_AREA(#590);
#557=ORIENTED_EDGE('',*,*,#108,.F.);
#558=ORIENTED_EDGE('',*,*,#110,.F.);
#559=CARTESIAN_POINT('',(0.0,3.73954194313172,0.00999999999999091));
#560=DIRECTION('',(-0.0,0.0,1.0));
#561=DIRECTION('',(0.0,-1.0,0.0));
#562=DIRECTION('',(2.12646983595662E-017,-0.173645174167131,-0.984808282605537));
#563=CARTESIAN_POINT('',(0.0,0.0,-0.784000000000006));
#564=DIRECTION('',(0.0,0.0,-1.0));
#565=DIRECTION('',(0.0,1.0,0.0));
#566=DIRECTION('',(-0.0,-0.0,1.0));
#567=CARTESIAN_POINT('',(0.0,0.0,-53.89));
#568=DIRECTION('',(0.0,0.0,-1.0));
#569=DIRECTION('',(0.0,-1.0,0.0));
#570=CARTESIAN_POINT('',(0.0,0.0,-0.784000000000006));
#571=DIRECTION('',(0.0,0.0,-1.0));
#572=DIRECTION('',(0.0,1.0,0.0));
#573=DIRECTION('',(-6.12303176911191E-017,0.500000000000002,-0.866025403784438));
#574=CARTESIAN_POINT('',(0.0,0.0,-53.89));
#575=DIRECTION('',(0.0,0.0,-1.0));
#576=DIRECTION('',(0.0,-1.0,0.0));
#577=SURFACE_STYLE_FILL_AREA(#591);
#578=FILL_AREA_STYLE('',(#592));
#579=FILL_AREA_STYLE('',(#593));
#580=FILL_AREA_STYLE('',(#594));
#581=FILL_AREA_STYLE('',(#595));
#582=FILL_AREA_STYLE('',(#596));
#583=FILL_AREA_STYLE('',(#597));
#584=FILL_AREA_STYLE('',(#598));
#585=FILL_AREA_STYLE('',(#599));
#586=FILL_AREA_STYLE('',(#600));
#587=FILL_AREA_STYLE('',(#601));
#588=FILL_AREA_STYLE('',(#602));
#589=FILL_AREA_STYLE('',(#603));
#590=FILL_AREA_STYLE('',(#604));
#591=FILL_AREA_STYLE('',(#605));
#592=FILL_AREA_STYLE_COLOUR('',#606);
#593=FILL_AREA_STYLE_COLOUR('',#607);
#594=FILL_AREA_STYLE_COLOUR('',#608);
#595=FILL_AREA_STYLE_COLOUR('',#609);
#596=FILL_AREA_STYLE_COLOUR('',#610);
#597=FILL_AREA_STYLE_COLOUR('',#611);
#598=FILL_AREA_STYLE_COLOUR('',#612);
#599=FILL_AREA_STYLE_COLOUR('',#613);
#600=FILL_AREA_STYLE_COLOUR('',#614);
#601=FILL_AREA_STYLE_COLOUR('',#615);
#602=FILL_AREA_STYLE_COLOUR('',#616);
#603=FILL_AREA_STYLE_COLOUR('',#617);
#604=FILL_AREA_STYLE_COLOUR('',#618);
#605=FILL_AREA_STYLE_COLOUR('',#619);
#606=COLOUR_RGB('',0.800000011920929,0.800000011920929,0.800000011920929);
#607=COLOUR_RGB('',0.498039215803146,0.498039215803146,0.498039215803146);
#608=COLOUR_RGB('',0.800000011920929,0.800000011920929,0.800000011920929);
#609=COLOUR_RGB('',0.498039215803146,0.498039215803146,0.498039215803146);
#610=COLOUR_RGB('',0.498039215803146,0.498039215803146,0.498039215803146);
#611=COLOUR_RGB('',0.800000011920929,0.800000011920929,0.800000011920929);
#612=COLOUR_RGB('',0.498039215803146,0.498039215803146,0.498039215803146);
#613=COLOUR_RGB('',0.800000011920929,0.800000011920929,0.800000011920929);
#614=COLOUR_RGB('',0.800000011920929,0.800000011920929,0.800000011920929);
#615=COLOUR_RGB('',0.800000011920929,0.800000011920929,0.800000011920929);
#616=COLOUR_RGB('',0.800000011920929,0.800000011920929,0.800000011920929);
#617=COLOUR_RGB('',0.498039215803146,0.498039215803146,0.498039215803146);
#618=COLOUR_RGB('',0.498039215803146,0.498039215803146,0.498039215803146);
#619=COLOUR_RGB('',0.800000011920929,0.800000011920929,0.800000011920929);
#620=AXIS2_PLACEMENT_3D('PCS',#621,#622,#623);
#621=CARTESIAN_POINT('',(0.0,0.0,0.0));
#622=DIRECTION('',(0.0,0.0,1.0));
#623=DIRECTION('',(1.0,0.0,0.0));
#624=AXIS2_PLACEMENT_3D('CIP',#625,#626,#627);
#625=CARTESIAN_POINT('',(0.0,0.0,-85.7));
#626=DIRECTION('',(0.0,0.0,1.0));
#627=DIRECTION('',(1.0,0.0,0.0));
#628=AXIS2_PLACEMENT_3D('CRP',#629,#630,#631);
#629=CARTESIAN_POINT('',(-3.175,0.0,-85.7));
#630=DIRECTION('',(0.0,0.0,1.0));
#631=DIRECTION('',(1.0,0.0,0.0));
#632=AXIS2_PLACEMENT_3D('MCS',#633,#634,#635);
#633=CARTESIAN_POINT('',(0.0,0.0,-47.55));
#634=DIRECTION('',(0.0,0.0,1.0));
#635=DIRECTION('',(1.0,0.0,0.0));
#636=CONSTRUCTIVE_GEOMETRY_REPRESENTATION_RELATIONSHIP('coordinate systems',$,#65,#637);
#637=CONSTRUCTIVE_GEOMETRY_REPRESENTATION('coordinate systems',(#620,#624,#628,#632),#10);
ENDSEC;
END-ISO-10303-21;
