ISO-10303-21;
HEADER;
FILE_DESCRIPTION(('no description'),'unknown implementation level');
FILE_NAME('solidrSfDq01wJ00GczSGRg4EPea1CDw_1.STP','  ',('CIMSOURCE GmbH'),('CADClick - KiM GmbH - www.kimweb.de'),'unknown preprocess','ACIS','unknown authorization');
FILE_SCHEMA(('automotive_design'));
ENDSEC;
DATA;
#1=MECHANICAL_DESIGN_GEOMETRIC_PRESENTATION_REPRESENTATION(' ',(#14,#15,#16,#17,#18,#19,#20,#21,#22,#23,#24,#25,#26,#27,#28,#29,#30,#31,#32,#33,#34,#35,#36,#37,#38,#39,#40,#41,#42,#43,#44,#45,#46,#47,#48,#49,#50,#51,#52,#53,#54,#55,#56,#57,#58,#59,#60),#10);
#2=PRODUCT_DEFINITION_CONTEXT('',#61,'design');
#3=APPLICATION_PROTOCOL_DEFINITION('INTERNATIONAL STANDARD','automotive_design',1994,#61);
#4=PRODUCT_CATEGORY_RELATIONSHIP('NONE','NONE',#62,#63);
#5=SHAPE_DEFINITION_REPRESENTATION(#64,#65);
#6=PRODUCT_DEFINITION_CONTEXT('',#66,'design');
#7=APPLICATION_PROTOCOL_DEFINITION('INTERNATIONAL STANDARD','automotive_design',1994,#66);
#8=PRODUCT_CATEGORY_RELATIONSHIP('NONE','NONE',#67,#68);
#9=SHAPE_DEFINITION_REPRESENTATION(#69,#70);
#10= (GEOMETRIC_REPRESENTATION_CONTEXT(3)GLOBAL_UNCERTAINTY_ASSIGNED_CONTEXT((#73))GLOBAL_UNIT_ASSIGNED_CONTEXT((#75,#76,#77))REPRESENTATION_CONTEXT('NONE','WORKSPACE'));
#14=STYLED_ITEM('',(#79),#80);
#15=STYLED_ITEM('',(#81),#82);
#16=STYLED_ITEM('',(#83),#84);
#17=STYLED_ITEM('',(#85),#86);
#18=STYLED_ITEM('',(#87),#88);
#19=STYLED_ITEM('',(#89),#90);
#20=STYLED_ITEM('',(#91),#92);
#21=STYLED_ITEM('',(#93),#94);
#22=STYLED_ITEM('',(#95),#96);
#23=STYLED_ITEM('',(#97),#98);
#24=STYLED_ITEM('',(#99),#100);
#25=STYLED_ITEM('',(#101),#102);
#26=STYLED_ITEM('',(#103),#104);
#27=STYLED_ITEM('',(#105),#106);
#28=STYLED_ITEM('',(#107),#108);
#29=STYLED_ITEM('',(#109),#110);
#30=STYLED_ITEM('',(#111),#112);
#31=STYLED_ITEM('',(#113),#114);
#32=STYLED_ITEM('',(#115),#116);
#33=STYLED_ITEM('',(#117),#118);
#34=STYLED_ITEM('',(#119),#120);
#35=STYLED_ITEM('',(#121),#122);
#36=STYLED_ITEM('',(#123),#124);
#37=STYLED_ITEM('',(#125),#126);
#38=STYLED_ITEM('',(#127),#128);
#39=STYLED_ITEM('',(#129),#130);
#40=STYLED_ITEM('',(#131),#132);
#41=STYLED_ITEM('',(#133),#134);
#42=STYLED_ITEM('',(#135),#136);
#43=STYLED_ITEM('',(#137),#138);
#44=STYLED_ITEM('',(#139),#140);
#45=STYLED_ITEM('',(#141),#142);
#46=STYLED_ITEM('',(#143),#144);
#47=STYLED_ITEM('',(#145),#146);
#48=STYLED_ITEM('',(#147),#148);
#49=STYLED_ITEM('',(#149),#150);
#50=STYLED_ITEM('',(#151),#152);
#51=STYLED_ITEM('',(#153),#154);
#52=STYLED_ITEM('',(#155),#156);
#53=STYLED_ITEM('',(#157),#158);
#54=STYLED_ITEM('',(#159),#160);
#55=STYLED_ITEM('',(#161),#162);
#56=STYLED_ITEM('',(#163),#164);
#57=STYLED_ITEM('',(#165),#166);
#58=STYLED_ITEM('',(#167),#168);
#59=STYLED_ITEM('',(#169),#170);
#60=STYLED_ITEM('',(#171),#172);
#61=APPLICATION_CONTEXT(' ');
#62=PRODUCT_CATEGORY('part','NONE');
#63=PRODUCT_RELATED_PRODUCT_CATEGORY('detail',' ',(#173));
#64=PRODUCT_DEFINITION_SHAPE('NONE','NONE',#174);
#65=ADVANCED_BREP_SHAPE_REPRESENTATION('1',(#138,#175),#10);
#66=APPLICATION_CONTEXT(' ');
#67=PRODUCT_CATEGORY('part','NONE');
#68=PRODUCT_RELATED_PRODUCT_CATEGORY('detail',' ',(#176));
#69=PRODUCT_DEFINITION_SHAPE('NONE','NONE',#177);
#70=ADVANCED_BREP_SHAPE_REPRESENTATION('2',(#104,#178),#10);
#73=UNCERTAINTY_MEASURE_WITH_UNIT(LENGTH_MEASURE(1.0E-006),#75,'','');
#75= (CONVERSION_BASED_UNIT('MILLIMETRE',#181)LENGTH_UNIT()NAMED_UNIT(#184));
#76= (NAMED_UNIT(#186)PLANE_ANGLE_UNIT()SI_UNIT($,.RADIAN.));
#77= (NAMED_UNIT(#186)SOLID_ANGLE_UNIT()SI_UNIT($,.STERADIAN.));
#79=PRESENTATION_STYLE_ASSIGNMENT((#192));
#80=VERTEX_POINT('',#193);
#81=PRESENTATION_STYLE_ASSIGNMENT((#194));
#82=EDGE_CURVE('',#148,#92,#195,.T.);
#83=PRESENTATION_STYLE_ASSIGNMENT((#196));
#84=EDGE_CURVE('',#160,#154,#197,.T.);
#85=PRESENTATION_STYLE_ASSIGNMENT((#198));
#86=VERTEX_POINT('',#199);
#87=PRESENTATION_STYLE_ASSIGNMENT((#200));
#88=ADVANCED_FACE('',(#201),#202,.T.);
#89=PRESENTATION_STYLE_ASSIGNMENT((#203));
#90=EDGE_CURVE('',#102,#126,#204,.T.);
#91=PRESENTATION_STYLE_ASSIGNMENT((#205));
#92=VERTEX_POINT('',#206);
#93=PRESENTATION_STYLE_ASSIGNMENT((#207));
#94=ADVANCED_FACE('',(#208),#209,.T.);
#95=PRESENTATION_STYLE_ASSIGNMENT((#210));
#96=VERTEX_POINT('',#211);
#97=PRESENTATION_STYLE_ASSIGNMENT((#212));
#98=ADVANCED_FACE('',(#213),#214,.F.);
#99=PRESENTATION_STYLE_ASSIGNMENT((#215));
#100=EDGE_CURVE('',#126,#102,#216,.T.);
#101=PRESENTATION_STYLE_ASSIGNMENT((#217));
#102=VERTEX_POINT('',#218);
#103=PRESENTATION_STYLE_ASSIGNMENT((#219));
#104=MANIFOLD_SOLID_BREP('2',#220);
#105=PRESENTATION_STYLE_ASSIGNMENT((#221));
#106=ADVANCED_FACE('',(#222),#223,.T.);
#107=PRESENTATION_STYLE_ASSIGNMENT((#224));
#108=EDGE_CURVE('',#148,#122,#225,.T.);
#109=PRESENTATION_STYLE_ASSIGNMENT((#226));
#110=ADVANCED_FACE('',(#227),#228,.F.);
#111=PRESENTATION_STYLE_ASSIGNMENT((#229));
#112=EDGE_CURVE('',#134,#92,#230,.T.);
#113=PRESENTATION_STYLE_ASSIGNMENT((#231));
#114=EDGE_CURVE('',#96,#154,#232,.T.);
#115=PRESENTATION_STYLE_ASSIGNMENT((#233));
#116=ADVANCED_FACE('',(#234),#235,.T.);
#117=PRESENTATION_STYLE_ASSIGNMENT((#236));
#118=ADVANCED_FACE('',(#237),#238,.T.);
#119=PRESENTATION_STYLE_ASSIGNMENT((#239));
#120=EDGE_CURVE('',#92,#134,#240,.T.);
#121=PRESENTATION_STYLE_ASSIGNMENT((#241));
#122=VERTEX_POINT('',#242);
#123=PRESENTATION_STYLE_ASSIGNMENT((#243));
#124=EDGE_CURVE('',#130,#166,#244,.T.);
#125=PRESENTATION_STYLE_ASSIGNMENT((#245));
#126=VERTEX_POINT('',#246);
#127=PRESENTATION_STYLE_ASSIGNMENT((#247));
#128=EDGE_CURVE('',#126,#96,#248,.T.);
#129=PRESENTATION_STYLE_ASSIGNMENT((#249));
#130=VERTEX_POINT('',#250);
#131=PRESENTATION_STYLE_ASSIGNMENT((#251));
#132=ADVANCED_FACE('',(#252),#253,.T.);
#133=PRESENTATION_STYLE_ASSIGNMENT((#254));
#134=VERTEX_POINT('',#255);
#135=PRESENTATION_STYLE_ASSIGNMENT((#256));
#136=EDGE_CURVE('',#122,#148,#257,.T.);
#137=PRESENTATION_STYLE_ASSIGNMENT((#258));
#138=MANIFOLD_SOLID_BREP('1',#259);
#139=PRESENTATION_STYLE_ASSIGNMENT((#260));
#140=EDGE_CURVE('',#154,#160,#261,.T.);
#141=PRESENTATION_STYLE_ASSIGNMENT((#262));
#142=EDGE_CURVE('',#160,#80,#263,.T.);
#143=PRESENTATION_STYLE_ASSIGNMENT((#264));
#144=ADVANCED_FACE('',(#265),#266,.T.);
#145=PRESENTATION_STYLE_ASSIGNMENT((#267));
#146=EDGE_CURVE('',#96,#80,#268,.T.);
#147=PRESENTATION_STYLE_ASSIGNMENT((#269));
#148=VERTEX_POINT('',#270);
#149=PRESENTATION_STYLE_ASSIGNMENT((#271));
#150=EDGE_CURVE('',#86,#166,#272,.T.);
#151=PRESENTATION_STYLE_ASSIGNMENT((#273));
#152=EDGE_CURVE('',#166,#130,#274,.T.);
#153=PRESENTATION_STYLE_ASSIGNMENT((#275));
#154=VERTEX_POINT('',#276);
#155=PRESENTATION_STYLE_ASSIGNMENT((#277));
#156=EDGE_CURVE('',#130,#86,#278,.T.);
#157=PRESENTATION_STYLE_ASSIGNMENT((#279));
#158=ADVANCED_FACE('',(#280),#281,.T.);
#159=PRESENTATION_STYLE_ASSIGNMENT((#282));
#160=VERTEX_POINT('',#283);
#161=PRESENTATION_STYLE_ASSIGNMENT((#284));
#162=EDGE_CURVE('',#80,#96,#285,.T.);
#163=PRESENTATION_STYLE_ASSIGNMENT((#286));
#164=EDGE_CURVE('',#134,#122,#287,.T.);
#165=PRESENTATION_STYLE_ASSIGNMENT((#288));
#166=VERTEX_POINT('',#289);
#167=PRESENTATION_STYLE_ASSIGNMENT((#290));
#168=EDGE_CURVE('',#80,#102,#291,.T.);
#169=PRESENTATION_STYLE_ASSIGNMENT((#292));
#170=ADVANCED_FACE('',(#293),#294,.T.);
#171=PRESENTATION_STYLE_ASSIGNMENT((#295));
#172=ADVANCED_FACE('',(#296,#297),#298,.T.);
#173=PRODUCT('1','1','PART-1-DESC',(#299));
#174=PRODUCT_DEFINITION('NONE','NONE',#300,#2);
#175=AXIS2_PLACEMENT_3D('',#301,#302,#303);
#176=PRODUCT('2','2','PART-2-DESC',(#304));
#177=PRODUCT_DEFINITION('NONE','NONE',#305,#6);
#178=AXIS2_PLACEMENT_3D('',#306,#307,#308);
#181=LENGTH_MEASURE_WITH_UNIT(LENGTH_MEASURE(1.0),#309);
#184=DIMENSIONAL_EXPONENTS(1.0,0.0,0.0,0.0,0.0,0.0,0.0);
#186=DIMENSIONAL_EXPONENTS(0.0,0.0,0.0,0.0,0.0,0.0,0.0);
#192=POINT_STYLE(' ',#310,POSITIVE_LENGTH_MEASURE(1.0E-006),#311);
#193=CARTESIAN_POINT('',(1.16643755201581E-015,-9.525,-1.181));
#194=CURVE_STYLE('',#312,POSITIVE_LENGTH_MEASURE(1.0E-006),#313);
#195=LINE('',#314,#315);
#196=CURVE_STYLE('',#316,POSITIVE_LENGTH_MEASURE(1.0E-006),#317);
#197=CIRCLE('',#318,9.525);
#198=POINT_STYLE(' ',#319,POSITIVE_LENGTH_MEASURE(1.0E-006),#320);
#199=CARTESIAN_POINT('',(0.0,0.0,-57.1));
#200=SURFACE_STYLE_USAGE(.BOTH.,#321);
#201=FACE_OUTER_BOUND('',#322,.T.);
#202=CONICAL_SURFACE('',#323,8.2179016482621,0.174531229663418);
#203=CURVE_STYLE('',#324,POSITIVE_LENGTH_MEASURE(1.0E-006),#325);
#204=CIRCLE('',#326,8.83737582939516);
#205=POINT_STYLE(' ',#327,POSITIVE_LENGTH_MEASURE(1.0E-006),#328);
#206=CARTESIAN_POINT('',(0.0,3.175,-114.29));
#207=SURFACE_STYLE_USAGE(.BOTH.,#329);
#208=FACE_OUTER_BOUND('',#330,.T.);
#209=PLANE('',#331);
#210=POINT_STYLE(' ',#332,POSITIVE_LENGTH_MEASURE(1.0E-006),#333);
#211=CARTESIAN_POINT('',(0.0,9.525,-1.181));
#212=SURFACE_STYLE_USAGE(.BOTH.,#334);
#213=FACE_OUTER_BOUND('',#335,.T.);
#214=CONICAL_SURFACE('',#336,6.6279016482621,1.57004194036661);
#215=CURVE_STYLE('',#337,POSITIVE_LENGTH_MEASURE(1.0E-006),#338);
#216=CIRCLE('',#339,8.83737582939516);
#217=POINT_STYLE(' ',#340,POSITIVE_LENGTH_MEASURE(1.0E-006),#341);
#218=CARTESIAN_POINT('',(1.08223065917936E-015,-8.83737582939516,0.00999999999999801));
#219=SURFACE_STYLE_USAGE(.BOTH.,#342);
#220=CLOSED_SHELL('',(#132,#106,#170,#94,#144,#158));
#221=SURFACE_STYLE_USAGE(.BOTH.,#343);
#222=FACE_OUTER_BOUND('',#344,.T.);
#223=CONICAL_SURFACE('',#345,9.18118791469758,0.523598775598298);
#224=CURVE_STYLE('',#346,POSITIVE_LENGTH_MEASURE(1.0E-006),#347);
#225=CIRCLE('',#348,13.2608032965242);
#226=SURFACE_STYLE_USAGE(.BOTH.,#349);
#227=FACE_OUTER_BOUND('',#350,.T.);
#228=CONICAL_SURFACE('',#351,6.6279016482621,1.57004194036661);
#229=CURVE_STYLE('',#352,POSITIVE_LENGTH_MEASURE(1.0E-006),#353);
#230=CIRCLE('',#354,3.175);
#231=CURVE_STYLE('',#355,POSITIVE_LENGTH_MEASURE(1.0E-006),#356);
#232=LINE('',#357,#358);
#233=SURFACE_STYLE_USAGE(.BOTH.,#359);
#234=FACE_OUTER_BOUND('',#360,.T.);
#235=PLANE('',#361);
#236=SURFACE_STYLE_USAGE(.BOTH.,#362);
#237=FACE_OUTER_BOUND('',#363,.T.);
#238=CONICAL_SURFACE('',#364,8.2179016482621,0.174531229663418);
#239=CURVE_STYLE('',#365,POSITIVE_LENGTH_MEASURE(1.0E-006),#366);
#240=CIRCLE('',#367,3.175);
#241=POINT_STYLE(' ',#368,POSITIVE_LENGTH_MEASURE(1.0E-006),#369);
#242=CARTESIAN_POINT('',(1.62392639737123E-015,-13.2608032965242,-57.09));
#243=CURVE_STYLE('',#370,POSITIVE_LENGTH_MEASURE(1.0E-006),#371);
#244=CIRCLE('',#372,13.2558032965242);
#245=POINT_STYLE(' ',#373,POSITIVE_LENGTH_MEASURE(1.0E-006),#374);
#246=CARTESIAN_POINT('',(0.0,8.83737582939516,0.00999999999999801));
#247=CURVE_STYLE('',#375,POSITIVE_LENGTH_MEASURE(1.0E-006),#376);
#248=LINE('',#377,#378);
#249=POINT_STYLE(' ',#379,POSITIVE_LENGTH_MEASURE(1.0E-006),#380);
#250=CARTESIAN_POINT('',(0.0,13.2558032965242,-57.09));
#251=SURFACE_STYLE_USAGE(.BOTH.,#381);
#252=FACE_OUTER_BOUND('',#382,.T.);
#253=CYLINDRICAL_SURFACE('',#383,9.525);
#254=POINT_STYLE(' ',#384,POSITIVE_LENGTH_MEASURE(1.0E-006),#385);
#255=CARTESIAN_POINT('',(3.88812517338605E-016,-3.175,-114.29));
#256=CURVE_STYLE('',#386,POSITIVE_LENGTH_MEASURE(1.0E-006),#387);
#257=CIRCLE('',#388,13.2608032965242);
#258=SURFACE_STYLE_USAGE(.BOTH.,#389);
#259=CLOSED_SHELL('',(#88,#98,#110,#172,#118,#116));
#260=CURVE_STYLE('',#390,POSITIVE_LENGTH_MEASURE(1.0E-006),#391);
#261=CIRCLE('',#392,9.525);
#262=CURVE_STYLE('',#393,POSITIVE_LENGTH_MEASURE(1.0E-006),#394);
#263=LINE('',#395,#396);
#264=SURFACE_STYLE_USAGE(.BOTH.,#397);
#265=FACE_OUTER_BOUND('',#398,.T.);
#266=CONICAL_SURFACE('',#399,9.18118791469758,0.523598775598298);
#267=CURVE_STYLE('',#400,POSITIVE_LENGTH_MEASURE(1.0E-006),#401);
#268=CIRCLE('',#402,9.525);
#269=POINT_STYLE(' ',#403,POSITIVE_LENGTH_MEASURE(1.0E-006),#404);
#270=CARTESIAN_POINT('',(0.0,13.2608032965242,-57.09));
#271=CURVE_STYLE('',#405,POSITIVE_LENGTH_MEASURE(1.0E-006),#406);
#272=LINE('',#407,#408);
#273=CURVE_STYLE('',#409,POSITIVE_LENGTH_MEASURE(1.0E-006),#410);
#274=CIRCLE('',#411,13.2558032965242);
#275=POINT_STYLE(' ',#412,POSITIVE_LENGTH_MEASURE(1.0E-006),#413);
#276=CARTESIAN_POINT('',(-1.16643755201581E-015,9.525,-57.09));
#277=CURVE_STYLE('',#414,POSITIVE_LENGTH_MEASURE(1.0E-006),#415);
#278=LINE('',#416,#417);
#279=SURFACE_STYLE_USAGE(.BOTH.,#418);
#280=FACE_OUTER_BOUND('',#419,.T.);
#281=CYLINDRICAL_SURFACE('',#420,9.525);
#282=POINT_STYLE(' ',#421,POSITIVE_LENGTH_MEASURE(1.0E-006),#422);
#283=CARTESIAN_POINT('',(0.0,-9.525,-57.09));
#284=CURVE_STYLE('',#423,POSITIVE_LENGTH_MEASURE(1.0E-006),#424);
#285=CIRCLE('',#425,9.525);
#286=CURVE_STYLE('',#426,POSITIVE_LENGTH_MEASURE(1.0E-006),#427);
#287=LINE('',#428,#429);
#288=POINT_STYLE(' ',#430,POSITIVE_LENGTH_MEASURE(1.0E-006),#431);
#289=CARTESIAN_POINT('',(1.62331409419431E-015,-13.2558032965242,-57.09));
#290=CURVE_STYLE('',#432,POSITIVE_LENGTH_MEASURE(1.0E-006),#433);
#291=LINE('',#434,#435);
#292=SURFACE_STYLE_USAGE(.BOTH.,#436);
#293=FACE_OUTER_BOUND('',#437,.T.);
#294=PLANE('',#438);
#295=SURFACE_STYLE_USAGE(.BOTH.,#439);
#296=FACE_OUTER_BOUND('',#440,.T.);
#297=FACE_BOUND('',#441,.T.);
#298=PLANE('',#442);
#299=PRODUCT_CONTEXT('',#61,'mechanical');
#300=PRODUCT_DEFINITION_FORMATION_WITH_SPECIFIED_SOURCE(' ','NONE',#173,.NOT_KNOWN.);
#301=CARTESIAN_POINT('',(0.0,0.0,0.0));
#302=DIRECTION('',(0.0,0.0,1.0));
#303=DIRECTION('',(1.0,0.0,0.0));
#304=PRODUCT_CONTEXT('',#66,'mechanical');
#305=PRODUCT_DEFINITION_FORMATION_WITH_SPECIFIED_SOURCE(' ','NONE',#176,.NOT_KNOWN.);
#306=CARTESIAN_POINT('',(0.0,0.0,0.0));
#307=DIRECTION('',(0.0,0.0,1.0));
#308=DIRECTION('',(1.0,0.0,0.0));
#309= (NAMED_UNIT(#184)LENGTH_UNIT()SI_UNIT(.MILLI.,.METRE.));
#310=PRE_DEFINED_MARKER('');
#311=COLOUR_RGB('',0.498039215803146,0.498039215803146,0.498039215803146);
#312=DRAUGHTING_PRE_DEFINED_CURVE_FONT('continuous');
#313=COLOUR_RGB('',0.800000011920929,0.800000011920929,0.800000011920929);
#314=CARTESIAN_POINT('',(-1.00636945735492E-015,8.2179016482621,-85.69));
#315=VECTOR('',#444,1.0);
#316=DRAUGHTING_PRE_DEFINED_CURVE_FONT('continuous');
#317=COLOUR_RGB('',0.498039215803146,0.498039215803146,0.498039215803146);
#318=AXIS2_PLACEMENT_3D('',#445,#446,#447);
#319=PRE_DEFINED_MARKER('');
#320=COLOUR_RGB('',0.800000011920929,0.800000011920929,0.800000011920929);
#321=SURFACE_SIDE_STYLE('',(#448));
#322=EDGE_LOOP('',(#449,#450,#451,#452));
#323=AXIS2_PLACEMENT_3D('',#453,#454,#455);
#324=DRAUGHTING_PRE_DEFINED_CURVE_FONT('continuous');
#325=COLOUR_RGB('',0.498039215803146,0.498039215803146,0.498039215803146);
#326=AXIS2_PLACEMENT_3D('',#456,#457,#458);
#327=PRE_DEFINED_MARKER('');
#328=COLOUR_RGB('',0.800000011920929,0.800000011920929,0.800000011920929);
#329=SURFACE_SIDE_STYLE('',(#459));
#330=EDGE_LOOP('',(#460,#461));
#331=AXIS2_PLACEMENT_3D('',#462,#463,#464);
#332=PRE_DEFINED_MARKER('');
#333=COLOUR_RGB('',0.498039215803146,0.498039215803146,0.498039215803146);
#334=SURFACE_SIDE_STYLE('',(#465));
#335=EDGE_LOOP('',(#466,#467,#468));
#336=AXIS2_PLACEMENT_3D('',#469,#470,#471);
#337=DRAUGHTING_PRE_DEFINED_CURVE_FONT('continuous');
#338=COLOUR_RGB('',0.498039215803146,0.498039215803146,0.498039215803146);
#339=AXIS2_PLACEMENT_3D('',#472,#473,#474);
#340=PRE_DEFINED_MARKER('');
#341=COLOUR_RGB('',0.498039215803146,0.498039215803146,0.498039215803146);
#342=SURFACE_SIDE_STYLE('',(#475));
#343=SURFACE_SIDE_STYLE('',(#476));
#344=EDGE_LOOP('',(#477,#478,#479,#480));
#345=AXIS2_PLACEMENT_3D('',#481,#482,#483);
#346=DRAUGHTING_PRE_DEFINED_CURVE_FONT('continuous');
#347=COLOUR_RGB('',0.800000011920929,0.800000011920929,0.800000011920929);
#348=AXIS2_PLACEMENT_3D('',#484,#485,#486);
#349=SURFACE_SIDE_STYLE('',(#487));
#350=EDGE_LOOP('',(#488,#489,#490));
#351=AXIS2_PLACEMENT_3D('',#491,#492,#493);
#352=DRAUGHTING_PRE_DEFINED_CURVE_FONT('continuous');
#353=COLOUR_RGB('',0.800000011920929,0.800000011920929,0.800000011920929);
#354=AXIS2_PLACEMENT_3D('',#494,#495,#496);
#355=DRAUGHTING_PRE_DEFINED_CURVE_FONT('continuous');
#356=COLOUR_RGB('',0.498039215803146,0.498039215803146,0.498039215803146);
#357=CARTESIAN_POINT('',(-1.16643755201581E-015,9.525,-25.9605));
#358=VECTOR('',#497,1.0);
#359=SURFACE_SIDE_STYLE('',(#498));
#360=EDGE_LOOP('',(#499,#500));
#361=AXIS2_PLACEMENT_3D('',#501,#502,#503);
#362=SURFACE_SIDE_STYLE('',(#504));
#363=EDGE_LOOP('',(#505,#506,#507,#508));
#364=AXIS2_PLACEMENT_3D('',#509,#510,#511);
#365=DRAUGHTING_PRE_DEFINED_CURVE_FONT('continuous');
#366=COLOUR_RGB('',0.800000011920929,0.800000011920929,0.800000011920929);
#367=AXIS2_PLACEMENT_3D('',#512,#513,#514);
#368=PRE_DEFINED_MARKER('');
#369=COLOUR_RGB('',0.800000011920929,0.800000011920929,0.800000011920929);
#370=DRAUGHTING_PRE_DEFINED_CURVE_FONT('continuous');
#371=COLOUR_RGB('',0.800000011920929,0.800000011920929,0.800000011920929);
#372=AXIS2_PLACEMENT_3D('',#515,#516,#517);
#373=PRE_DEFINED_MARKER('');
#374=COLOUR_RGB('',0.498039215803146,0.498039215803146,0.498039215803146);
#375=DRAUGHTING_PRE_DEFINED_CURVE_FONT('continuous');
#376=COLOUR_RGB('',0.498039215803146,0.498039215803146,0.498039215803146);
#377=CARTESIAN_POINT('',(-1.12433410559759E-015,9.18118791469758,-0.585500000000003));
#378=VECTOR('',#518,1.0);
#379=PRE_DEFINED_MARKER('');
#380=COLOUR_RGB('',0.800000011920929,0.800000011920929,0.800000011920929);
#381=SURFACE_SIDE_STYLE('',(#519));
#382=EDGE_LOOP('',(#520,#521,#522,#523));
#383=AXIS2_PLACEMENT_3D('',#524,#525,#526);
#384=PRE_DEFINED_MARKER('');
#385=COLOUR_RGB('',0.800000011920929,0.800000011920929,0.800000011920929);
#386=DRAUGHTING_PRE_DEFINED_CURVE_FONT('continuous');
#387=COLOUR_RGB('',0.800000011920929,0.800000011920929,0.800000011920929);
#388=AXIS2_PLACEMENT_3D('',#527,#528,#529);
#389=SURFACE_SIDE_STYLE('',(#530));
#390=DRAUGHTING_PRE_DEFINED_CURVE_FONT('continuous');
#391=COLOUR_RGB('',0.498039215803146,0.498039215803146,0.498039215803146);
#392=AXIS2_PLACEMENT_3D('',#531,#532,#533);
#393=DRAUGHTING_PRE_DEFINED_CURVE_FONT('continuous');
#394=COLOUR_RGB('',0.498039215803146,0.498039215803146,0.498039215803146);
#395=CARTESIAN_POINT('',(1.16643755201581E-015,-9.525,-25.9605));
#396=VECTOR('',#534,1.0);
#397=SURFACE_SIDE_STYLE('',(#535));
#398=EDGE_LOOP('',(#536,#537,#538,#539));
#399=AXIS2_PLACEMENT_3D('',#540,#541,#542);
#400=DRAUGHTING_PRE_DEFINED_CURVE_FONT('continuous');
#401=COLOUR_RGB('',0.498039215803146,0.498039215803146,0.498039215803146);
#402=AXIS2_PLACEMENT_3D('',#543,#544,#545);
#403=PRE_DEFINED_MARKER('');
#404=COLOUR_RGB('',0.800000011920929,0.800000011920929,0.800000011920929);
#405=DRAUGHTING_PRE_DEFINED_CURVE_FONT('continuous');
#406=COLOUR_RGB('',0.800000011920929,0.800000011920929,0.800000011920929);
#407=CARTESIAN_POINT('',(8.11657047097157E-016,-6.6279016482621,-57.095));
#408=VECTOR('',#546,1.0);
#409=DRAUGHTING_PRE_DEFINED_CURVE_FONT('continuous');
#410=COLOUR_RGB('',0.800000011920929,0.800000011920929,0.800000011920929);
#411=AXIS2_PLACEMENT_3D('',#547,#548,#549);
#412=PRE_DEFINED_MARKER('');
#413=COLOUR_RGB('',0.498039215803146,0.498039215803146,0.498039215803146);
#414=DRAUGHTING_PRE_DEFINED_CURVE_FONT('continuous');
#415=COLOUR_RGB('',0.800000011920929,0.800000011920929,0.800000011920929);
#416=CARTESIAN_POINT('',(-8.11657047097157E-016,6.6279016482621,-57.095));
#417=VECTOR('',#550,1.0);
#418=SURFACE_SIDE_STYLE('',(#551));
#419=EDGE_LOOP('',(#552,#553,#554,#555));
#420=AXIS2_PLACEMENT_3D('',#556,#557,#558);
#421=PRE_DEFINED_MARKER('');
#422=COLOUR_RGB('',0.498039215803146,0.498039215803146,0.498039215803146);
#423=DRAUGHTING_PRE_DEFINED_CURVE_FONT('continuous');
#424=COLOUR_RGB('',0.498039215803146,0.498039215803146,0.498039215803146);
#425=AXIS2_PLACEMENT_3D('',#559,#560,#561);
#426=DRAUGHTING_PRE_DEFINED_CURVE_FONT('continuous');
#427=COLOUR_RGB('',0.800000011920929,0.800000011920929,0.800000011920929);
#428=CARTESIAN_POINT('',(1.00636945735492E-015,-8.2179016482621,-85.69));
#429=VECTOR('',#562,1.0);
#430=PRE_DEFINED_MARKER('');
#431=COLOUR_RGB('',0.800000011920929,0.800000011920929,0.800000011920929);
#432=DRAUGHTING_PRE_DEFINED_CURVE_FONT('continuous');
#433=COLOUR_RGB('',0.498039215803146,0.498039215803146,0.498039215803146);
#434=CARTESIAN_POINT('',(1.12433410559759E-015,-9.18118791469758,-0.585500000000003));
#435=VECTOR('',#563,1.0);
#436=SURFACE_SIDE_STYLE('',(#564));
#437=EDGE_LOOP('',(#565,#566));
#438=AXIS2_PLACEMENT_3D('',#567,#568,#569);
#439=SURFACE_SIDE_STYLE('',(#570));
#440=EDGE_LOOP('',(#571,#572));
#441=EDGE_LOOP('',(#573,#574));
#442=AXIS2_PLACEMENT_3D('',#575,#576,#577);
#444=DIRECTION('',(2.12648616880755E-017,-0.173646507889668,-0.984808047437532));
#445=CARTESIAN_POINT('',(0.0,0.0,-57.09));
#446=DIRECTION('',(0.0,0.0,-1.0));
#447=DIRECTION('',(0.0,-1.0,0.0));
#448=SURFACE_STYLE_FILL_AREA(#578);
#449=ORIENTED_EDGE('',*,*,#82,.F.);
#450=ORIENTED_EDGE('',*,*,#108,.T.);
#451=ORIENTED_EDGE('',*,*,#164,.F.);
#452=ORIENTED_EDGE('',*,*,#120,.F.);
#453=CARTESIAN_POINT('',(0.0,0.0,-85.69));
#454=DIRECTION('',(-0.0,-0.0,1.0));
#455=DIRECTION('',(0.0,1.0,0.0));
#456=CARTESIAN_POINT('',(0.0,0.0,0.00999999999999801));
#457=DIRECTION('',(0.0,0.0,-1.0));
#458=DIRECTION('',(0.0,1.0,0.0));
#459=SURFACE_STYLE_FILL_AREA(#579);
#460=ORIENTED_EDGE('',*,*,#100,.F.);
#461=ORIENTED_EDGE('',*,*,#90,.F.);
#462=CARTESIAN_POINT('',(0.0,4.41868791469758,0.00999999999999801));
#463=DIRECTION('',(-0.0,0.0,1.0));
#464=DIRECTION('',(0.0,-1.0,0.0));
#465=SURFACE_STYLE_FILL_AREA(#580);
#466=ORIENTED_EDGE('',*,*,#150,.F.);
#467=ORIENTED_EDGE('',*,*,#156,.F.);
#468=ORIENTED_EDGE('',*,*,#152,.F.);
#469=CARTESIAN_POINT('',(0.0,0.0,-57.095));
#470=DIRECTION('',(-0.0,-0.0,1.0));
#471=DIRECTION('',(0.0,1.0,0.0));
#472=CARTESIAN_POINT('',(0.0,0.0,0.00999999999999801));
#473=DIRECTION('',(0.0,0.0,-1.0));
#474=DIRECTION('',(0.0,1.0,0.0));
#475=SURFACE_STYLE_FILL_AREA(#581);
#476=SURFACE_STYLE_FILL_AREA(#582);
#477=ORIENTED_EDGE('',*,*,#128,.F.);
#478=ORIENTED_EDGE('',*,*,#100,.T.);
#479=ORIENTED_EDGE('',*,*,#168,.F.);
#480=ORIENTED_EDGE('',*,*,#146,.F.);
#481=CARTESIAN_POINT('',(0.0,0.0,-0.585500000000003));
#482=DIRECTION('',(0.0,-0.0,-1.0));
#483=DIRECTION('',(0.0,1.0,0.0));
#484=CARTESIAN_POINT('',(0.0,0.0,-57.09));
#485=DIRECTION('',(0.0,0.0,-1.0));
#486=DIRECTION('',(0.0,1.0,0.0));
#487=SURFACE_STYLE_FILL_AREA(#583);
#488=ORIENTED_EDGE('',*,*,#150,.T.);
#489=ORIENTED_EDGE('',*,*,#124,.F.);
#490=ORIENTED_EDGE('',*,*,#156,.T.);
#491=CARTESIAN_POINT('',(0.0,0.0,-57.095));
#492=DIRECTION('',(-0.0,-0.0,1.0));
#493=DIRECTION('',(0.0,1.0,0.0));
#494=CARTESIAN_POINT('',(0.0,0.0,-114.29));
#495=DIRECTION('',(0.0,0.0,-1.0));
#496=DIRECTION('',(0.0,1.0,0.0));
#497=DIRECTION('',(0.0,0.0,-1.0));
#498=SURFACE_STYLE_FILL_AREA(#584);
#499=ORIENTED_EDGE('',*,*,#120,.T.);
#500=ORIENTED_EDGE('',*,*,#112,.T.);
#501=CARTESIAN_POINT('',(0.0,1.585,-114.29));
#502=DIRECTION('',(0.0,0.0,-1.0));
#503=DIRECTION('',(0.0,1.0,0.0));
#504=SURFACE_STYLE_FILL_AREA(#585);
#505=ORIENTED_EDGE('',*,*,#82,.T.);
#506=ORIENTED_EDGE('',*,*,#112,.F.);
#507=ORIENTED_EDGE('',*,*,#164,.T.);
#508=ORIENTED_EDGE('',*,*,#136,.T.);
#509=CARTESIAN_POINT('',(0.0,0.0,-85.69));
#510=DIRECTION('',(-0.0,-0.0,1.0));
#511=DIRECTION('',(0.0,1.0,0.0));
#512=CARTESIAN_POINT('',(0.0,0.0,-114.29));
#513=DIRECTION('',(0.0,0.0,-1.0));
#514=DIRECTION('',(0.0,1.0,0.0));
#515=CARTESIAN_POINT('',(0.0,0.0,-57.09));
#516=DIRECTION('',(0.0,0.0,-1.0));
#517=DIRECTION('',(0.0,1.0,0.0));
#518=DIRECTION('',(-6.12303176911187E-017,0.499999999999999,-0.866025403784439));
#519=SURFACE_STYLE_FILL_AREA(#586);
#520=ORIENTED_EDGE('',*,*,#114,.F.);
#521=ORIENTED_EDGE('',*,*,#146,.T.);
#522=ORIENTED_EDGE('',*,*,#142,.F.);
#523=ORIENTED_EDGE('',*,*,#140,.F.);
#524=CARTESIAN_POINT('',(0.0,0.0,-25.9605));
#525=DIRECTION('',(-0.0,-0.0,1.0));
#526=DIRECTION('',(0.0,1.0,0.0));
#527=CARTESIAN_POINT('',(0.0,0.0,-57.09));
#528=DIRECTION('',(0.0,0.0,-1.0));
#529=DIRECTION('',(0.0,1.0,0.0));
#530=SURFACE_STYLE_FILL_AREA(#587);
#531=CARTESIAN_POINT('',(0.0,0.0,-57.09));
#532=DIRECTION('',(0.0,0.0,-1.0));
#533=DIRECTION('',(0.0,-1.0,0.0));
#534=DIRECTION('',(-0.0,-0.0,1.0));
#535=SURFACE_STYLE_FILL_AREA(#588);
#536=ORIENTED_EDGE('',*,*,#128,.T.);
#537=ORIENTED_EDGE('',*,*,#162,.F.);
#538=ORIENTED_EDGE('',*,*,#168,.T.);
#539=ORIENTED_EDGE('',*,*,#90,.T.);
#540=CARTESIAN_POINT('',(0.0,0.0,-0.585500000000003));
#541=DIRECTION('',(0.0,-0.0,-1.0));
#542=DIRECTION('',(0.0,1.0,0.0));
#543=CARTESIAN_POINT('',(0.0,0.0,-1.181));
#544=DIRECTION('',(0.0,0.0,-1.0));
#545=DIRECTION('',(0.0,1.0,0.0));
#546=DIRECTION('',(1.22460600536134E-016,-0.999999715450572,0.000754386356737938));
#547=CARTESIAN_POINT('',(0.0,0.0,-57.09));
#548=DIRECTION('',(0.0,0.0,-1.0));
#549=DIRECTION('',(0.0,1.0,0.0));
#550=DIRECTION('',(1.22460600536134E-016,-0.999999715450572,-0.000754386356737938));
#551=SURFACE_STYLE_FILL_AREA(#589);
#552=ORIENTED_EDGE('',*,*,#114,.T.);
#553=ORIENTED_EDGE('',*,*,#84,.F.);
#554=ORIENTED_EDGE('',*,*,#142,.T.);
#555=ORIENTED_EDGE('',*,*,#162,.T.);
#556=CARTESIAN_POINT('',(0.0,0.0,-25.9605));
#557=DIRECTION('',(-0.0,-0.0,1.0));
#558=DIRECTION('',(0.0,1.0,0.0));
#559=CARTESIAN_POINT('',(0.0,0.0,-1.181));
#560=DIRECTION('',(0.0,0.0,-1.0));
#561=DIRECTION('',(0.0,1.0,0.0));
#562=DIRECTION('',(2.12648616880755E-017,-0.173646507889668,0.984808047437532));
#563=DIRECTION('',(-6.12303176911187E-017,0.499999999999999,0.866025403784439));
#564=SURFACE_STYLE_FILL_AREA(#590);
#565=ORIENTED_EDGE('',*,*,#84,.T.);
#566=ORIENTED_EDGE('',*,*,#140,.T.);
#567=CARTESIAN_POINT('',(0.0,0.0,-57.09));
#568=DIRECTION('',(0.0,0.0,-1.0));
#569=DIRECTION('',(0.0,-1.0,0.0));
#570=SURFACE_STYLE_FILL_AREA(#591);
#571=ORIENTED_EDGE('',*,*,#108,.F.);
#572=ORIENTED_EDGE('',*,*,#136,.F.);
#573=ORIENTED_EDGE('',*,*,#124,.T.);
#574=ORIENTED_EDGE('',*,*,#152,.T.);
#575=CARTESIAN_POINT('',(0.0,13.2583032965242,-57.09));
#576=DIRECTION('',(-0.0,0.0,1.0));
#577=DIRECTION('',(0.0,-1.0,0.0));
#578=FILL_AREA_STYLE('',(#592));
#579=FILL_AREA_STYLE('',(#593));
#580=FILL_AREA_STYLE('',(#594));
#581=FILL_AREA_STYLE('',(#595));
#582=FILL_AREA_STYLE('',(#596));
#583=FILL_AREA_STYLE('',(#597));
#584=FILL_AREA_STYLE('',(#598));
#585=FILL_AREA_STYLE('',(#599));
#586=FILL_AREA_STYLE('',(#600));
#587=FILL_AREA_STYLE('',(#601));
#588=FILL_AREA_STYLE('',(#602));
#589=FILL_AREA_STYLE('',(#603));
#590=FILL_AREA_STYLE('',(#604));
#591=FILL_AREA_STYLE('',(#605));
#592=FILL_AREA_STYLE_COLOUR('',#606);
#593=FILL_AREA_STYLE_COLOUR('',#607);
#594=FILL_AREA_STYLE_COLOUR('',#608);
#595=FILL_AREA_STYLE_COLOUR('',#609);
#596=FILL_AREA_STYLE_COLOUR('',#610);
#597=FILL_AREA_STYLE_COLOUR('',#611);
#598=FILL_AREA_STYLE_COLOUR('',#612);
#599=FILL_AREA_STYLE_COLOUR('',#613);
#600=FILL_AREA_STYLE_COLOUR('',#614);
#601=FILL_AREA_STYLE_COLOUR('',#615);
#602=FILL_AREA_STYLE_COLOUR('',#616);
#603=FILL_AREA_STYLE_COLOUR('',#617);
#604=FILL_AREA_STYLE_COLOUR('',#618);
#605=FILL_AREA_STYLE_COLOUR('',#619);
#606=COLOUR_RGB('',0.800000011920929,0.800000011920929,0.800000011920929);
#607=COLOUR_RGB('',0.498039215803146,0.498039215803146,0.498039215803146);
#608=COLOUR_RGB('',0.800000011920929,0.800000011920929,0.800000011920929);
#609=COLOUR_RGB('',0.800000011920929,0.800000011920929,0.800000011920929);
#610=COLOUR_RGB('',0.498039215803146,0.498039215803146,0.498039215803146);
#611=COLOUR_RGB('',0.800000011920929,0.800000011920929,0.800000011920929);
#612=COLOUR_RGB('',0.800000011920929,0.800000011920929,0.800000011920929);
#613=COLOUR_RGB('',0.800000011920929,0.800000011920929,0.800000011920929);
#614=COLOUR_RGB('',0.498039215803146,0.498039215803146,0.498039215803146);
#615=COLOUR_RGB('',0.800000011920929,0.800000011920929,0.800000011920929);
#616=COLOUR_RGB('',0.498039215803146,0.498039215803146,0.498039215803146);
#617=COLOUR_RGB('',0.498039215803146,0.498039215803146,0.498039215803146);
#618=COLOUR_RGB('',0.498039215803146,0.498039215803146,0.498039215803146);
#619=COLOUR_RGB('',0.800000011920929,0.800000011920929,0.800000011920929);
#620=AXIS2_PLACEMENT_3D('PCS',#621,#622,#623);
#621=CARTESIAN_POINT('',(0.0,0.0,0.0));
#622=DIRECTION('',(0.0,0.0,1.0));
#623=DIRECTION('',(1.0,0.0,0.0));
#624=AXIS2_PLACEMENT_3D('CIP',#625,#626,#627);
#625=CARTESIAN_POINT('',(0.0,0.0,-114.3));
#626=DIRECTION('',(0.0,0.0,1.0));
#627=DIRECTION('',(1.0,0.0,0.0));
#628=AXIS2_PLACEMENT_3D('CRP',#629,#630,#631);
#629=CARTESIAN_POINT('',(-3.175,0.0,-114.3));
#630=DIRECTION('',(0.0,0.0,1.0));
#631=DIRECTION('',(1.0,0.0,0.0));
#632=AXIS2_PLACEMENT_3D('MCS',#633,#634,#635);
#633=CARTESIAN_POINT('',(0.0,0.0,-50.75));
#634=DIRECTION('',(0.0,0.0,1.0));
#635=DIRECTION('',(1.0,0.0,0.0));
#636=CONSTRUCTIVE_GEOMETRY_REPRESENTATION_RELATIONSHIP('coordinate systems',$,#65,#637);
#637=CONSTRUCTIVE_GEOMETRY_REPRESENTATION('coordinate systems',(#620,#624,#628,#632),#10);
ENDSEC;
END-ISO-10303-21;
