ISO-10303-21;
HEADER;
FILE_DESCRIPTION(('no description'),'unknown implementation level');
FILE_NAME('solid6kcX5vYZfe0_zH8MKJL_ugA0DE8_1.STP','  ',('CIMSOURCE GmbH'),('CADClick - KiM GmbH - www.kimweb.de'),'unknown preprocess','ACIS','unknown authorization');
FILE_SCHEMA(('automotive_design'));
ENDSEC;
DATA;
#1=MECHANICAL_DESIGN_GEOMETRIC_PRESENTATION_REPRESENTATION(' ',(#14,#15,#16,#17,#18,#19,#20,#21,#22,#23,#24,#25,#26,#27,#28,#29,#30,#31,#32,#33,#34,#35,#36,#37,#38,#39,#40,#41,#42,#43,#44,#45,#46,#47,#48,#49,#50,#51,#52,#53,#54,#55,#56,#57,#58,#59,#60),#10);
#2=PRODUCT_DEFINITION_CONTEXT('',#61,'design');
#3=APPLICATION_PROTOCOL_DEFINITION('INTERNATIONAL STANDARD','automotive_design',1994,#61);
#4=PRODUCT_CATEGORY_RELATIONSHIP('NONE','NONE',#62,#63);
#5=SHAPE_DEFINITION_REPRESENTATION(#64,#65);
#6=PRODUCT_DEFINITION_CONTEXT('',#66,'design');
#7=APPLICATION_PROTOCOL_DEFINITION('INTERNATIONAL STANDARD','automotive_design',1994,#66);
#8=PRODUCT_CATEGORY_RELATIONSHIP('NONE','NONE',#67,#68);
#9=SHAPE_DEFINITION_REPRESENTATION(#69,#70);
#10= (GEOMETRIC_REPRESENTATION_CONTEXT(3)GLOBAL_UNCERTAINTY_ASSIGNED_CONTEXT((#73))GLOBAL_UNIT_ASSIGNED_CONTEXT((#75,#76,#77))REPRESENTATION_CONTEXT('NONE','WORKSPACE'));
#14=STYLED_ITEM('',(#79),#80);
#15=STYLED_ITEM('',(#81),#82);
#16=STYLED_ITEM('',(#83),#84);
#17=STYLED_ITEM('',(#85),#86);
#18=STYLED_ITEM('',(#87),#88);
#19=STYLED_ITEM('',(#89),#90);
#20=STYLED_ITEM('',(#91),#92);
#21=STYLED_ITEM('',(#93),#94);
#22=STYLED_ITEM('',(#95),#96);
#23=STYLED_ITEM('',(#97),#98);
#24=STYLED_ITEM('',(#99),#100);
#25=STYLED_ITEM('',(#101),#102);
#26=STYLED_ITEM('',(#103),#104);
#27=STYLED_ITEM('',(#105),#106);
#28=STYLED_ITEM('',(#107),#108);
#29=STYLED_ITEM('',(#109),#110);
#30=STYLED_ITEM('',(#111),#112);
#31=STYLED_ITEM('',(#113),#114);
#32=STYLED_ITEM('',(#115),#116);
#33=STYLED_ITEM('',(#117),#118);
#34=STYLED_ITEM('',(#119),#120);
#35=STYLED_ITEM('',(#121),#122);
#36=STYLED_ITEM('',(#123),#124);
#37=STYLED_ITEM('',(#125),#126);
#38=STYLED_ITEM('',(#127),#128);
#39=STYLED_ITEM('',(#129),#130);
#40=STYLED_ITEM('',(#131),#132);
#41=STYLED_ITEM('',(#133),#134);
#42=STYLED_ITEM('',(#135),#136);
#43=STYLED_ITEM('',(#137),#138);
#44=STYLED_ITEM('',(#139),#140);
#45=STYLED_ITEM('',(#141),#142);
#46=STYLED_ITEM('',(#143),#144);
#47=STYLED_ITEM('',(#145),#146);
#48=STYLED_ITEM('',(#147),#148);
#49=STYLED_ITEM('',(#149),#150);
#50=STYLED_ITEM('',(#151),#152);
#51=STYLED_ITEM('',(#153),#154);
#52=STYLED_ITEM('',(#155),#156);
#53=STYLED_ITEM('',(#157),#158);
#54=STYLED_ITEM('',(#159),#160);
#55=STYLED_ITEM('',(#161),#162);
#56=STYLED_ITEM('',(#163),#164);
#57=STYLED_ITEM('',(#165),#166);
#58=STYLED_ITEM('',(#167),#168);
#59=STYLED_ITEM('',(#169),#170);
#60=STYLED_ITEM('',(#171),#172);
#61=APPLICATION_CONTEXT(' ');
#62=PRODUCT_CATEGORY('part','NONE');
#63=PRODUCT_RELATED_PRODUCT_CATEGORY('detail',' ',(#173));
#64=PRODUCT_DEFINITION_SHAPE('NONE','NONE',#174);
#65=ADVANCED_BREP_SHAPE_REPRESENTATION('1',(#80,#175),#10);
#66=APPLICATION_CONTEXT(' ');
#67=PRODUCT_CATEGORY('part','NONE');
#68=PRODUCT_RELATED_PRODUCT_CATEGORY('detail',' ',(#176));
#69=PRODUCT_DEFINITION_SHAPE('NONE','NONE',#177);
#70=ADVANCED_BREP_SHAPE_REPRESENTATION('2',(#124,#178),#10);
#73=UNCERTAINTY_MEASURE_WITH_UNIT(LENGTH_MEASURE(1.0E-006),#75,'','');
#75= (CONVERSION_BASED_UNIT('MILLIMETRE',#181)LENGTH_UNIT()NAMED_UNIT(#184));
#76= (NAMED_UNIT(#186)PLANE_ANGLE_UNIT()SI_UNIT($,.RADIAN.));
#77= (NAMED_UNIT(#186)SOLID_ANGLE_UNIT()SI_UNIT($,.STERADIAN.));
#79=PRESENTATION_STYLE_ASSIGNMENT((#192));
#80=MANIFOLD_SOLID_BREP('1',#193);
#81=PRESENTATION_STYLE_ASSIGNMENT((#194));
#82=EDGE_CURVE('',#126,#138,#195,.T.);
#83=PRESENTATION_STYLE_ASSIGNMENT((#196));
#84=ADVANCED_FACE('',(#197),#198,.F.);
#85=PRESENTATION_STYLE_ASSIGNMENT((#199));
#86=ADVANCED_FACE('',(#200),#201,.T.);
#87=PRESENTATION_STYLE_ASSIGNMENT((#202));
#88=VERTEX_POINT('',#203);
#89=PRESENTATION_STYLE_ASSIGNMENT((#204));
#90=EDGE_CURVE('',#160,#94,#205,.T.);
#91=PRESENTATION_STYLE_ASSIGNMENT((#206));
#92=ADVANCED_FACE('',(#207),#208,.T.);
#93=PRESENTATION_STYLE_ASSIGNMENT((#209));
#94=VERTEX_POINT('',#210);
#95=PRESENTATION_STYLE_ASSIGNMENT((#211));
#96=EDGE_CURVE('',#98,#168,#212,.T.);
#97=PRESENTATION_STYLE_ASSIGNMENT((#213));
#98=VERTEX_POINT('',#214);
#99=PRESENTATION_STYLE_ASSIGNMENT((#215));
#100=EDGE_CURVE('',#160,#108,#216,.T.);
#101=PRESENTATION_STYLE_ASSIGNMENT((#217));
#102=EDGE_CURVE('',#156,#88,#218,.T.);
#103=PRESENTATION_STYLE_ASSIGNMENT((#219));
#104=EDGE_CURVE('',#134,#128,#220,.T.);
#105=PRESENTATION_STYLE_ASSIGNMENT((#221));
#106=EDGE_CURVE('',#108,#160,#222,.T.);
#107=PRESENTATION_STYLE_ASSIGNMENT((#223));
#108=VERTEX_POINT('',#224);
#109=PRESENTATION_STYLE_ASSIGNMENT((#225));
#110=EDGE_CURVE('',#172,#108,#226,.T.);
#111=PRESENTATION_STYLE_ASSIGNMENT((#227));
#112=EDGE_CURVE('',#94,#172,#228,.T.);
#113=PRESENTATION_STYLE_ASSIGNMENT((#229));
#114=EDGE_CURVE('',#166,#98,#230,.T.);
#115=PRESENTATION_STYLE_ASSIGNMENT((#231));
#116=ADVANCED_FACE('',(#232,#233),#234,.T.);
#117=PRESENTATION_STYLE_ASSIGNMENT((#235));
#118=EDGE_CURVE('',#108,#156,#236,.T.);
#119=PRESENTATION_STYLE_ASSIGNMENT((#237));
#120=ADVANCED_FACE('',(#238),#239,.T.);
#121=PRESENTATION_STYLE_ASSIGNMENT((#240));
#122=ADVANCED_FACE('',(#241),#242,.F.);
#123=PRESENTATION_STYLE_ASSIGNMENT((#243));
#124=MANIFOLD_SOLID_BREP('2',#244);
#125=PRESENTATION_STYLE_ASSIGNMENT((#245));
#126=VERTEX_POINT('',#246);
#127=PRESENTATION_STYLE_ASSIGNMENT((#247));
#128=VERTEX_POINT('',#248);
#129=PRESENTATION_STYLE_ASSIGNMENT((#249));
#130=ADVANCED_FACE('',(#250),#251,.T.);
#131=PRESENTATION_STYLE_ASSIGNMENT((#252));
#132=ADVANCED_FACE('',(#253),#254,.T.);
#133=PRESENTATION_STYLE_ASSIGNMENT((#255));
#134=VERTEX_POINT('',#256);
#135=PRESENTATION_STYLE_ASSIGNMENT((#257));
#136=EDGE_CURVE('',#128,#134,#258,.T.);
#137=PRESENTATION_STYLE_ASSIGNMENT((#259));
#138=VERTEX_POINT('',#260);
#139=PRESENTATION_STYLE_ASSIGNMENT((#261));
#140=EDGE_CURVE('',#168,#166,#262,.T.);
#141=PRESENTATION_STYLE_ASSIGNMENT((#263));
#142=ADVANCED_FACE('',(#264),#265,.T.);
#143=PRESENTATION_STYLE_ASSIGNMENT((#266));
#144=EDGE_CURVE('',#172,#94,#267,.T.);
#145=PRESENTATION_STYLE_ASSIGNMENT((#268));
#146=EDGE_CURVE('',#134,#126,#269,.T.);
#147=PRESENTATION_STYLE_ASSIGNMENT((#270));
#148=ADVANCED_FACE('',(#271),#272,.T.);
#149=PRESENTATION_STYLE_ASSIGNMENT((#273));
#150=ADVANCED_FACE('',(#274),#275,.T.);
#151=PRESENTATION_STYLE_ASSIGNMENT((#276));
#152=EDGE_CURVE('',#88,#160,#277,.T.);
#153=PRESENTATION_STYLE_ASSIGNMENT((#278));
#154=EDGE_CURVE('',#166,#168,#279,.T.);
#155=PRESENTATION_STYLE_ASSIGNMENT((#280));
#156=VERTEX_POINT('',#281);
#157=PRESENTATION_STYLE_ASSIGNMENT((#282));
#158=EDGE_CURVE('',#138,#126,#283,.T.);
#159=PRESENTATION_STYLE_ASSIGNMENT((#284));
#160=VERTEX_POINT('',#285);
#161=PRESENTATION_STYLE_ASSIGNMENT((#286));
#162=EDGE_CURVE('',#138,#128,#287,.T.);
#163=PRESENTATION_STYLE_ASSIGNMENT((#288));
#164=EDGE_CURVE('',#88,#156,#289,.T.);
#165=PRESENTATION_STYLE_ASSIGNMENT((#290));
#166=VERTEX_POINT('',#291);
#167=PRESENTATION_STYLE_ASSIGNMENT((#292));
#168=VERTEX_POINT('',#293);
#169=PRESENTATION_STYLE_ASSIGNMENT((#294));
#170=ADVANCED_FACE('',(#295),#296,.T.);
#171=PRESENTATION_STYLE_ASSIGNMENT((#297));
#172=VERTEX_POINT('',#298);
#173=PRODUCT('1','1','PART-1-DESC',(#299));
#174=PRODUCT_DEFINITION('NONE','NONE',#300,#2);
#175=AXIS2_PLACEMENT_3D('',#301,#302,#303);
#176=PRODUCT('2','2','PART-2-DESC',(#304));
#177=PRODUCT_DEFINITION('NONE','NONE',#305,#6);
#178=AXIS2_PLACEMENT_3D('',#306,#307,#308);
#181=LENGTH_MEASURE_WITH_UNIT(LENGTH_MEASURE(1.0),#309);
#184=DIMENSIONAL_EXPONENTS(1.0,0.0,0.0,0.0,0.0,0.0,0.0);
#186=DIMENSIONAL_EXPONENTS(0.0,0.0,0.0,0.0,0.0,0.0,0.0);
#192=SURFACE_STYLE_USAGE(.BOTH.,#310);
#193=CLOSED_SHELL('',(#120,#84,#122,#116,#132,#92));
#194=CURVE_STYLE('',#311,POSITIVE_LENGTH_MEASURE(1.0E-006),#312);
#195=CIRCLE('',#313,5.556);
#196=SURFACE_STYLE_USAGE(.BOTH.,#314);
#197=FACE_OUTER_BOUND('',#315,.T.);
#198=CONICAL_SURFACE('',#316,2.77545,1.56899481907869);
#199=SURFACE_STYLE_USAGE(.BOTH.,#317);
#200=FACE_OUTER_BOUND('',#318,.T.);
#201=CONICAL_SURFACE('',#319,4.53329194313172,0.523598775598299);
#202=POINT_STYLE(' ',#320,POSITIVE_LENGTH_MEASURE(1.0E-006),#321);
#203=CARTESIAN_POINT('',(0.0,-4.7625,-42.89));
#204=CURVE_STYLE('',#322,POSITIVE_LENGTH_MEASURE(1.0E-006),#323);
#205=LINE('',#324,#325);
#206=SURFACE_STYLE_USAGE(.BOTH.,#326);
#207=FACE_OUTER_BOUND('',#327,.T.);
#208=PLANE('',#328);
#209=POINT_STYLE(' ',#329,POSITIVE_LENGTH_MEASURE(1.0E-006),#330);
#210=CARTESIAN_POINT('',(5.27080847450272E-016,-4.30408388626344,0.0100000000000051));
#211=CURVE_STYLE('',#331,POSITIVE_LENGTH_MEASURE(1.0E-006),#332);
#212=LINE('',#333,#334);
#213=POINT_STYLE(' ',#335,POSITIVE_LENGTH_MEASURE(1.0E-006),#336);
#214=CARTESIAN_POINT('',(0.0,0.0,-42.9));
#215=CURVE_STYLE('',#337,POSITIVE_LENGTH_MEASURE(1.0E-006),#338);
#216=CIRCLE('',#339,4.7625);
#217=CURVE_STYLE('',#340,POSITIVE_LENGTH_MEASURE(1.0E-006),#341);
#218=CIRCLE('',#342,4.7625);
#219=CURVE_STYLE('',#343,POSITIVE_LENGTH_MEASURE(1.0E-006),#344);
#220=CIRCLE('',#345,5.5559);
#221=CURVE_STYLE('',#346,POSITIVE_LENGTH_MEASURE(1.0E-006),#347);
#222=CIRCLE('',#348,4.7625);
#223=POINT_STYLE(' ',#349,POSITIVE_LENGTH_MEASURE(1.0E-006),#350);
#224=CARTESIAN_POINT('',(0.0,4.7625,-0.783999999999995));
#225=CURVE_STYLE('',#351,POSITIVE_LENGTH_MEASURE(1.0E-006),#352);
#226=LINE('',#353,#354);
#227=CURVE_STYLE('',#355,POSITIVE_LENGTH_MEASURE(1.0E-006),#356);
#228=CIRCLE('',#357,4.30408388626344);
#229=CURVE_STYLE('',#358,POSITIVE_LENGTH_MEASURE(1.0E-006),#359);
#230=LINE('',#360,#361);
#231=SURFACE_STYLE_USAGE(.BOTH.,#362);
#232=FACE_OUTER_BOUND('',#363,.T.);
#233=FACE_BOUND('',#364,.T.);
#234=PLANE('',#365);
#235=CURVE_STYLE('',#366,POSITIVE_LENGTH_MEASURE(1.0E-006),#367);
#236=LINE('',#368,#369);
#237=SURFACE_STYLE_USAGE(.BOTH.,#370);
#238=FACE_OUTER_BOUND('',#371,.T.);
#239=CONICAL_SURFACE('',#372,5.55595,3.93700787398623E-006);
#240=SURFACE_STYLE_USAGE(.BOTH.,#373);
#241=FACE_OUTER_BOUND('',#374,.T.);
#242=CONICAL_SURFACE('',#375,2.77545,1.56899481907869);
#243=SURFACE_STYLE_USAGE(.BOTH.,#376);
#244=CLOSED_SHELL('',(#130,#148,#142,#150,#86,#170));
#245=POINT_STYLE(' ',#377,POSITIVE_LENGTH_MEASURE(1.0E-006),#378);
#246=CARTESIAN_POINT('',(0.0,5.556,-68.29));
#247=POINT_STYLE(' ',#379,POSITIVE_LENGTH_MEASURE(1.0E-006),#380);
#248=CARTESIAN_POINT('',(6.80379044120174E-016,-5.5559,-42.89));
#249=SURFACE_STYLE_USAGE(.BOTH.,#381);
#250=FACE_OUTER_BOUND('',#382,.T.);
#251=CYLINDRICAL_SURFACE('',#383,4.7625);
#252=SURFACE_STYLE_USAGE(.BOTH.,#384);
#253=FACE_OUTER_BOUND('',#385,.T.);
#254=CONICAL_SURFACE('',#386,5.55595,3.93700787398623E-006);
#255=POINT_STYLE(' ',#387,POSITIVE_LENGTH_MEASURE(1.0E-006),#388);
#256=CARTESIAN_POINT('',(0.0,5.5559,-42.89));
#257=CURVE_STYLE('',#389,POSITIVE_LENGTH_MEASURE(1.0E-006),#390);
#258=CIRCLE('',#391,5.5559);
#259=POINT_STYLE(' ',#392,POSITIVE_LENGTH_MEASURE(1.0E-006),#393);
#260=CARTESIAN_POINT('',(6.80391290183713E-016,-5.556,-68.29));
#261=CURVE_STYLE('',#394,POSITIVE_LENGTH_MEASURE(1.0E-006),#395);
#262=CIRCLE('',#396,5.5509);
#263=SURFACE_STYLE_USAGE(.BOTH.,#397);
#264=FACE_OUTER_BOUND('',#398,.T.);
#265=PLANE('',#399);
#266=CURVE_STYLE('',#400,POSITIVE_LENGTH_MEASURE(1.0E-006),#401);
#267=CIRCLE('',#402,4.30408388626344);
#268=CURVE_STYLE('',#403,POSITIVE_LENGTH_MEASURE(1.0E-006),#404);
#269=LINE('',#405,#406);
#270=SURFACE_STYLE_USAGE(.BOTH.,#407);
#271=FACE_OUTER_BOUND('',#408,.T.);
#272=CONICAL_SURFACE('',#409,4.53329194313172,0.523598775598299);
#273=SURFACE_STYLE_USAGE(.BOTH.,#410);
#274=FACE_OUTER_BOUND('',#411,.T.);
#275=PLANE('',#412);
#276=CURVE_STYLE('',#413,POSITIVE_LENGTH_MEASURE(1.0E-006),#414);
#277=LINE('',#415,#416);
#278=CURVE_STYLE('',#417,POSITIVE_LENGTH_MEASURE(1.0E-006),#418);
#279=CIRCLE('',#419,5.5509);
#280=POINT_STYLE(' ',#420,POSITIVE_LENGTH_MEASURE(1.0E-006),#421);
#281=CARTESIAN_POINT('',(-5.83218776007907E-016,4.7625,-42.89));
#282=CURVE_STYLE('',#422,POSITIVE_LENGTH_MEASURE(1.0E-006),#423);
#283=CIRCLE('',#424,5.556);
#284=POINT_STYLE(' ',#425,POSITIVE_LENGTH_MEASURE(1.0E-006),#426);
#285=CARTESIAN_POINT('',(5.83218776007907E-016,-4.7625,-0.783999999999995));
#286=CURVE_STYLE('',#427,POSITIVE_LENGTH_MEASURE(1.0E-006),#428);
#287=LINE('',#429,#430);
#288=CURVE_STYLE('',#431,POSITIVE_LENGTH_MEASURE(1.0E-006),#432);
#289=CIRCLE('',#433,4.7625);
#290=POINT_STYLE(' ',#434,POSITIVE_LENGTH_MEASURE(1.0E-006),#435);
#291=CARTESIAN_POINT('',(0.0,5.5509,-42.89));
#292=POINT_STYLE(' ',#436,POSITIVE_LENGTH_MEASURE(1.0E-006),#437);
#293=CARTESIAN_POINT('',(6.79766740943263E-016,-5.5509,-42.89));
#294=SURFACE_STYLE_USAGE(.BOTH.,#438);
#295=FACE_OUTER_BOUND('',#439,.T.);
#296=CYLINDRICAL_SURFACE('',#440,4.7625);
#297=POINT_STYLE(' ',#441,POSITIVE_LENGTH_MEASURE(1.0E-006),#442);
#298=CARTESIAN_POINT('',(0.0,4.30408388626344,0.0100000000000051));
#299=PRODUCT_CONTEXT('',#61,'mechanical');
#300=PRODUCT_DEFINITION_FORMATION_WITH_SPECIFIED_SOURCE(' ','NONE',#173,.NOT_KNOWN.);
#301=CARTESIAN_POINT('',(0.0,0.0,0.0));
#302=DIRECTION('',(0.0,0.0,1.0));
#303=DIRECTION('',(1.0,0.0,0.0));
#304=PRODUCT_CONTEXT('',#66,'mechanical');
#305=PRODUCT_DEFINITION_FORMATION_WITH_SPECIFIED_SOURCE(' ','NONE',#176,.NOT_KNOWN.);
#306=CARTESIAN_POINT('',(0.0,0.0,0.0));
#307=DIRECTION('',(0.0,0.0,1.0));
#308=DIRECTION('',(1.0,0.0,0.0));
#309= (NAMED_UNIT(#184)LENGTH_UNIT()SI_UNIT(.MILLI.,.METRE.));
#310=SURFACE_SIDE_STYLE('',(#444));
#311=DRAUGHTING_PRE_DEFINED_CURVE_FONT('continuous');
#312=COLOUR_RGB('',0.800000011920929,0.800000011920929,0.800000011920929);
#313=AXIS2_PLACEMENT_3D('',#445,#446,#447);
#314=SURFACE_SIDE_STYLE('',(#448));
#315=EDGE_LOOP('',(#449,#450,#451));
#316=AXIS2_PLACEMENT_3D('',#452,#453,#454);
#317=SURFACE_SIDE_STYLE('',(#455));
#318=EDGE_LOOP('',(#456,#457,#458,#459));
#319=AXIS2_PLACEMENT_3D('',#460,#461,#462);
#320=PRE_DEFINED_MARKER('');
#321=COLOUR_RGB('',0.498039215803146,0.498039215803146,0.498039215803146);
#322=DRAUGHTING_PRE_DEFINED_CURVE_FONT('continuous');
#323=COLOUR_RGB('',0.498039215803146,0.498039215803146,0.498039215803146);
#324=CARTESIAN_POINT('',(5.55149811729089E-016,-4.53329194313172,-0.386999999999993));
#325=VECTOR('',#463,1.0);
#326=SURFACE_SIDE_STYLE('',(#464));
#327=EDGE_LOOP('',(#465,#466));
#328=AXIS2_PLACEMENT_3D('',#467,#468,#469);
#329=PRE_DEFINED_MARKER('');
#330=COLOUR_RGB('',0.498039215803146,0.498039215803146,0.498039215803146);
#331=DRAUGHTING_PRE_DEFINED_CURVE_FONT('continuous');
#332=COLOUR_RGB('',0.800000011920929,0.800000011920929,0.800000011920929);
#333=CARTESIAN_POINT('',(3.39883370471632E-016,-2.77545,-42.895));
#334=VECTOR('',#470,1.0);
#335=PRE_DEFINED_MARKER('');
#336=COLOUR_RGB('',0.800000011920929,0.800000011920929,0.800000011920929);
#337=DRAUGHTING_PRE_DEFINED_CURVE_FONT('continuous');
#338=COLOUR_RGB('',0.498039215803146,0.498039215803146,0.498039215803146);
#339=AXIS2_PLACEMENT_3D('',#471,#472,#473);
#340=DRAUGHTING_PRE_DEFINED_CURVE_FONT('continuous');
#341=COLOUR_RGB('',0.498039215803146,0.498039215803146,0.498039215803146);
#342=AXIS2_PLACEMENT_3D('',#474,#475,#476);
#343=DRAUGHTING_PRE_DEFINED_CURVE_FONT('continuous');
#344=COLOUR_RGB('',0.800000011920929,0.800000011920929,0.800000011920929);
#345=AXIS2_PLACEMENT_3D('',#477,#478,#479);
#346=DRAUGHTING_PRE_DEFINED_CURVE_FONT('continuous');
#347=COLOUR_RGB('',0.498039215803146,0.498039215803146,0.498039215803146);
#348=AXIS2_PLACEMENT_3D('',#480,#481,#482);
#349=PRE_DEFINED_MARKER('');
#350=COLOUR_RGB('',0.498039215803146,0.498039215803146,0.498039215803146);
#351=DRAUGHTING_PRE_DEFINED_CURVE_FONT('continuous');
#352=COLOUR_RGB('',0.498039215803146,0.498039215803146,0.498039215803146);
#353=CARTESIAN_POINT('',(-5.55149811729089E-016,4.53329194313172,-0.386999999999993));
#354=VECTOR('',#483,1.0);
#355=DRAUGHTING_PRE_DEFINED_CURVE_FONT('continuous');
#356=COLOUR_RGB('',0.498039215803146,0.498039215803146,0.498039215803146);
#357=AXIS2_PLACEMENT_3D('',#484,#485,#486);
#358=DRAUGHTING_PRE_DEFINED_CURVE_FONT('continuous');
#359=COLOUR_RGB('',0.800000011920929,0.800000011920929,0.800000011920929);
#360=CARTESIAN_POINT('',(-3.39883370471632E-016,2.77545,-42.895));
#361=VECTOR('',#487,1.0);
#362=SURFACE_SIDE_STYLE('',(#488));
#363=EDGE_LOOP('',(#489,#490));
#364=EDGE_LOOP('',(#491,#492));
#365=AXIS2_PLACEMENT_3D('',#493,#494,#495);
#366=DRAUGHTING_PRE_DEFINED_CURVE_FONT('continuous');
#367=COLOUR_RGB('',0.498039215803146,0.498039215803146,0.498039215803146);
#368=CARTESIAN_POINT('',(-5.83218776007907E-016,4.7625,-16.281));
#369=VECTOR('',#496,1.0);
#370=SURFACE_SIDE_STYLE('',(#497));
#371=EDGE_LOOP('',(#498,#499,#500,#501));
#372=AXIS2_PLACEMENT_3D('',#502,#503,#504);
#373=SURFACE_SIDE_STYLE('',(#505));
#374=EDGE_LOOP('',(#506,#507,#508));
#375=AXIS2_PLACEMENT_3D('',#509,#510,#511);
#376=SURFACE_SIDE_STYLE('',(#512));
#377=PRE_DEFINED_MARKER('');
#378=COLOUR_RGB('',0.800000011920929,0.800000011920929,0.800000011920929);
#379=PRE_DEFINED_MARKER('');
#380=COLOUR_RGB('',0.800000011920929,0.800000011920929,0.800000011920929);
#381=SURFACE_SIDE_STYLE('',(#513));
#382=EDGE_LOOP('',(#514,#515,#516,#517));
#383=AXIS2_PLACEMENT_3D('',#518,#519,#520);
#384=SURFACE_SIDE_STYLE('',(#521));
#385=EDGE_LOOP('',(#522,#523,#524,#525));
#386=AXIS2_PLACEMENT_3D('',#526,#527,#528);
#387=PRE_DEFINED_MARKER('');
#388=COLOUR_RGB('',0.800000011920929,0.800000011920929,0.800000011920929);
#389=DRAUGHTING_PRE_DEFINED_CURVE_FONT('continuous');
#390=COLOUR_RGB('',0.800000011920929,0.800000011920929,0.800000011920929);
#391=AXIS2_PLACEMENT_3D('',#529,#530,#531);
#392=PRE_DEFINED_MARKER('');
#393=COLOUR_RGB('',0.800000011920929,0.800000011920929,0.800000011920929);
#394=DRAUGHTING_PRE_DEFINED_CURVE_FONT('continuous');
#395=COLOUR_RGB('',0.800000011920929,0.800000011920929,0.800000011920929);
#396=AXIS2_PLACEMENT_3D('',#532,#533,#534);
#397=SURFACE_SIDE_STYLE('',(#535));
#398=EDGE_LOOP('',(#536,#537));
#399=AXIS2_PLACEMENT_3D('',#538,#539,#540);
#400=DRAUGHTING_PRE_DEFINED_CURVE_FONT('continuous');
#401=COLOUR_RGB('',0.498039215803146,0.498039215803146,0.498039215803146);
#402=AXIS2_PLACEMENT_3D('',#541,#542,#543);
#403=DRAUGHTING_PRE_DEFINED_CURVE_FONT('continuous');
#404=COLOUR_RGB('',0.800000011920929,0.800000011920929,0.800000011920929);
#405=CARTESIAN_POINT('',(-6.80385167151944E-016,5.55595,-55.59));
#406=VECTOR('',#544,1.0);
#407=SURFACE_SIDE_STYLE('',(#545));
#408=EDGE_LOOP('',(#546,#547,#548,#549));
#409=AXIS2_PLACEMENT_3D('',#550,#551,#552);
#410=SURFACE_SIDE_STYLE('',(#553));
#411=EDGE_LOOP('',(#554,#555));
#412=AXIS2_PLACEMENT_3D('',#556,#557,#558);
#413=DRAUGHTING_PRE_DEFINED_CURVE_FONT('continuous');
#414=COLOUR_RGB('',0.498039215803146,0.498039215803146,0.498039215803146);
#415=CARTESIAN_POINT('',(5.83218776007907E-016,-4.7625,-16.281));
#416=VECTOR('',#559,1.0);
#417=DRAUGHTING_PRE_DEFINED_CURVE_FONT('continuous');
#418=COLOUR_RGB('',0.800000011920929,0.800000011920929,0.800000011920929);
#419=AXIS2_PLACEMENT_3D('',#560,#561,#562);
#420=PRE_DEFINED_MARKER('');
#421=COLOUR_RGB('',0.498039215803146,0.498039215803146,0.498039215803146);
#422=DRAUGHTING_PRE_DEFINED_CURVE_FONT('continuous');
#423=COLOUR_RGB('',0.800000011920929,0.800000011920929,0.800000011920929);
#424=AXIS2_PLACEMENT_3D('',#563,#564,#565);
#425=PRE_DEFINED_MARKER('');
#426=COLOUR_RGB('',0.498039215803146,0.498039215803146,0.498039215803146);
#427=DRAUGHTING_PRE_DEFINED_CURVE_FONT('continuous');
#428=COLOUR_RGB('',0.800000011920929,0.800000011920929,0.800000011920929);
#429=CARTESIAN_POINT('',(6.80385167151944E-016,-5.55595,-55.59));
#430=VECTOR('',#566,1.0);
#431=DRAUGHTING_PRE_DEFINED_CURVE_FONT('continuous');
#432=COLOUR_RGB('',0.498039215803146,0.498039215803146,0.498039215803146);
#433=AXIS2_PLACEMENT_3D('',#567,#568,#569);
#434=PRE_DEFINED_MARKER('');
#435=COLOUR_RGB('',0.800000011920929,0.800000011920929,0.800000011920929);
#436=PRE_DEFINED_MARKER('');
#437=COLOUR_RGB('',0.800000011920929,0.800000011920929,0.800000011920929);
#438=SURFACE_SIDE_STYLE('',(#570));
#439=EDGE_LOOP('',(#571,#572,#573,#574));
#440=AXIS2_PLACEMENT_3D('',#575,#576,#577);
#441=PRE_DEFINED_MARKER('');
#442=COLOUR_RGB('',0.498039215803146,0.498039215803146,0.498039215803146);
#444=SURFACE_STYLE_FILL_AREA(#578);
#445=CARTESIAN_POINT('',(0.0,0.0,-68.29));
#446=DIRECTION('',(0.0,0.0,-1.0));
#447=DIRECTION('',(0.0,1.0,0.0));
#448=SURFACE_STYLE_FILL_AREA(#579);
#449=ORIENTED_EDGE('',*,*,#96,.F.);
#450=ORIENTED_EDGE('',*,*,#114,.F.);
#451=ORIENTED_EDGE('',*,*,#140,.F.);
#452=CARTESIAN_POINT('',(0.0,0.0,-42.895));
#453=DIRECTION('',(-0.0,-0.0,1.0));
#454=DIRECTION('',(0.0,1.0,0.0));
#455=SURFACE_STYLE_FILL_AREA(#580);
#456=ORIENTED_EDGE('',*,*,#110,.T.);
#457=ORIENTED_EDGE('',*,*,#100,.F.);
#458=ORIENTED_EDGE('',*,*,#90,.T.);
#459=ORIENTED_EDGE('',*,*,#112,.T.);
#460=CARTESIAN_POINT('',(0.0,0.0,-0.386999999999993));
#461=DIRECTION('',(0.0,-0.0,-1.0));
#462=DIRECTION('',(0.0,1.0,0.0));
#463=DIRECTION('',(-6.12303176911189E-017,0.5,0.866025403784439));
#464=SURFACE_STYLE_FILL_AREA(#581);
#465=ORIENTED_EDGE('',*,*,#82,.T.);
#466=ORIENTED_EDGE('',*,*,#158,.T.);
#467=CARTESIAN_POINT('',(0.0,2.7755,-68.29));
#468=DIRECTION('',(0.0,0.0,-1.0));
#469=DIRECTION('',(0.0,1.0,0.0));
#470=DIRECTION('',(1.22460436663578E-016,-0.999998377285413,0.0018015067417638));
#471=CARTESIAN_POINT('',(0.0,0.0,-0.783999999999995));
#472=DIRECTION('',(0.0,0.0,-1.0));
#473=DIRECTION('',(0.0,1.0,0.0));
#474=CARTESIAN_POINT('',(0.0,0.0,-42.89));
#475=DIRECTION('',(0.0,0.0,-1.0));
#476=DIRECTION('',(0.0,-1.0,0.0));
#477=CARTESIAN_POINT('',(0.0,0.0,-42.89));
#478=DIRECTION('',(0.0,0.0,-1.0));
#479=DIRECTION('',(0.0,1.0,0.0));
#480=CARTESIAN_POINT('',(0.0,0.0,-0.783999999999995));
#481=DIRECTION('',(0.0,0.0,-1.0));
#482=DIRECTION('',(0.0,1.0,0.0));
#483=DIRECTION('',(-6.12303176911189E-017,0.5,-0.866025403784439));
#484=CARTESIAN_POINT('',(0.0,0.0,0.0100000000000051));
#485=DIRECTION('',(0.0,0.0,-1.0));
#486=DIRECTION('',(0.0,1.0,0.0));
#487=DIRECTION('',(1.22460436663578E-016,-0.999998377285413,-0.0018015067417638));
#488=SURFACE_STYLE_FILL_AREA(#582);
#489=ORIENTED_EDGE('',*,*,#104,.F.);
#490=ORIENTED_EDGE('',*,*,#136,.F.);
#491=ORIENTED_EDGE('',*,*,#154,.T.);
#492=ORIENTED_EDGE('',*,*,#140,.T.);
#493=CARTESIAN_POINT('',(0.0,5.5534,-42.89));
#494=DIRECTION('',(-0.0,0.0,1.0));
#495=DIRECTION('',(0.0,-1.0,0.0));
#496=DIRECTION('',(0.0,0.0,-1.0));
#497=SURFACE_STYLE_FILL_AREA(#583);
#498=ORIENTED_EDGE('',*,*,#146,.F.);
#499=ORIENTED_EDGE('',*,*,#104,.T.);
#500=ORIENTED_EDGE('',*,*,#162,.F.);
#501=ORIENTED_EDGE('',*,*,#82,.F.);
#502=CARTESIAN_POINT('',(0.0,0.0,-55.59));
#503=DIRECTION('',(0.0,-0.0,-1.0));
#504=DIRECTION('',(0.0,1.0,0.0));
#505=SURFACE_STYLE_FILL_AREA(#584);
#506=ORIENTED_EDGE('',*,*,#96,.T.);
#507=ORIENTED_EDGE('',*,*,#154,.F.);
#508=ORIENTED_EDGE('',*,*,#114,.T.);
#509=CARTESIAN_POINT('',(0.0,0.0,-42.895));
#510=DIRECTION('',(-0.0,-0.0,1.0));
#511=DIRECTION('',(0.0,1.0,0.0));
#512=SURFACE_STYLE_FILL_AREA(#585);
#513=SURFACE_STYLE_FILL_AREA(#586);
#514=ORIENTED_EDGE('',*,*,#118,.F.);
#515=ORIENTED_EDGE('',*,*,#106,.T.);
#516=ORIENTED_EDGE('',*,*,#152,.F.);
#517=ORIENTED_EDGE('',*,*,#102,.F.);
#518=CARTESIAN_POINT('',(0.0,0.0,-16.281));
#519=DIRECTION('',(-0.0,-0.0,1.0));
#520=DIRECTION('',(0.0,1.0,0.0));
#521=SURFACE_STYLE_FILL_AREA(#587);
#522=ORIENTED_EDGE('',*,*,#146,.T.);
#523=ORIENTED_EDGE('',*,*,#158,.F.);
#524=ORIENTED_EDGE('',*,*,#162,.T.);
#525=ORIENTED_EDGE('',*,*,#136,.T.);
#526=CARTESIAN_POINT('',(0.0,0.0,-55.59));
#527=DIRECTION('',(0.0,-0.0,-1.0));
#528=DIRECTION('',(0.0,1.0,0.0));
#529=CARTESIAN_POINT('',(0.0,0.0,-42.89));
#530=DIRECTION('',(0.0,0.0,-1.0));
#531=DIRECTION('',(0.0,1.0,0.0));
#532=CARTESIAN_POINT('',(0.0,0.0,-42.89));
#533=DIRECTION('',(0.0,0.0,-1.0));
#534=DIRECTION('',(0.0,1.0,0.0));
#535=SURFACE_STYLE_FILL_AREA(#588);
#536=ORIENTED_EDGE('',*,*,#164,.T.);
#537=ORIENTED_EDGE('',*,*,#102,.T.);
#538=CARTESIAN_POINT('',(0.0,0.0,-42.89));
#539=DIRECTION('',(0.0,0.0,-1.0));
#540=DIRECTION('',(0.0,-1.0,0.0));
#541=CARTESIAN_POINT('',(0.0,0.0,0.0100000000000051));
#542=DIRECTION('',(0.0,0.0,-1.0));
#543=DIRECTION('',(0.0,1.0,0.0));
#544=DIRECTION('',(-4.82128485751981E-022,3.93700787397606E-006,-0.99999999999225));
#545=SURFACE_STYLE_FILL_AREA(#589);
#546=ORIENTED_EDGE('',*,*,#110,.F.);
#547=ORIENTED_EDGE('',*,*,#144,.T.);
#548=ORIENTED_EDGE('',*,*,#90,.F.);
#549=ORIENTED_EDGE('',*,*,#106,.F.);
#550=CARTESIAN_POINT('',(0.0,0.0,-0.386999999999993));
#551=DIRECTION('',(0.0,-0.0,-1.0));
#552=DIRECTION('',(0.0,1.0,0.0));
#553=SURFACE_STYLE_FILL_AREA(#590);
#554=ORIENTED_EDGE('',*,*,#144,.F.);
#555=ORIENTED_EDGE('',*,*,#112,.F.);
#556=CARTESIAN_POINT('',(0.0,2.15204194313172,0.0100000000000051));
#557=DIRECTION('',(-0.0,0.0,1.0));
#558=DIRECTION('',(0.0,-1.0,0.0));
#559=DIRECTION('',(-0.0,-0.0,1.0));
#560=CARTESIAN_POINT('',(0.0,0.0,-42.89));
#561=DIRECTION('',(0.0,0.0,-1.0));
#562=DIRECTION('',(0.0,1.0,0.0));
#563=CARTESIAN_POINT('',(0.0,0.0,-68.29));
#564=DIRECTION('',(0.0,0.0,-1.0));
#565=DIRECTION('',(0.0,1.0,0.0));
#566=DIRECTION('',(-4.82128485751982E-022,3.93700787397606E-006,0.99999999999225));
#567=CARTESIAN_POINT('',(0.0,0.0,-42.89));
#568=DIRECTION('',(0.0,0.0,-1.0));
#569=DIRECTION('',(0.0,-1.0,0.0));
#570=SURFACE_STYLE_FILL_AREA(#591);
#571=ORIENTED_EDGE('',*,*,#118,.T.);
#572=ORIENTED_EDGE('',*,*,#164,.F.);
#573=ORIENTED_EDGE('',*,*,#152,.T.);
#574=ORIENTED_EDGE('',*,*,#100,.T.);
#575=CARTESIAN_POINT('',(0.0,0.0,-16.281));
#576=DIRECTION('',(-0.0,-0.0,1.0));
#577=DIRECTION('',(0.0,1.0,0.0));
#578=FILL_AREA_STYLE('',(#592));
#579=FILL_AREA_STYLE('',(#593));
#580=FILL_AREA_STYLE('',(#594));
#581=FILL_AREA_STYLE('',(#595));
#582=FILL_AREA_STYLE('',(#596));
#583=FILL_AREA_STYLE('',(#597));
#584=FILL_AREA_STYLE('',(#598));
#585=FILL_AREA_STYLE('',(#599));
#586=FILL_AREA_STYLE('',(#600));
#587=FILL_AREA_STYLE('',(#601));
#588=FILL_AREA_STYLE('',(#602));
#589=FILL_AREA_STYLE('',(#603));
#590=FILL_AREA_STYLE('',(#604));
#591=FILL_AREA_STYLE('',(#605));
#592=FILL_AREA_STYLE_COLOUR('',#606);
#593=FILL_AREA_STYLE_COLOUR('',#607);
#594=FILL_AREA_STYLE_COLOUR('',#608);
#595=FILL_AREA_STYLE_COLOUR('',#609);
#596=FILL_AREA_STYLE_COLOUR('',#610);
#597=FILL_AREA_STYLE_COLOUR('',#611);
#598=FILL_AREA_STYLE_COLOUR('',#612);
#599=FILL_AREA_STYLE_COLOUR('',#613);
#600=FILL_AREA_STYLE_COLOUR('',#614);
#601=FILL_AREA_STYLE_COLOUR('',#615);
#602=FILL_AREA_STYLE_COLOUR('',#616);
#603=FILL_AREA_STYLE_COLOUR('',#617);
#604=FILL_AREA_STYLE_COLOUR('',#618);
#605=FILL_AREA_STYLE_COLOUR('',#619);
#606=COLOUR_RGB('',0.800000011920929,0.800000011920929,0.800000011920929);
#607=COLOUR_RGB('',0.800000011920929,0.800000011920929,0.800000011920929);
#608=COLOUR_RGB('',0.498039215803146,0.498039215803146,0.498039215803146);
#609=COLOUR_RGB('',0.800000011920929,0.800000011920929,0.800000011920929);
#610=COLOUR_RGB('',0.800000011920929,0.800000011920929,0.800000011920929);
#611=COLOUR_RGB('',0.800000011920929,0.800000011920929,0.800000011920929);
#612=COLOUR_RGB('',0.800000011920929,0.800000011920929,0.800000011920929);
#613=COLOUR_RGB('',0.800000011920929,0.800000011920929,0.800000011920929);
#614=COLOUR_RGB('',0.498039215803146,0.498039215803146,0.498039215803146);
#615=COLOUR_RGB('',0.800000011920929,0.800000011920929,0.800000011920929);
#616=COLOUR_RGB('',0.498039215803146,0.498039215803146,0.498039215803146);
#617=COLOUR_RGB('',0.498039215803146,0.498039215803146,0.498039215803146);
#618=COLOUR_RGB('',0.498039215803146,0.498039215803146,0.498039215803146);
#619=COLOUR_RGB('',0.498039215803146,0.498039215803146,0.498039215803146);
#620=AXIS2_PLACEMENT_3D('PCS',#621,#622,#623);
#621=CARTESIAN_POINT('',(0.0,0.0,0.0));
#622=DIRECTION('',(0.0,0.0,1.0));
#623=DIRECTION('',(1.0,0.0,0.0));
#624=AXIS2_PLACEMENT_3D('CIP',#625,#626,#627);
#625=CARTESIAN_POINT('',(0.0,0.0,-68.3));
#626=DIRECTION('',(0.0,0.0,1.0));
#627=DIRECTION('',(1.0,0.0,0.0));
#628=AXIS2_PLACEMENT_3D('CRP',#629,#630,#631);
#629=CARTESIAN_POINT('',(-5.556,0.0,-68.3));
#630=DIRECTION('',(0.0,0.0,1.0));
#631=DIRECTION('',(1.0,0.0,0.0));
#632=AXIS2_PLACEMENT_3D('MCS',#633,#634,#635);
#633=CARTESIAN_POINT('',(0.0,0.0,-31.788));
#634=DIRECTION('',(0.0,0.0,1.0));
#635=DIRECTION('',(1.0,0.0,0.0));
#636=CONSTRUCTIVE_GEOMETRY_REPRESENTATION_RELATIONSHIP('coordinate systems',$,#65,#637);
#637=CONSTRUCTIVE_GEOMETRY_REPRESENTATION('coordinate systems',(#620,#624,#628,#632),#10);
ENDSEC;
END-ISO-10303-21;
