ISO-10303-21;
HEADER;
FILE_DESCRIPTION(('no description'),'unknown implementation level');
FILE_NAME('solidsHMj786qmcG91oqeKJSO7bPfpUg_1.STP','  ',('CIMSOURCE GmbH'),('CADClick - KiM GmbH - www.kimweb.de'),'unknown preprocess','ACIS','unknown authorization');
FILE_SCHEMA(('automotive_design'));
ENDSEC;
DATA;
#1=MECHANICAL_DESIGN_GEOMETRIC_PRESENTATION_REPRESENTATION(' ',(#14,#15,#16,#17,#18,#19,#20,#21,#22,#23,#24,#25,#26,#27,#28,#29,#30,#31,#32,#33,#34,#35,#36,#37,#38,#39,#40,#41,#42,#43,#44,#45,#46,#47,#48,#49,#50,#51,#52,#53),#10);
#2=PRODUCT_DEFINITION_CONTEXT('',#54,'design');
#3=APPLICATION_PROTOCOL_DEFINITION('INTERNATIONAL STANDARD','automotive_design',1994,#54);
#4=PRODUCT_CATEGORY_RELATIONSHIP('NONE','NONE',#55,#56);
#5=SHAPE_DEFINITION_REPRESENTATION(#57,#58);
#6=PRODUCT_DEFINITION_CONTEXT('',#59,'design');
#7=APPLICATION_PROTOCOL_DEFINITION('INTERNATIONAL STANDARD','automotive_design',1994,#59);
#8=PRODUCT_CATEGORY_RELATIONSHIP('NONE','NONE',#60,#61);
#9=SHAPE_DEFINITION_REPRESENTATION(#62,#63);
#10= (GEOMETRIC_REPRESENTATION_CONTEXT(3)GLOBAL_UNCERTAINTY_ASSIGNED_CONTEXT((#66))GLOBAL_UNIT_ASSIGNED_CONTEXT((#68,#69,#70))REPRESENTATION_CONTEXT('NONE','WORKSPACE'));
#14=STYLED_ITEM('',(#72),#73);
#15=STYLED_ITEM('',(#74),#75);
#16=STYLED_ITEM('',(#76),#77);
#17=STYLED_ITEM('',(#78),#79);
#18=STYLED_ITEM('',(#80),#81);
#19=STYLED_ITEM('',(#82),#83);
#20=STYLED_ITEM('',(#84),#85);
#21=STYLED_ITEM('',(#86),#87);
#22=STYLED_ITEM('',(#88),#89);
#23=STYLED_ITEM('',(#90),#91);
#24=STYLED_ITEM('',(#92),#93);
#25=STYLED_ITEM('',(#94),#95);
#26=STYLED_ITEM('',(#96),#97);
#27=STYLED_ITEM('',(#98),#99);
#28=STYLED_ITEM('',(#100),#101);
#29=STYLED_ITEM('',(#102),#103);
#30=STYLED_ITEM('',(#104),#105);
#31=STYLED_ITEM('',(#106),#107);
#32=STYLED_ITEM('',(#108),#109);
#33=STYLED_ITEM('',(#110),#111);
#34=STYLED_ITEM('',(#112),#113);
#35=STYLED_ITEM('',(#114),#115);
#36=STYLED_ITEM('',(#116),#117);
#37=STYLED_ITEM('',(#118),#119);
#38=STYLED_ITEM('',(#120),#121);
#39=STYLED_ITEM('',(#122),#123);
#40=STYLED_ITEM('',(#124),#125);
#41=STYLED_ITEM('',(#126),#127);
#42=STYLED_ITEM('',(#128),#129);
#43=STYLED_ITEM('',(#130),#131);
#44=STYLED_ITEM('',(#132),#133);
#45=STYLED_ITEM('',(#134),#135);
#46=STYLED_ITEM('',(#136),#137);
#47=STYLED_ITEM('',(#138),#139);
#48=STYLED_ITEM('',(#140),#141);
#49=STYLED_ITEM('',(#142),#143);
#50=STYLED_ITEM('',(#144),#145);
#51=STYLED_ITEM('',(#146),#147);
#52=STYLED_ITEM('',(#148),#149);
#53=STYLED_ITEM('',(#150),#151);
#54=APPLICATION_CONTEXT(' ');
#55=PRODUCT_CATEGORY('part','NONE');
#56=PRODUCT_RELATED_PRODUCT_CATEGORY('detail',' ',(#152));
#57=PRODUCT_DEFINITION_SHAPE('NONE','NONE',#153);
#58=ADVANCED_BREP_SHAPE_REPRESENTATION('1',(#139,#154),#10);
#59=APPLICATION_CONTEXT(' ');
#60=PRODUCT_CATEGORY('part','NONE');
#61=PRODUCT_RELATED_PRODUCT_CATEGORY('detail',' ',(#155));
#62=PRODUCT_DEFINITION_SHAPE('NONE','NONE',#156);
#63=ADVANCED_BREP_SHAPE_REPRESENTATION('2',(#125,#157),#10);
#66=UNCERTAINTY_MEASURE_WITH_UNIT(LENGTH_MEASURE(1.0E-006),#68,'','');
#68= (CONVERSION_BASED_UNIT('MILLIMETRE',#160)LENGTH_UNIT()NAMED_UNIT(#163));
#69= (NAMED_UNIT(#165)PLANE_ANGLE_UNIT()SI_UNIT($,.RADIAN.));
#70= (NAMED_UNIT(#165)SOLID_ANGLE_UNIT()SI_UNIT($,.STERADIAN.));
#72=PRESENTATION_STYLE_ASSIGNMENT((#171));
#73=ADVANCED_FACE('',(#172),#173,.T.);
#74=PRESENTATION_STYLE_ASSIGNMENT((#174));
#75=EDGE_CURVE('',#137,#129,#175,.T.);
#76=PRESENTATION_STYLE_ASSIGNMENT((#176));
#77=EDGE_CURVE('',#85,#151,#177,.T.);
#78=PRESENTATION_STYLE_ASSIGNMENT((#178));
#79=EDGE_CURVE('',#129,#137,#179,.T.);
#80=PRESENTATION_STYLE_ASSIGNMENT((#180));
#81=EDGE_CURVE('',#101,#109,#181,.T.);
#82=PRESENTATION_STYLE_ASSIGNMENT((#182));
#83=EDGE_CURVE('',#119,#151,#183,.T.);
#84=PRESENTATION_STYLE_ASSIGNMENT((#184));
#85=VERTEX_POINT('',#185);
#86=PRESENTATION_STYLE_ASSIGNMENT((#186));
#87=ADVANCED_FACE('',(#187),#188,.T.);
#88=PRESENTATION_STYLE_ASSIGNMENT((#189));
#89=ADVANCED_FACE('',(#190),#191,.T.);
#90=PRESENTATION_STYLE_ASSIGNMENT((#192));
#91=ADVANCED_FACE('',(#193),#194,.T.);
#92=PRESENTATION_STYLE_ASSIGNMENT((#195));
#93=EDGE_CURVE('',#105,#121,#196,.T.);
#94=PRESENTATION_STYLE_ASSIGNMENT((#197));
#95=EDGE_CURVE('',#151,#85,#198,.T.);
#96=PRESENTATION_STYLE_ASSIGNMENT((#199));
#97=EDGE_CURVE('',#109,#105,#200,.T.);
#98=PRESENTATION_STYLE_ASSIGNMENT((#201));
#99=EDGE_CURVE('',#121,#101,#202,.T.);
#100=PRESENTATION_STYLE_ASSIGNMENT((#203));
#101=VERTEX_POINT('',#204);
#102=PRESENTATION_STYLE_ASSIGNMENT((#205));
#103=ADVANCED_FACE('',(#206),#207,.T.);
#104=PRESENTATION_STYLE_ASSIGNMENT((#208));
#105=VERTEX_POINT('',#209);
#106=PRESENTATION_STYLE_ASSIGNMENT((#210));
#107=ADVANCED_FACE('',(#211),#212,.T.);
#108=PRESENTATION_STYLE_ASSIGNMENT((#213));
#109=VERTEX_POINT('',#214);
#110=PRESENTATION_STYLE_ASSIGNMENT((#215));
#111=ADVANCED_FACE('',(#216),#217,.T.);
#112=PRESENTATION_STYLE_ASSIGNMENT((#218));
#113=EDGE_CURVE('',#85,#151,#219,.T.);
#114=PRESENTATION_STYLE_ASSIGNMENT((#220));
#115=VERTEX_POINT('',#221);
#116=PRESENTATION_STYLE_ASSIGNMENT((#222));
#117=EDGE_CURVE('',#119,#115,#223,.T.);
#118=PRESENTATION_STYLE_ASSIGNMENT((#224));
#119=VERTEX_POINT('',#225);
#120=PRESENTATION_STYLE_ASSIGNMENT((#226));
#121=VERTEX_POINT('',#227);
#122=PRESENTATION_STYLE_ASSIGNMENT((#228));
#123=EDGE_CURVE('',#109,#101,#229,.T.);
#124=PRESENTATION_STYLE_ASSIGNMENT((#230));
#125=MANIFOLD_SOLID_BREP('2',#231);
#126=PRESENTATION_STYLE_ASSIGNMENT((#232));
#127=ADVANCED_FACE('',(#233),#234,.T.);
#128=PRESENTATION_STYLE_ASSIGNMENT((#235));
#129=VERTEX_POINT('',#236);
#130=PRESENTATION_STYLE_ASSIGNMENT((#237));
#131=EDGE_CURVE('',#85,#115,#238,.T.);
#132=PRESENTATION_STYLE_ASSIGNMENT((#239));
#133=ADVANCED_FACE('',(#240),#241,.T.);
#134=PRESENTATION_STYLE_ASSIGNMENT((#242));
#135=ADVANCED_FACE('',(#243),#244,.T.);
#136=PRESENTATION_STYLE_ASSIGNMENT((#245));
#137=VERTEX_POINT('',#246);
#138=PRESENTATION_STYLE_ASSIGNMENT((#247));
#139=MANIFOLD_SOLID_BREP('1',#248);
#140=PRESENTATION_STYLE_ASSIGNMENT((#249));
#141=EDGE_CURVE('',#105,#129,#250,.T.);
#142=PRESENTATION_STYLE_ASSIGNMENT((#251));
#143=ADVANCED_FACE('',(#252),#253,.T.);
#144=PRESENTATION_STYLE_ASSIGNMENT((#254));
#145=EDGE_CURVE('',#121,#105,#255,.T.);
#146=PRESENTATION_STYLE_ASSIGNMENT((#256));
#147=EDGE_CURVE('',#115,#119,#257,.T.);
#148=PRESENTATION_STYLE_ASSIGNMENT((#258));
#149=EDGE_CURVE('',#137,#121,#259,.T.);
#150=PRESENTATION_STYLE_ASSIGNMENT((#260));
#151=VERTEX_POINT('',#261);
#152=PRODUCT('1','1','PART-1-DESC',(#262));
#153=PRODUCT_DEFINITION('NONE','NONE',#263,#2);
#154=AXIS2_PLACEMENT_3D('',#264,#265,#266);
#155=PRODUCT('2','2','PART-2-DESC',(#267));
#156=PRODUCT_DEFINITION('NONE','NONE',#268,#6);
#157=AXIS2_PLACEMENT_3D('',#269,#270,#271);
#160=LENGTH_MEASURE_WITH_UNIT(LENGTH_MEASURE(1.0),#272);
#163=DIMENSIONAL_EXPONENTS(1.0,0.0,0.0,0.0,0.0,0.0,0.0);
#165=DIMENSIONAL_EXPONENTS(0.0,0.0,0.0,0.0,0.0,0.0,0.0);
#171=SURFACE_STYLE_USAGE(.BOTH.,#273);
#172=FACE_OUTER_BOUND('',#274,.T.);
#173=PLANE('',#275);
#174=CURVE_STYLE('',#276,POSITIVE_LENGTH_MEASURE(1.0E-006),#277);
#175=CIRCLE('',#278,15.875);
#176=CURVE_STYLE('',#279,POSITIVE_LENGTH_MEASURE(1.0E-006),#280);
#177=CIRCLE('',#281,15.875);
#178=CURVE_STYLE('',#282,POSITIVE_LENGTH_MEASURE(1.0E-006),#283);
#179=CIRCLE('',#284,15.875);
#180=CURVE_STYLE('',#285,POSITIVE_LENGTH_MEASURE(1.0E-006),#286);
#181=CIRCLE('',#287,14.9581677725269);
#182=CURVE_STYLE('',#288,POSITIVE_LENGTH_MEASURE(1.0E-006),#289);
#183=LINE('',#290,#291);
#184=POINT_STYLE(' ',#292,POSITIVE_LENGTH_MEASURE(1.0E-006),#293);
#185=CARTESIAN_POINT('',(1.94406258669302E-015,-15.875,-98.415));
#186=SURFACE_STYLE_USAGE(.BOTH.,#294);
#187=FACE_OUTER_BOUND('',#295,.T.);
#188=SPHERICAL_SURFACE('',#296,15.875);
#189=SURFACE_STYLE_USAGE(.BOTH.,#297);
#190=FACE_OUTER_BOUND('',#298,.T.);
#191=CONICAL_SURFACE('',#299,15.87495,2.863278453866E-006);
#192=SURFACE_STYLE_USAGE(.BOTH.,#300);
#193=FACE_OUTER_BOUND('',#301,.T.);
#194=CYLINDRICAL_SURFACE('',#302,15.875);
#195=CURVE_STYLE('',#303,POSITIVE_LENGTH_MEASURE(1.0E-006),#304);
#196=CIRCLE('',#305,15.875);
#197=CURVE_STYLE('',#306,POSITIVE_LENGTH_MEASURE(1.0E-006),#307);
#198=CIRCLE('',#308,15.875);
#199=CURVE_STYLE('',#309,POSITIVE_LENGTH_MEASURE(1.0E-006),#310);
#200=LINE('',#311,#312);
#201=CURVE_STYLE('',#313,POSITIVE_LENGTH_MEASURE(1.0E-006),#314);
#202=LINE('',#315,#316);
#203=POINT_STYLE(' ',#317,POSITIVE_LENGTH_MEASURE(1.0E-006),#318);
#204=CARTESIAN_POINT('',(1.83178672957775E-015,-14.9581677725269,0.00999999999999801));
#205=SURFACE_STYLE_USAGE(.BOTH.,#319);
#206=FACE_OUTER_BOUND('',#320,.T.);
#207=PLANE('',#321);
#208=POINT_STYLE(' ',#322,POSITIVE_LENGTH_MEASURE(1.0E-006),#323);
#209=CARTESIAN_POINT('',(0.0,15.875,-1.578));
#210=SURFACE_STYLE_USAGE(.BOTH.,#324);
#211=FACE_OUTER_BOUND('',#325,.T.);
#212=CONICAL_SURFACE('',#326,15.4165838862634,0.523598775598299);
#213=POINT_STYLE(' ',#327,POSITIVE_LENGTH_MEASURE(1.0E-006),#328);
#214=CARTESIAN_POINT('',(0.0,14.9581677725269,0.00999999999999801));
#215=SURFACE_STYLE_USAGE(.BOTH.,#329);
#216=FACE_OUTER_BOUND('',#330,.T.);
#217=CONICAL_SURFACE('',#331,15.87495,2.863278453866E-006);
#218=CURVE_STYLE('',#332,POSITIVE_LENGTH_MEASURE(1.0E-006),#333);
#219=CIRCLE('',#334,15.875);
#220=POINT_STYLE(' ',#335,POSITIVE_LENGTH_MEASURE(1.0E-006),#336);
#221=CARTESIAN_POINT('',(1.94405034062949E-015,-15.8749,-63.49));
#222=CURVE_STYLE('',#337,POSITIVE_LENGTH_MEASURE(1.0E-006),#338);
#223=CIRCLE('',#339,15.8749);
#224=POINT_STYLE(' ',#340,POSITIVE_LENGTH_MEASURE(1.0E-006),#341);
#225=CARTESIAN_POINT('',(0.0,15.8749,-63.49));
#226=POINT_STYLE(' ',#342,POSITIVE_LENGTH_MEASURE(1.0E-006),#343);
#227=CARTESIAN_POINT('',(1.94406258669302E-015,-15.875,-1.578));
#228=CURVE_STYLE('',#344,POSITIVE_LENGTH_MEASURE(1.0E-006),#345);
#229=CIRCLE('',#346,14.9581677725269);
#230=SURFACE_STYLE_USAGE(.BOTH.,#347);
#231=CLOSED_SHELL('',(#87,#89,#103,#111,#143));
#232=SURFACE_STYLE_USAGE(.BOTH.,#348);
#233=FACE_OUTER_BOUND('',#349,.T.);
#234=CONICAL_SURFACE('',#350,15.4165838862634,0.523598775598299);
#235=POINT_STYLE(' ',#351,POSITIVE_LENGTH_MEASURE(1.0E-006),#352);
#236=CARTESIAN_POINT('',(0.0,15.875,-63.49));
#237=CURVE_STYLE('',#353,POSITIVE_LENGTH_MEASURE(1.0E-006),#354);
#238=LINE('',#355,#356);
#239=SURFACE_STYLE_USAGE(.BOTH.,#357);
#240=FACE_OUTER_BOUND('',#358,.T.);
#241=CYLINDRICAL_SURFACE('',#359,15.875);
#242=SURFACE_STYLE_USAGE(.BOTH.,#360);
#243=FACE_OUTER_BOUND('',#361,.T.);
#244=PLANE('',#362);
#245=POINT_STYLE(' ',#363,POSITIVE_LENGTH_MEASURE(1.0E-006),#364);
#246=CARTESIAN_POINT('',(1.94406258669302E-015,-15.875,-63.49));
#247=SURFACE_STYLE_USAGE(.BOTH.,#365);
#248=CLOSED_SHELL('',(#133,#127,#73,#135,#107,#91));
#249=CURVE_STYLE('',#366,POSITIVE_LENGTH_MEASURE(1.0E-006),#367);
#250=LINE('',#368,#369);
#251=SURFACE_STYLE_USAGE(.BOTH.,#370);
#252=FACE_OUTER_BOUND('',#371,.T.);
#253=SPHERICAL_SURFACE('',#372,15.875);
#254=CURVE_STYLE('',#373,POSITIVE_LENGTH_MEASURE(1.0E-006),#374);
#255=CIRCLE('',#375,15.875);
#256=CURVE_STYLE('',#376,POSITIVE_LENGTH_MEASURE(1.0E-006),#377);
#257=CIRCLE('',#378,15.8749);
#258=CURVE_STYLE('',#379,POSITIVE_LENGTH_MEASURE(1.0E-006),#380);
#259=LINE('',#381,#382);
#260=POINT_STYLE(' ',#383,POSITIVE_LENGTH_MEASURE(1.0E-006),#384);
#261=CARTESIAN_POINT('',(0.0,15.875,-98.415));
#262=PRODUCT_CONTEXT('',#54,'mechanical');
#263=PRODUCT_DEFINITION_FORMATION_WITH_SPECIFIED_SOURCE(' ','NONE',#152,.NOT_KNOWN.);
#264=CARTESIAN_POINT('',(0.0,0.0,0.0));
#265=DIRECTION('',(0.0,0.0,1.0));
#266=DIRECTION('',(1.0,0.0,0.0));
#267=PRODUCT_CONTEXT('',#59,'mechanical');
#268=PRODUCT_DEFINITION_FORMATION_WITH_SPECIFIED_SOURCE(' ','NONE',#155,.NOT_KNOWN.);
#269=CARTESIAN_POINT('',(0.0,0.0,0.0));
#270=DIRECTION('',(0.0,0.0,1.0));
#271=DIRECTION('',(1.0,0.0,0.0));
#272= (NAMED_UNIT(#163)LENGTH_UNIT()SI_UNIT(.MILLI.,.METRE.));
#273=SURFACE_SIDE_STYLE('',(#386));
#274=EDGE_LOOP('',(#387,#388));
#275=AXIS2_PLACEMENT_3D('',#389,#390,#391);
#276=DRAUGHTING_PRE_DEFINED_CURVE_FONT('continuous');
#277=COLOUR_RGB('',0.498039215803146,0.498039215803146,0.498039215803146);
#278=AXIS2_PLACEMENT_3D('',#392,#393,#394);
#279=DRAUGHTING_PRE_DEFINED_CURVE_FONT('continuous');
#280=COLOUR_RGB('',0.800000011920929,0.800000011920929,0.800000011920929);
#281=AXIS2_PLACEMENT_3D('',#395,#396,#397);
#282=DRAUGHTING_PRE_DEFINED_CURVE_FONT('continuous');
#283=COLOUR_RGB('',0.498039215803146,0.498039215803146,0.498039215803146);
#284=AXIS2_PLACEMENT_3D('',#398,#399,#400);
#285=DRAUGHTING_PRE_DEFINED_CURVE_FONT('continuous');
#286=COLOUR_RGB('',0.498039215803146,0.498039215803146,0.498039215803146);
#287=AXIS2_PLACEMENT_3D('',#401,#402,#403);
#288=DRAUGHTING_PRE_DEFINED_CURVE_FONT('continuous');
#289=COLOUR_RGB('',0.800000011920929,0.800000011920929,0.800000011920929);
#290=CARTESIAN_POINT('',(-1.94405646366126E-015,15.87495,-80.9525));
#291=VECTOR('',#404,1.0);
#292=PRE_DEFINED_MARKER('');
#293=COLOUR_RGB('',0.800000011920929,0.800000011920929,0.800000011920929);
#294=SURFACE_SIDE_STYLE('',(#405));
#295=EDGE_LOOP('',(#406,#407));
#296=AXIS2_PLACEMENT_3D('',#408,#409,#410);
#297=SURFACE_SIDE_STYLE('',(#411));
#298=EDGE_LOOP('',(#412,#413,#414,#415));
#299=AXIS2_PLACEMENT_3D('',#416,#417,#418);
#300=SURFACE_SIDE_STYLE('',(#419));
#301=EDGE_LOOP('',(#420,#421,#422,#423));
#302=AXIS2_PLACEMENT_3D('',#424,#425,#426);
#303=DRAUGHTING_PRE_DEFINED_CURVE_FONT('continuous');
#304=COLOUR_RGB('',0.498039215803146,0.498039215803146,0.498039215803146);
#305=AXIS2_PLACEMENT_3D('',#427,#428,#429);
#306=DRAUGHTING_PRE_DEFINED_CURVE_FONT('continuous');
#307=COLOUR_RGB('',0.800000011920929,0.800000011920929,0.800000011920929);
#308=AXIS2_PLACEMENT_3D('',#430,#431,#432);
#309=DRAUGHTING_PRE_DEFINED_CURVE_FONT('continuous');
#310=COLOUR_RGB('',0.498039215803146,0.498039215803146,0.498039215803146);
#311=CARTESIAN_POINT('',(-1.88792465813539E-015,15.4165838862634,-0.783999999999999));
#312=VECTOR('',#433,1.0);
#313=DRAUGHTING_PRE_DEFINED_CURVE_FONT('continuous');
#314=COLOUR_RGB('',0.498039215803146,0.498039215803146,0.498039215803146);
#315=CARTESIAN_POINT('',(1.88792465813539E-015,-15.4165838862634,-0.783999999999999));
#316=VECTOR('',#434,1.0);
#317=PRE_DEFINED_MARKER('');
#318=COLOUR_RGB('',0.498039215803146,0.498039215803146,0.498039215803146);
#319=SURFACE_SIDE_STYLE('',(#435));
#320=EDGE_LOOP('',(#436,#437));
#321=AXIS2_PLACEMENT_3D('',#438,#439,#440);
#322=PRE_DEFINED_MARKER('');
#323=COLOUR_RGB('',0.498039215803146,0.498039215803146,0.498039215803146);
#324=SURFACE_SIDE_STYLE('',(#441));
#325=EDGE_LOOP('',(#442,#443,#444,#445));
#326=AXIS2_PLACEMENT_3D('',#446,#447,#448);
#327=PRE_DEFINED_MARKER('');
#328=COLOUR_RGB('',0.498039215803146,0.498039215803146,0.498039215803146);
#329=SURFACE_SIDE_STYLE('',(#449));
#330=EDGE_LOOP('',(#450,#451,#452,#453));
#331=AXIS2_PLACEMENT_3D('',#454,#455,#456);
#332=DRAUGHTING_PRE_DEFINED_CURVE_FONT('continuous');
#333=COLOUR_RGB('',0.800000011920929,0.800000011920929,0.800000011920929);
#334=AXIS2_PLACEMENT_3D('',#457,#458,#459);
#335=PRE_DEFINED_MARKER('');
#336=COLOUR_RGB('',0.800000011920929,0.800000011920929,0.800000011920929);
#337=DRAUGHTING_PRE_DEFINED_CURVE_FONT('continuous');
#338=COLOUR_RGB('',0.800000011920929,0.800000011920929,0.800000011920929);
#339=AXIS2_PLACEMENT_3D('',#460,#461,#462);
#340=PRE_DEFINED_MARKER('');
#341=COLOUR_RGB('',0.800000011920929,0.800000011920929,0.800000011920929);
#342=PRE_DEFINED_MARKER('');
#343=COLOUR_RGB('',0.498039215803146,0.498039215803146,0.498039215803146);
#344=DRAUGHTING_PRE_DEFINED_CURVE_FONT('continuous');
#345=COLOUR_RGB('',0.498039215803146,0.498039215803146,0.498039215803146);
#346=AXIS2_PLACEMENT_3D('',#463,#464,#465);
#347=SURFACE_SIDE_STYLE('',(#466));
#348=SURFACE_SIDE_STYLE('',(#467));
#349=EDGE_LOOP('',(#468,#469,#470,#471));
#350=AXIS2_PLACEMENT_3D('',#472,#473,#474);
#351=PRE_DEFINED_MARKER('');
#352=COLOUR_RGB('',0.498039215803146,0.498039215803146,0.498039215803146);
#353=DRAUGHTING_PRE_DEFINED_CURVE_FONT('continuous');
#354=COLOUR_RGB('',0.800000011920929,0.800000011920929,0.800000011920929);
#355=CARTESIAN_POINT('',(1.94405646366126E-015,-15.87495,-80.9525));
#356=VECTOR('',#475,1.0);
#357=SURFACE_SIDE_STYLE('',(#476));
#358=EDGE_LOOP('',(#477,#478,#479,#480));
#359=AXIS2_PLACEMENT_3D('',#481,#482,#483);
#360=SURFACE_SIDE_STYLE('',(#484));
#361=EDGE_LOOP('',(#485,#486));
#362=AXIS2_PLACEMENT_3D('',#487,#488,#489);
#363=PRE_DEFINED_MARKER('');
#364=COLOUR_RGB('',0.498039215803146,0.498039215803146,0.498039215803146);
#365=SURFACE_SIDE_STYLE('',(#490));
#366=DRAUGHTING_PRE_DEFINED_CURVE_FONT('continuous');
#367=COLOUR_RGB('',0.498039215803146,0.498039215803146,0.498039215803146);
#368=CARTESIAN_POINT('',(-1.94406258669302E-015,15.875,-32.534));
#369=VECTOR('',#491,1.0);
#370=SURFACE_SIDE_STYLE('',(#492));
#371=EDGE_LOOP('',(#493,#494));
#372=AXIS2_PLACEMENT_3D('',#495,#496,#497);
#373=DRAUGHTING_PRE_DEFINED_CURVE_FONT('continuous');
#374=COLOUR_RGB('',0.498039215803146,0.498039215803146,0.498039215803146);
#375=AXIS2_PLACEMENT_3D('',#498,#499,#500);
#376=DRAUGHTING_PRE_DEFINED_CURVE_FONT('continuous');
#377=COLOUR_RGB('',0.800000011920929,0.800000011920929,0.800000011920929);
#378=AXIS2_PLACEMENT_3D('',#501,#502,#503);
#379=DRAUGHTING_PRE_DEFINED_CURVE_FONT('continuous');
#380=COLOUR_RGB('',0.498039215803146,0.498039215803146,0.498039215803146);
#381=CARTESIAN_POINT('',(1.94406258669302E-015,-15.875,-32.534));
#382=VECTOR('',#504,1.0);
#383=PRE_DEFINED_MARKER('');
#384=COLOUR_RGB('',0.800000011920929,0.800000011920929,0.800000011920929);
#386=SURFACE_STYLE_FILL_AREA(#505);
#387=ORIENTED_EDGE('',*,*,#79,.T.);
#388=ORIENTED_EDGE('',*,*,#75,.T.);
#389=CARTESIAN_POINT('',(0.0,7.9375,-63.49));
#390=DIRECTION('',(0.0,0.0,-1.0));
#391=DIRECTION('',(0.0,1.0,0.0));
#392=CARTESIAN_POINT('',(0.0,0.0,-63.49));
#393=DIRECTION('',(0.0,0.0,-1.0));
#394=DIRECTION('',(0.0,1.0,0.0));
#395=CARTESIAN_POINT('',(0.0,0.0,-98.415));
#396=DIRECTION('',(0.0,0.0,-1.0));
#397=DIRECTION('',(0.0,1.0,0.0));
#398=CARTESIAN_POINT('',(0.0,0.0,-63.49));
#399=DIRECTION('',(0.0,0.0,-1.0));
#400=DIRECTION('',(0.0,1.0,0.0));
#401=CARTESIAN_POINT('',(0.0,0.0,0.00999999999999801));
#402=DIRECTION('',(0.0,0.0,-1.0));
#403=DIRECTION('',(0.0,1.0,0.0));
#404=DIRECTION('',(-3.50638898736223E-022,2.86327845386209E-006,-0.999999999995901));
#405=SURFACE_STYLE_FILL_AREA(#506);
#406=ORIENTED_EDGE('',*,*,#113,.F.);
#407=ORIENTED_EDGE('',*,*,#77,.T.);
#408=CARTESIAN_POINT('',(0.0,0.0,-98.415));
#409=DIRECTION('',(0.0,1.0,0.0));
#410=DIRECTION('',(0.0,0.0,-1.0));
#411=SURFACE_STYLE_FILL_AREA(#507);
#412=ORIENTED_EDGE('',*,*,#83,.F.);
#413=ORIENTED_EDGE('',*,*,#117,.T.);
#414=ORIENTED_EDGE('',*,*,#131,.F.);
#415=ORIENTED_EDGE('',*,*,#95,.F.);
#416=CARTESIAN_POINT('',(0.0,0.0,-80.9525));
#417=DIRECTION('',(0.0,-0.0,-1.0));
#418=DIRECTION('',(0.0,1.0,0.0));
#419=SURFACE_STYLE_FILL_AREA(#508);
#420=ORIENTED_EDGE('',*,*,#141,.T.);
#421=ORIENTED_EDGE('',*,*,#75,.F.);
#422=ORIENTED_EDGE('',*,*,#149,.T.);
#423=ORIENTED_EDGE('',*,*,#145,.T.);
#424=CARTESIAN_POINT('',(0.0,0.0,-32.534));
#425=DIRECTION('',(-0.0,-0.0,1.0));
#426=DIRECTION('',(0.0,1.0,0.0));
#427=CARTESIAN_POINT('',(0.0,0.0,-1.578));
#428=DIRECTION('',(0.0,0.0,-1.0));
#429=DIRECTION('',(0.0,1.0,0.0));
#430=CARTESIAN_POINT('',(0.0,0.0,-98.415));
#431=DIRECTION('',(0.0,0.0,-1.0));
#432=DIRECTION('',(0.0,1.0,0.0));
#433=DIRECTION('',(-6.12303176911189E-017,0.5,-0.866025403784439));
#434=DIRECTION('',(-6.12303176911189E-017,0.5,0.866025403784439));
#435=SURFACE_STYLE_FILL_AREA(#509);
#436=ORIENTED_EDGE('',*,*,#117,.F.);
#437=ORIENTED_EDGE('',*,*,#147,.F.);
#438=CARTESIAN_POINT('',(0.0,15.8724,-63.49));
#439=DIRECTION('',(-0.0,0.0,1.0));
#440=DIRECTION('',(0.0,-1.0,0.0));
#441=SURFACE_STYLE_FILL_AREA(#510);
#442=ORIENTED_EDGE('',*,*,#97,.T.);
#443=ORIENTED_EDGE('',*,*,#145,.F.);
#444=ORIENTED_EDGE('',*,*,#99,.T.);
#445=ORIENTED_EDGE('',*,*,#81,.T.);
#446=CARTESIAN_POINT('',(0.0,0.0,-0.783999999999999));
#447=DIRECTION('',(0.0,-0.0,-1.0));
#448=DIRECTION('',(0.0,1.0,0.0));
#449=SURFACE_STYLE_FILL_AREA(#511);
#450=ORIENTED_EDGE('',*,*,#83,.T.);
#451=ORIENTED_EDGE('',*,*,#77,.F.);
#452=ORIENTED_EDGE('',*,*,#131,.T.);
#453=ORIENTED_EDGE('',*,*,#147,.T.);
#454=CARTESIAN_POINT('',(0.0,0.0,-80.9525));
#455=DIRECTION('',(0.0,-0.0,-1.0));
#456=DIRECTION('',(0.0,1.0,0.0));
#457=CARTESIAN_POINT('',(0.0,0.0,-98.415));
#458=DIRECTION('',(1.0,0.0,1.22460635382238E-016));
#459=DIRECTION('',(-1.22460635382238E-016,0.0,1.0));
#460=CARTESIAN_POINT('',(0.0,0.0,-63.49));
#461=DIRECTION('',(0.0,0.0,-1.0));
#462=DIRECTION('',(0.0,1.0,0.0));
#463=CARTESIAN_POINT('',(0.0,0.0,0.00999999999999801));
#464=DIRECTION('',(0.0,0.0,-1.0));
#465=DIRECTION('',(0.0,1.0,0.0));
#466=SURFACE_STYLE_FILL_AREA(#512);
#467=SURFACE_STYLE_FILL_AREA(#513);
#468=ORIENTED_EDGE('',*,*,#97,.F.);
#469=ORIENTED_EDGE('',*,*,#123,.T.);
#470=ORIENTED_EDGE('',*,*,#99,.F.);
#471=ORIENTED_EDGE('',*,*,#93,.F.);
#472=CARTESIAN_POINT('',(0.0,0.0,-0.783999999999999));
#473=DIRECTION('',(0.0,-0.0,-1.0));
#474=DIRECTION('',(0.0,1.0,0.0));
#475=DIRECTION('',(-3.50638898736222E-022,2.86327845386209E-006,0.999999999995901));
#476=SURFACE_STYLE_FILL_AREA(#514);
#477=ORIENTED_EDGE('',*,*,#141,.F.);
#478=ORIENTED_EDGE('',*,*,#93,.T.);
#479=ORIENTED_EDGE('',*,*,#149,.F.);
#480=ORIENTED_EDGE('',*,*,#79,.F.);
#481=CARTESIAN_POINT('',(0.0,0.0,-32.534));
#482=DIRECTION('',(-0.0,-0.0,1.0));
#483=DIRECTION('',(0.0,1.0,0.0));
#484=SURFACE_STYLE_FILL_AREA(#515);
#485=ORIENTED_EDGE('',*,*,#123,.F.);
#486=ORIENTED_EDGE('',*,*,#81,.F.);
#487=CARTESIAN_POINT('',(0.0,7.47908388626344,0.00999999999999801));
#488=DIRECTION('',(-0.0,0.0,1.0));
#489=DIRECTION('',(0.0,-1.0,0.0));
#490=SURFACE_STYLE_FILL_AREA(#516);
#491=DIRECTION('',(0.0,0.0,-1.0));
#492=SURFACE_STYLE_FILL_AREA(#517);
#493=ORIENTED_EDGE('',*,*,#113,.T.);
#494=ORIENTED_EDGE('',*,*,#95,.T.);
#495=CARTESIAN_POINT('',(0.0,0.0,-98.415));
#496=DIRECTION('',(0.0,1.0,0.0));
#497=DIRECTION('',(0.0,0.0,-1.0));
#498=CARTESIAN_POINT('',(0.0,0.0,-1.578));
#499=DIRECTION('',(0.0,0.0,-1.0));
#500=DIRECTION('',(0.0,1.0,0.0));
#501=CARTESIAN_POINT('',(0.0,0.0,-63.49));
#502=DIRECTION('',(0.0,0.0,-1.0));
#503=DIRECTION('',(0.0,1.0,0.0));
#504=DIRECTION('',(-0.0,-0.0,1.0));
#505=FILL_AREA_STYLE('',(#518));
#506=FILL_AREA_STYLE('',(#519));
#507=FILL_AREA_STYLE('',(#520));
#508=FILL_AREA_STYLE('',(#521));
#509=FILL_AREA_STYLE('',(#522));
#510=FILL_AREA_STYLE('',(#523));
#511=FILL_AREA_STYLE('',(#524));
#512=FILL_AREA_STYLE('',(#525));
#513=FILL_AREA_STYLE('',(#526));
#514=FILL_AREA_STYLE('',(#527));
#515=FILL_AREA_STYLE('',(#528));
#516=FILL_AREA_STYLE('',(#529));
#517=FILL_AREA_STYLE('',(#530));
#518=FILL_AREA_STYLE_COLOUR('',#531);
#519=FILL_AREA_STYLE_COLOUR('',#532);
#520=FILL_AREA_STYLE_COLOUR('',#533);
#521=FILL_AREA_STYLE_COLOUR('',#534);
#522=FILL_AREA_STYLE_COLOUR('',#535);
#523=FILL_AREA_STYLE_COLOUR('',#536);
#524=FILL_AREA_STYLE_COLOUR('',#537);
#525=FILL_AREA_STYLE_COLOUR('',#538);
#526=FILL_AREA_STYLE_COLOUR('',#539);
#527=FILL_AREA_STYLE_COLOUR('',#540);
#528=FILL_AREA_STYLE_COLOUR('',#541);
#529=FILL_AREA_STYLE_COLOUR('',#542);
#530=FILL_AREA_STYLE_COLOUR('',#543);
#531=COLOUR_RGB('',0.498039215803146,0.498039215803146,0.498039215803146);
#532=COLOUR_RGB('',0.800000011920929,0.800000011920929,0.800000011920929);
#533=COLOUR_RGB('',0.800000011920929,0.800000011920929,0.800000011920929);
#534=COLOUR_RGB('',0.498039215803146,0.498039215803146,0.498039215803146);
#535=COLOUR_RGB('',0.800000011920929,0.800000011920929,0.800000011920929);
#536=COLOUR_RGB('',0.498039215803146,0.498039215803146,0.498039215803146);
#537=COLOUR_RGB('',0.800000011920929,0.800000011920929,0.800000011920929);
#538=COLOUR_RGB('',0.800000011920929,0.800000011920929,0.800000011920929);
#539=COLOUR_RGB('',0.498039215803146,0.498039215803146,0.498039215803146);
#540=COLOUR_RGB('',0.498039215803146,0.498039215803146,0.498039215803146);
#541=COLOUR_RGB('',0.498039215803146,0.498039215803146,0.498039215803146);
#542=COLOUR_RGB('',0.498039215803146,0.498039215803146,0.498039215803146);
#543=COLOUR_RGB('',0.800000011920929,0.800000011920929,0.800000011920929);
#544=AXIS2_PLACEMENT_3D('PCS',#545,#546,#547);
#545=CARTESIAN_POINT('',(0.0,0.0,0.0));
#546=DIRECTION('',(0.0,0.0,1.0));
#547=DIRECTION('',(1.0,0.0,0.0));
#548=AXIS2_PLACEMENT_3D('CIP',#549,#550,#551);
#549=CARTESIAN_POINT('',(0.0,0.0,-114.3));
#550=DIRECTION('',(0.0,0.0,1.0));
#551=DIRECTION('',(1.0,0.0,0.0));
#552=AXIS2_PLACEMENT_3D('CRP',#553,#554,#555);
#553=CARTESIAN_POINT('',(-15.875,0.0,-114.3));
#554=DIRECTION('',(0.0,0.0,1.0));
#555=DIRECTION('',(1.0,0.0,0.0));
#556=AXIS2_PLACEMENT_3D('MCS',#557,#558,#559);
#557=CARTESIAN_POINT('',(0.0,0.0,-63.5));
#558=DIRECTION('',(0.0,0.0,1.0));
#559=DIRECTION('',(1.0,0.0,0.0));
#560=CONSTRUCTIVE_GEOMETRY_REPRESENTATION_RELATIONSHIP('coordinate systems',$,#58,#561);
#561=CONSTRUCTIVE_GEOMETRY_REPRESENTATION('coordinate systems',(#544,#548,#552,#556),#10);
ENDSEC;
END-ISO-10303-21;
